Cool Riffs and Hot Lead Guitar Licks

Comments

Transcription

Cool Riffs and Hot Lead Guitar Licks
Potdevin - Cool Riffs and Hot Lead Guitar Licks - www.lepotdevin.com
1
Printing tips:
1 - Use Legal size paper 8.5” x 13 3/4” (215 mm x 350 mm)
2 - Select “print size” to “User Defined”: 8.5 x 11 3/4” (215 mm x 300mm)
3 - Cut printed sheets to A4 size: 11 3/4” length (300 mm)
2
Potdevin - Cool Riffs and Hot Lead Guitar Licks - www.lepotdevin.com
Cool Riffs and
Hot Lead Guitar Licks
Henry Potdevin
Opus Magnum Editions
C Copyright - Henry Potdevin - 2007
All rights reserved
Any duplication, adaptation or arrangement of the compositions
contained in this book requires the written consent of the publisher.
Beta v20070118i
www.lepotdevin.com
Potdevin - Cool Riffs and Hot Lead Guitar Licks - www.lepotdevin.com
3
Introduction
Playing the guitar is fun and it doesn‛t need to get too complicated. You don‛t even have to play the
songs exactly as they are done on the record. Getting the overall feeling of the music is just enough
to thoroughly enjoy playing your instrument.
A guitar lick or riff is an improvised solo, a musical phrase, a part of a melody. They can be played
either picking the strings one at a time or strumming complete chords. Here is a collection of
transcribed guitar licks, guitar patterns, or guitar riffs. Each transcription is in guitar tablature with
standard notation.
The included tablatures are not intended to be a play along text. Rather, the tabs are an initial help to
learn the pieces by heart and have accompaniment from other musicians or midi backup orchestration.
Best results may be obtained listening to the original songs while learning the pieces.
Recently I discovered I seldom have paid much attention to words in songs. As a child, back in the
nineteen fifties and sixties, my father was an eager explorer of high fidelity sound. We had a real nice
hi-fi stereo amplifier with big 12 inch speakers and an ever growing collection of Long Play records.
Very quickly, Philip, my younger brother and I, were introduced to handling the modern turntable,
playing whatever record from his collection we pleased and enjoying the whole sound technology.
Most of the music we had was instrumental and very well orchestrated. Esquivel, Dave Brucket, Fausto
Papetti, Tony Mottola, Frank Pourcel Orchestra, Paul Muriat Orchestra, Bert Kaempfert Orchestra,
Herb Albert and many others as well as the classicals, Ludwig van Beethoven, Tchaikovsky, Rimsky
Korsakov, Ravel, Falla, etc. Many of the pop hits of the time I first listened through Pourcel and
Muriat, and sometimes, many years later I got acquainted with the original versions by the Beatles and
other pop stars. Some of these songs I never heard again till internet came along near year 2000 and
I finally was able to listen to original versions.
A few days ago, I was talking to my son, Johann, about my indifference towards lyrics in any song. I
discovered I have always listened to the singer mumbling words and my attention is all spent on the
melody. I love listening to the instrumentation, the accompaniment, the beat but mainly, the melody.
Lyrics come to me much later and sometimes I don‛t even bother to find out what they say.
We discuss this very often for, I insist, many times songs don‛t have an interesting melody. The
composer is so concentrated on the message that many songs don‛t have a distinctive melody. Always
remember, I tell him, the best test you can put a song through is: can you whistle the tune? Can you
hum to it? Can you remember the melody afterwards? Do people around you, unconsciously, start to
hum the same song you are humming? Interesting, isn‛t it?
I musn´t ignore the fact that sometimes beautiful lyrics come together with a beautiful melody.
When this happens, the listener experiences total extasis.
The songs selected here correspond to the following criteria: basically they are fun songs to
interpret, ballads, pop songs, well known classicals, tv and cinema series themes, etc.; all together, the
first fifty years of international Rock & Roll and some other beautiful melodies.
Please remember: playing a musical instrument needs to be fun for you. This is vital in order for you to
enjoy learning and start progressing.
Henry Potdevin, January 2007
Does the melody
linger on ?
4
This book is dedicated to my old friend Hugh Watts
Taylor who back in elementary school enjoyed Rock
& Roll as much as I did and introduced me to so
many bands and records. Thanks to him I made early
contact with The Ventures´ instrumental electric
guitar music. Today he is a great musician himself;
probably the best bass player in recent Rock & Roll
history.
Potdevin - Cool Riffs and Hot Lead Guitar Licks - www.lepotdevin.com
I
s
Tablature instruction table:
b
-
bend
(
5b
/
-
slide up
\
-
slide down
h
-
hammer
p
-
pull off,
w
-
whammy bar
m
-
mitraillet -
)
( 5/7 )
( 5\3
5\ )
( 5 h7 )
or release ( 5p )
metralleta - machine gunning
(one note fast repetitive picking)
a
-
armonica (harmonic) barely touch
string at fret
Potdevin - Cool Riffs and Hot Lead Guitar Licks - www.lepotdevin.com
5
TV Series
24
The Saint Theme
TV Series
24
Mission Impossible
TV Series
25
Perry Mason
Movie Theme
25
Judas Priest - JC Superstar
TV Series
25
Alfred Hitchcok
.
TV Series
.
Contents
Rock & Roll - the 50s
26
Pink Panther Theme
TV Series
26
Roadrunner
TV Series
27
Benny Hill
TV Series
27
Mahna Mahna
TV Series
27
Beverly Hillbillies
Bill Haley
10
Rock Around The Clock
.
.
Instrumental
Bill Haley
10
Shake Rattle & Roll
Chuck Berry
10
No Particular Place To Go
Herb Alpert
29
Tijuana Taxi
Little Walter
10
My Babe
Bill Dogget
30
Honky Tonk
Chuck Berry
11
Johnny B. Goode
Ventures
32
Walk Don´t Run
Beatles
11
Roll Over Beethoven
Ventures
32
Work Song
Beach Boys
11
Fun Fun Fun
Ventures
33
Pshyched Out Flights
Elvis Presley
12
All Shook Up
Ventures
33
Walking With Pluto
Gene Vincent
12
Be Bop A Lu La
Flippers
34
Improptu Jazz A Go-Go
Jerry Lee Lewis
12
Great Balls Of Fire
Ventures
34
Stop Action
Eddie Cochran
12
Summertime Blues
Flippers
35
Shes´s Not There
Gary Glitter
12
Rock and Roll
Ventures
35
A Go-Go Dancer
Bobby Vee & Ventures
13
Linda Lu
Queen
13
Crazy Little Thing Called Love
Shakin´ Stevens
13
You Drive Me Crazy
Teen Tops
14
Popotitos
Teen Agers
14
La Gallinita Twist
Duanne Eddy
14
Dance To The Guitar Man
Paul Anka
14
Steel Guitar And A Glass Of Wine
.
Western
.
.
Beat - the 60s
.
Ventures
36
Hang On Sloopy - Ventures
Kingsmen
36
Louie Louie
Ventures
37
Wild Thing
Ventures
37
Wild Child
Shondells
37
Say I Am
Velvet Underground
37
Sweet Jane
Them
38
Gloria
Shadows
16
Apache
Young Rascals
38
Good Lovin
Shadows
17
Ghost Ryders In The Sky
Kinks
38
All Day And All Night
TV Series
18
Bonanza
Kinks
38
You Really Got Me
TV Series
18
Bat Masterson
Mitch Ryder
39
Devil With A Blue Dress On
Johnny Cash
19
I Walk The Line
Doors
39
Hello I Love You
Movie Theme
19
The Good, The Bad & The Ugly
Ritchie Valens
40
La Bamba
Ventures
19
The Lonely Bull
Surfaris
40
Wipe Out - Ametrallando
Junior Brown
19
Hot Rod Lincoln
Shadows
41
Round & Round - Milo a Go-Go
Ventures
20
Ram Bunk Shush
Beatles
41
Twist And Shout
Ventures
20
Raunchy
Ampex
41
Perro Lanudo
Jimmy Rogers
20
Wreck Of The John B.
.
.
6
Henry Mancini
.
Beatles
42
A Hard Day´s Night
Spy & Mistery
Beatles
42
Day Tripper
Ventures
21
Dick Tracy
Beatles
42
Words Of Love
Ventures
21
Batman Theme
Beatles
42
Birthday
Ventures
21
Get Smart
Beatles
43
And Your Bird Can´t Sing
43
Hey Bulldog
Movie Theme
22
James Bond
Beatles
Ventures
22
007 Theme
Beatles
43
Come Together
Ten Years After
22
Love Like A Man
Beatles
44
Something
Ventures
23
Secret Agent Man
Paul McCartney
44
My Love - lead
Ventures
23
Peter Gun
Beatles
45
Blackbird
Ventures
23
Green Onions
Beatles
46
I Will
Potdevin - Cool Riffs and Hot Lead Guitar Licks - www.lepotdevin.com
George Harrison
46
My Sweet Lord
Paul McCartney
46
Junk
Beatles
47
It's Only Love
Beatles
47
Girl
Beatles
47
Free As A Bird
Who
59
Baba O`Riley
Ten Years After
60
Workin On The Road
Rare Earth
60
Get Ready
John Lennon
60
Cold Turkey
Uriah Heep
60
Blind Eye
.
Uriah Heep
60
Tales
Rolling Stones
48
Satisfaction
Traditional
61
Blues 01
Rolling Stones
48
Jumpin Jack Flash
Traditional
61
Blues 02
Focus
61
Hocus Pocus
Rolling Stones
48
Paint It Black
Rolling Stones
48
Angie
Hollies
48
Long Cool Woman
Beach Boys
49
Long Tall Texan
Frank Wilson
49
The Last Kiss
Monkees
49
I´m A Believer
Erb Gut
61
Spam
Procol Harum
62
Whiter Side From Pale
Moody Blues
62
Nights In White Satin
Yes
63
Round About
Yes
63
Owner Of A Broken Heart
Malanga
64
Sonata # 1
.
64
Estoy Bareto
Boston
65
More Than A Feeling
Grand Funk
65
Feeling Alright
Steely Dan
66
Reelin´ In The Years
Santana
67
Samba Pa Ti
.
Led Zeppelin
68
Stairway To Heaven
.
Led Zeppelin
69
Tangerine
Cactus
69
Song For Aries
Monkees
49
Not Your Steppin´ Stone
Georgie Fame
50
Yeh Yeh
Roy Orbison
50
Oh, Pretty Woman
Bravos
50
Black Is Black
.
51
Chicken pickin´ Style Intro
Elvis Presley
51
Suspicious Minds
Carpenters
51
There´s A Kind Of Hush - lead solo
.
Arpeggio
Traditional
52
Blue Moon
Beach Boys
52
In My Room
Animals
52
The House of The Rising Sun
Shondells
52
Crimson and Clover
Doobie Brothers
70
Listen To The Music
Lemmon Pipers
52
Green Tambourine
Doobie Brothers
70
Eyes Of Silver
Beatles
53
Here Comes The Sun
Guess Who
70
American Woman
Beatles
53
All The Children Go To Heaven
Ringo Starr
53
It Don´t Come Easy
Byrds
53
Mr Tambourine Man
Creedence
53
Ramble Tamble
Kim Carnes
53
Bette Davies Eyes
.
The 70s & 80s
.
BTO
70
You Ain´t Seen Nothing Yet
Titanic
70
Love Is Love
Titanic
70
Something On My Mind
Edgar Winter
71
Frankenstein
Eric Burdon
71
Tobacco Road
.
T-Rex
71
Rock On
Creedence
54
Born On The Bayou
Hot Chocolate
72
Everyone´s a Winner
Creedence
54
Proud Mary
Stevie Wonder
73
Superstition
Rod Stewart
73
Do Ya Think I´m Sexy
Creedence
54
Down On The Corner
Joe South
54
Games People Play
Neil Young
55
Heart Of Gold
Bad Finger
55
Baby Blue
LaBionda
73
One For You, One For Me
Michael Jackson
73
Thriller
Knack
74
My Sharona
Dire Straits
74
Money For Nothing
Chris Issac
74
Wicket Games
Police
74
De Do Do Do, De Da Da Da
George Thorogood
74
Bad To The Bone
Guns & Roses
75
Don´t Cry
Nirvana
75
Come As You Are
.
Rock
.
Jimi Hendrix
56
Purple Haze
Jimi Hendrix
56
Fire
Cream
56
Tales Of Brave Ulyses
Cream
56
Sunshine Of Your Love
Flippers
56
Mi Parque
Cactus
57
Feel So Bad
Cactus
57
Hometown Bust
Derek & Dominoes
57
Layla
Iron Butterfly
58
In A Gadda Da Vida
Led Zeppelin
58
Heart Breaker
Led Zeppelin
58
Living Loving Maid
Deep Purple
59
Smoke On The Water
Deep Purple
59
Maybe I´m A Leo
Who
59
EMF
75
Unbelievable
Metallica
75
One
Smashing Pumkins
75
1979
Radiohead
75
Creep
Vanilla Ice
75
Ice Eyes Baby
We´re Not Gonna Take It
Potdevin - Cool Riffs and Hot Lead Guitar Licks - www.lepotdevin.com
.
Ballad
.
Paul Anka
76
Diana
Neil Sedaka
76
Oh Carol
Everly Brothers
77
All I Have To Do Is Dream
7
Contents - continuation
Paul Anka
77
Put Your Head On My Shoulder
Connie Francis
78
Where The Boys Are
Connie Francis
78
Too Many Rules
Connie Francis
79
Someone Else´s Boy
Connie Francis
79
Frankie
Angelica Maria
79
Edy, Edy
Little Peggy March
80
I Will Follow Him
Leslie Gore
80
It´s My Party
Mary McGregor
81
Torn Between Two Lovers
Twilights
82
Sea Of Love
Andy Williams
82
Moon River
Rightous Brothers
83
Unchained Melody
Roy Orbison
84
Crying
Roy Orbison
84
Only The Lonely
Roy Orbison
85
Leah
Roy Orbison
85
In Dreams
Tony Mottola
86
Roman Guitar
.
111
As Tears Go By
Bee Gees
111
Words
Troggs
111
Love Is All Around
Ventures
112
To Sir With Love
Frankie Valli
112
My Eyes Adore You
Frankie Valli
113
Can`t Take My Eyes Off Of You
Morris Albert
113
Feelings
Charlie Rich
114
The Most Beautiful Girl
Joe Cocker
114
You Are So Beautiful
James Blunt
114
You´re Beautiful
Billy Joel
115
Just The Way You Are
Peter Frampton
115
Baby, I Love Your Way
Albert Hammond
115
When I Need You
Bee Gees
116
How Deep Is Your Love
Chicago
116
If You Leave Me Now
Paul Young
117
Everytime You Go Away
Player
117
Baby Come Back
Johnny Nash
118
I Can See Clearly Now
Uriah Heep
118
Free Me
Phil Collins
119
One More Night
Kenny Rogers
119
You Decorated My Life
Elvis Presley
120
You Were Always On My Mind
Sinead O´Connor
121
Nothing Comapares 2U
Jamie O´neal
122
All By Myself
Cranberries
123
Ode To My Family
Pepe Tulu
87
Cara De Payaso
Santo & Johnny
89
Sleep Walk
Shadows
90
Stardust
.
91
Misty
Fausto Papetti
92
Same Old Line
Ventures
93
Theme From «A Summer Place»
.
Ventures
94
Spooky, Traces, Stormy
.
96
Blowing In The Wind
.
Peggy Lee
98
Fever
Petula Clark
98
Downtown
Mammas & Pappas
98
Dream A Little Dream
Frank Sinatra
99
Strangers In The Night
Frank & Nancy Sinatra
99
Something Stupid
Percy Sledge
100
When A Man Loves A Woman
Yvonne Elliman
100
I Don´t Know How To Love Him
Roberta Flack
101
Killing Me Softly
Whitney Houston
101
Saving All My Love For You
Bobby Hebb
102
Sunny
Simon & Garfunkel
102
Bridge Over Trouble Water
Michel Polnareff
103
Love Me, Please Love Me
Frank Pourcel
103
Mavie
Richard Clayderman
104
Ballad Of Adeline
Jane Birkin & S.G
105
Je T´aime
Dionne Warwik
106
The Way To San Jose
Seekers
106
Georgy Girl
Turtles
106
Happy Together
Bee Gees
107
Massachusets
Scott Mckenzie
107
San Francisco
Doors
107
Light My Fire
Carpenters
108
There´s A Kind Of Hush
B.J Thomas
108
Raindrops
.
8
Rolling Stones
Ballad - Spanish
Umberto Tozzi
124
Te Amo
Leo Dan
124
Mary Es Mi Amor
Juan Gabriel
125
Siempre En Mi Mente
Jorge Muñiz
125
Casi Siempre Estoy Pensando En Ti
Juan Gabriel
126
Querida
Fausto
127
Agua Caliente
Yuri
128
La Maldita Primavera
Armando Manzanero
129
Esta Tarde Vi Llover
Marisella
129
Si No Te Hubieras Ido
Mocedades
130
Eres Tu
Eros Ramazzotti
130
Cose Della Vita
Jarabe de Palo
131
La Flaca
Ella Baila Sola
132
Lo Hechamos A Suerte
Mana
133
Vivir Sin Aire
Soraya
133
De Repente
.
Divertimento
.
Speakers
134
MS 63-64
Traditional
134
Warm Up Scale
Hot Butter
135
Pop Corn
J.S. Bach
135
Anna Magdalena Musette
.
Classical Melodies
.
J.S. Bach
137
Tocatta & Fugue
Elton John
108
Daniel
J.S. Bach
138
Jesus Joy of Man´s Desire
Gilbert O´Sullivan
109
Claire
Apollo 100
138
Joy
Neil Diamond
109
Song Sung Blue
Bread
110
Everything I Own
Franz Schubert
139
Ave Maria
Ludwig van Beethoven
140
Mondschein Serenade
140
Claire de Lune
141
Preludes Op 28 # 4
Bread
110
Without You
Claude Debussy
Bread
110
If
Frederic Chopin
Potdevin - Cool Riffs and Hot Lead Guitar Licks - www.lepotdevin.com
Franz Liszt
141
Liebestraum # 3 - Dreams of Love
Sergei Rachmaninov
142
Love Theme From Paganini
A. Cano
144
Guitar Studio 1
D. Aguado
144
Guitar Studio 2
F. Sor
144
Guitar Studio 3
F. Carulli
145
Guitar Studio 4
Mauro Giuliani
145
Guitar Studio 5
.
International Folk
.
UB40
146
Kingston Town
Fulgencio Garcia
146
La Gata Golosa
.
146
Estoy Contento
A. Wills
147
Tiplecito
Teleman
147
El Paraiso
.
147
Pueblito Viejo
.
148
Nocturnal
. 148
Vereda Tropical
. 149
Lili Marleen
.
149
Bagpipe March
.
148
Chord Auxiliar
.
150
Resources - Alternate Positions
.
152
Bar Chords
.
154
Scales
.
156
Index
.
Potdevin - Cool Riffs and Hot Lead Guitar Licks - www.lepotdevin.com
9
Rock Around The Clock
- Billy Haley & The Comets, 1954, (Freedman, DeKnight) Orig chords ˜,
Lead solo:
A
E-------------|-------------|-----------|
B-5-5-7-5-8-5-|-5-5-7-5-8-5-|-5-5-7-5-8-|
G-------------|-------------|-----------|
D-------------|-------------|-----------|
A-------------|-------------|-----------|
E-------------|-------------|-----------|
E---------|---------|---------|-------|
B-5-7-5-8-|-5-7-5-8-|-5-7-5-8-|-5-7-5-|
G---------|---------|---------|-------|
D---------|---------|---------|-------|
A---------|---------|---------|-------|
E---------|---------|---------|-------|
D
A
E-b7-7-|-5-b7-7-|-5-b7-7-|-5-b7-7-|-5-----|---------5-|
B------|--------|--------|--------|---5-5-|-----5-7---|
G------|--------|--------|--------|-------|---6-------|
D------|--------|--------|--------|-------|-7---------|
A------|--------|--------|--------|-------|-----------|
E------|--------|--------|--------|-------|-----------|
E
D
E-------------|------------|-----------|---------|
B-14-13-12-10-|------------|-----------|---------|
G-------------|-12-11-10-8-|-----------|---------|
D-------------|------------|-11-10-9-7-|---------|
A-------------|------------|-----------|-9-8-7-5-|
E-------------|------------|-----------|---------|
A
E---------|---------|---------|
B---------|---------|---------|
G---------|---------|---------|
D-----0-2-|-----0-2-|-----0-2-|
A-0-4-----|-0-4-----|-0-4-----|
E---------|---------|---------|
Comet´s Lead guitarrists
Danny Cedrone and
Franny Beacher
Shake, Rattle & Roll
Outro:
A
E--5--5--5--5-|-5--7--9--10---|
B--8--7--6--5-|-5--7--9--10---|
G-------------|---------------|
D-------------|---------------|
A-------------|---------------|
E-------------|---------------|
- Billy Haley & The Comets, 1954,
(C.E. Calhoun) Orig chords ˜,
- Little Walter,
1954, (Willy Dixon) Orig chords ˜,
Main riff:
*
F
( 4 x )
*
E-------13\--13--13--13--13\-|
B-12h13-13\--13--13--13--13\-|
G----------------------------|
D----------------------------|
A----------------------------|
E----------------------------|
Lead solo:
F
Bb
E-----------------|-----------------|-----------------|
B-----------------|-----------------|-----------------|
G-----------------|-----------------|-------0-1-0-----|
D-------0-1-0-----|-------0-3-1-----|---0-3-------3-0-|
A---0-3-------3-0-|---0-3-------3-0-|-1---------------|
E-1---------------|-1---------------|-----------------|
*
E-------13\--15--15--15--15\-|
B-12h13-13\--15--15--15--15\-|
G----------------------------|
D----------------------------|
A----------------------------|
E----------------------------|
F
C
Bb
E-----------------|-----------|-------|
B-----------------|-----------|-------|
G-----------------|-----------|-------|
D-------0-1-0-----|-----------|-3-1-0-|
A---0-3-------3-0-|---0-1-2-3-|-------|
E-1---------------|-1---------|-------|
Outro:
F
E-------------------|----------1-|
B-6-4-4-3-3-2-2-2-1-|-1-3-5-6--1-|
G-------------------|----------2-|
D-------------------|----------3-|
A-------------------|----------3-|
E-------------------|----------1-|
My Babe
F
E-----------------|
B-----------------|
G-----------------|
D-------0-1-0-----|
A---0-3-------3-0-|
10
No Particular Place To Go
- Chuck Berry, 1964, (Chuck Berry) Orig chords ˜,
Lead solo:
G
C
G
D
C
G
E-7-----|-------|---------|----------|
B-8-----|-8-----|-8--7--6-|-----6----|
G-------|-9-----|-9--8--7-|-7---7----|
D-------|-------|---------|-9--------|
A-------|-------|---------|----------|
E-------|-------|---------|----------|
R & R
Outro:
E
E--0---0-0--0-0--0-0-0--0-|-0--0--0--0---7-|
B--5---3-3--2-2--1-1-1--0-|-0--2--4--5---7-|
G-------------------------|--------------8-|
D-------------------------|--------------9-|
A-------------------------|--------------9-|
E-------------------------|--------------7-|
Potdevin - Cool Riffs and Hot Lead Guitar Licks - www.lepotdevin.com
Johnny B. Goode
Roll Over Beethoven
- Chuck Berry, 1956, (Chuck Berry) Orig chords ˜,
Beatles, 1963 , Orig chords ˜,
- Chuck Berry, 1956, (Chuck Berry) Orig chords ˜,
Intro:
Intro:
A
°
repeat °
° repeat
°
E----------|-10--10--10-|-13\-----------|------------|
B----10-12-|-10--10--10-|-----10--------|------------|
G-11-------|------------|--------12--10-|------------|
D----------|------------|---------------|-12--12--12-|
A----------|------------|---------------|-12--12--12-|
E----------|------------|---------------|------------|
A
E---------|-5/6--6--6-|-5/5--6--6-|-5/5--6-|
B-----6-8-|-5/5--6--6-|-5/5--6--6-|-5/5--6-|
G-6/7-----|-----------|-----------|--------|
D---------|-----------|-----------|--------|
6
A---------|-----------|-----------|--------|
E---------|-----------|-----------|--------|
A
E-6----------------|-----------|------|------|---|
B-6--9-8-6---------|-----------|------|------|---|
G----------6-7-----|-6/7--7--7-|-7--7-|-7--7-|-7-|
D--------------8-8-|-7/8--8--8-|-8--8-|-8--8-|-8-|
A------------------|-----------|------|------|---|
E------------------|-----------|------|------|---|
A
° repeat
°
E-------------------------|-----------|----------|
B-10-10-10-10-10----------|----10--10-|-10-12-10-|
G-10-------------12-10----|----10--10-|----------|
D----------------------12-|-12--------|----------|
12
A-------------------------|-----------|----------|
E-------------------------|-----------|----------|
A
°
( x 10 )
°
E---------------------|--------------6-|----------------|
B-----6-8-6-----------|----6----6----6-|----6----6----6-|
G-5/7-------7-5-------|-8b---8b---8b---|-8b---8b---8b---|
D---------------8-5---|----------------|----------------|
A-------------------8-|----------------|----------------|
E---------------------|----------------|----------------|
A
E----10-12-|----12-|---------------------|
B-12-------|-10----|-12-10---------------|
G----------|-------|-------12-10---------|
D----------|-------|---------------10-12-|
A----------|-------|---------------------|
E----------|-------|---------------------||
A
E----6-------|-8-6--------------|---6-------|
B------9-8-6-|-----9-8-6--------|-6---9-8-6-|
G-8b---------|-----------8-6-h7-|-----------|
D------------|------------------|-----------|
A------------|------------------|-----------|
E------------|------------------|-----------|
A
E-----------|----------|
B----6----6-|----------|
G-8b---8b---|-8-6-h7---|
|D----------|--------8-|
A-----------|----------|
E-----------|----------|
Lead solo ( simplified )
Bb
°
( x 2 )
°
E---------|-5/6--6--6-|-6--6-|-------|
B-----6-8-|-5/6--6--6-|-6--6-|-------|
G-6/7-----|-----------|------|-8-7---|
6
D---------|-----------|------|-----8-|
A---------|-----------|------|-------|
E---------|-----------|------|-------|
° Bb (x 2)
°
(x4)
°
E-5/6-|-------|-5/6-|-------|
B-5/6-|-------|-5/6-|-------|
G-----|-8-7---|-----|-----8-|
D-----|-----8-|-----|-------|
A-----|-------|-----|-------|
E-----|-------|-----|-------|
D#
°
( x 2 )
°
E-----6---8-|-8-6---------|-6--6--6--6----------|
B-6h8---8---|-----8-6---6-|-6--6--6--6--6-------|
G-----------|---------8---|---------------8-7---|
D-----------|-------------|-------------------8-|
A-----------|-------------|---------------------|
E-----------|-------------|---------------------|
F
Bb
E---------|------------|---------------|
B-----6---|-6b--6b--6b-|-6-6-6-6-------|
G-7/8---8-|-8b--8b--8b-|---------8-7---|
D---------|------------|-------------8-|
A---------|------------|---------------|
E---------|------------|---------------|
Bb
E-----------|
B-----------|
G---7-8-7---|
D-8-------8-|
A-----------|
E-----------|
Potdevin
- Cool
Fun, Fun, Fun
Carl
Wilson
- Beach Boys, 1964, (Brian Wilson - Mike Love) Orig chords ˜,
Intro:
° Eb repeat °
E-------------|-11--11--11-|-11--14--11-|-------------------|
B-------11-13-|-11--11--11-|-11--13--11-|-14-11-------------|
G-11/12-------|------------|------------|-------13-11-------|
D-------------|------------|------------|-------------12/13-|
A-------------|------------|------------|-------------------|
E-------------|------------|------------|-------------------|
° Eb repeat ° repeat
° Ab repeat °
E------------|-------------|-----------|--------|
B------------|--11--11-----|------11---|-11--11-|
G-12--12--12-|--11--11-----|-13b-------|--------|
D-13--13--13-|----------13-|-----------|--------|
A------------|-------------|-----------|--------|
E------------|-------------|-----------|--------|
°Eb repeat ° Bb
E-----------|-11--11-|----14-13-11----------------|
B------11---|--------|-14----------14-11----------|
G-13b-------|--------|-------------------13-11----|
D-----------|--------|-------------------------13-|
A-----------|--------|----------------------------|
E-----------|--------|----------------------------|
Ab
Eb
E--------------------------|---------------|
B-11--11-----11--11-----11-|-13--13--11----|
G-11--11-----11--11-----11-|-----13--12----|
D---------3----------3-----|------------12-|
A--------------------------|------------13-|
E--------------------------|---------------|
Bb
E----------------|------------|-----------------------|
B-----13--11-----|-----13--11-|-11--11---11--11----11-|
G-12--13--12--12-|-12--13--12-|-10--10---10--10----10-|
D-13----------13-|-13---------|-----------------------|
A----------------|------------|-----------------------|
E----------------|------------|-----------------------|
Riffs and Hot Lead Guitar Licks - www.lepotdevin.com
11
All Shook Up
- Elvis Presley, 1958,
Be Bop A Lu La
- Gene Vincent, 1956, (--) Orig chords ˜,
(Ottis Blackwell, Elvis Presley) Orig chords ˜,
Intro:
* C
(x4)
*
E-----------------|
B-----------------|
G-----0-2-0-2-0---|
D---2-----------2-|
A-3---------------|
E-----------------|
Elvis Presley (vocals),
1st stanza
Scotty Moore (guitar),
* C
(x4)
*
F
G
C
Bill Black (bass),
E-----------------|---|---------|-------0-|
DJ Fontana (drums)
B-----------------|---|-----1-3-|---0-3---|
G-----0-2-0-2-0---|---|---2-----|-0-------|
D---2-----------2-|---|-3-------|---------|
A-3---------------|---|---------|---------|
E-----------------|---|---------|---------|
2nd stanza
F
C
F
G
E-----------------|-----------------|-----------------|---|
B-----1-3-4-3-1---|-----------------|-----1-3-4-3-1---|-3-|
G---2-----------2-|-----0-2-3-2-0---|---2-----------2-|---|
D-3---------------|---2-----------2-|-3---------------|---|
A-----------------|-3---------------|-----------------|---|
E-----------------|-----------------|-----------------|---|
Bass riff:
* E ( x2 )
* A
E---------------|---------------|
B---------------|---------------|
G---------------|---------0-----|
D---------0-----|-----2-4---4-2-|
A-----2-4---4-2-|-0-4-----------|
E-0-4-----------|---------------|
E
B
A
E
E-------------|---------|---------|
B-------------|---------|---------|
G-------------|---------|---------|
D-------0-----|---------|---------|
A-----2---4-2-|-2-2-2-2-|-0-0-0-0-|
E-0-4---------|---------|---------|
Great Balls Of Fire
- Jerry Lee Lewis, 1957,
(Ottis Blackwell, Jack Hammer ) Orig chords ˜,
Intro:
C
F7
G7
C
E---------|---------|---------|---------|---------|
B---------|---------|---------|---------|---------|
G---------|---------|-------0-|-0-0-0---|---------|
D---------|---0-2-3-|-0-3-4---|-------3-|---------|
A---0-2-3-|-3-------|---------|---------|---0-2-3-|
E-3-------|---------|---------|---------|-3-------|
Jerry Lee Lewis
and his
Pumpin´ Piano
Bass riff:
* C (2x) * F7 (2x) * G7
F7
* C (2x) *
E---------|---------|---------|---------|---------|
B---------|-----1-3-|---------|-----1-3-|---------|
G-----0-2-|---2-----|---------|---2-----|-----0-2-|
D---2-----|-3-------|-----0-2-|-3-------|---2-----|
A-3-------|---------|---2-----|---------|-3-------|
E---------|---------|-3-------|---------|---------|
Rock & Roll
- Gary Glitter, 1972,
(Glitter, Leander) Orig chords ˜,
Why is everybody
whistling what
I´m whisling ?
Summertime Blues
- Eddie Cochran, 1958, (--) Orig chords ˜,
Intro:
* E (muting) *
E / /
A
1st stanza:
E-------------------------------|
B-------5-5-3-------------------|
G-4-6-4-------6-4---4-4-4-6-----|
D-----------------6---------6---|
A-----------------------------7-|
E-------------------------------|
12
B / / E
Riff
E
E----------------|
B----------------|
G----------------|
D----------------|
A-4/-7--7-7--7-7-|
E----------------|
Verse: in their blue swede shoes...
G
F#
A
B
E-----|-----|-----|------|---------|
B-----|-----|-----|------|---------|
G-----|-----|-----|------|---------|
D-----|-----|-----|------|---------|
A--5--|--4--|--7--|--6---|---------|
E-----|-----|-----|------|-7-7-7-7-|
Chorus:
E
D
A
B
E---------|---------|
B---------|---------|
G---------|---------|
D---------|---------|
A---7-7-5-|---------|
E-7-------|-5-5-7-7-|
Potdevin - Cool Riffs and Hot Lead Guitar Licks - www.lepotdevin.com
Linda Lu
Crazy Little Thing Called Love
1st stanza:
* A
( 4x )
* D
( 2X )
*
E-------------------------|-------------------------|
B-------------------------|-3-3-3-1-1-1-------------|
G-2-2-2-0-0-0-------------|-------------2-2-2-------|
D-------------2-2-2-------|-------------------0-0-0-|
A-------------------0-0-0-|-------------------------|
E-------------------------|-------------------------|
Bass - 1st verse
*
E|---------|---------|---------|---------|
B|---------|---------|---------|---------|
G|---------|---------|---------|---------|
D|---4-7-4-|---4-7-4-|---------|---------|
A|-5-------|-5-------|---2-5-2-|-3-3-----|
E|---------|---------|-3-------|-----3-3-|
* A
( 2x )
* E
E-------------------------|-0-0-0-------------------|
B-------------------------|-------3-3-3-1-1-1-------|
G-2-2-2-0-0-0-------------|-------------------------|
D-------------2-2-2-------|-------------------2-2-2-|
A-------------------0-0-0-|-------------------------|
E-------------------------|-------------------------|
E|---------|---------|---------|---------|
B|---------|---------|---------|---------|
G|---------|---------|---------|---------|
D|---4-7-4-|---4-7-4-|---------|---------|
A|-5-------|-5-------|---2-5-2-|-3—3-----|
E|---------|---------|-3-------|-----3-3-|
- Ventures & Bobby Vee, 1962, (--) Orig chords ˜,
D
A
E
E-------------------------|-------------------------|
B-3-3-3-1-1-1-------------|-------------------------|
G-------------2-2-2-------|-2-2-2-0-0-0-------------|
D-------------------0-0-0-|-------------2-2-2-------|
A-------------------------|-------------------0-0-0-|
E-------------------------|-------------------------|
You Drive Me Crazy
- Shakin Stevens, 1981, (--) Orig chords ˜,
Lead Solo
Dm
Bb
C
E-15/17--17-17-15-15-15-----------------------------|
B--------------17-17-15--15/17-17-15----------------|
G---------------------------------17----------------|
D------------------------------------14h16-16-16-14-|
A---------------------------------------------------|
E---------------------------------------------------|
G
C
E-----------------------------|-------|
B-----------------------------|-------|
G-0-0-0-0-0-0---0-0-----0-0---|-------|
D-------------3-----0-3-----0-|-------|
A-----------------------------|-3-0---|
E-----------------------------|-----3-|
F
Bb
C
E---------------|-----6-------|-----8--------|
B---------------|---6---6-----|---8---8------|
G-----------0---|---------7---|---------9----|
D---------3-----|-8---------8-|-10--------10-|
A---0-1-3-----8-|-------------|--------------|
E-1-------------|-------------|--------------|
- Queen, 1979, (--) Orig chords ˜,
E|---------|---------|---------|---------|
B|---------|---------|---------|---------|
G|---------|---------|---------|---|
D|---4-7-4-|---------|---4-7-4-|---|
A|-5-------|-1-1-3-3-|-5-------|-5-|
E|---------|---------|---------|---|
Bass - 2nd verse
*
E|---------|---------|---------|---------|
B|---------|---------|---------|---------|
G|---------|---------|---------|---------|
D|---------|---------|---2-5-2-|---------|
A|---2-5-2-|---2-5-2-|-3-------|---2-5-2-|
E|-3-------|-3-------|---------|-3-------|
E|---------|---------|---------|---|
B|---------|---------|---------|---|
G|---------|---------|---------|---|
D|---0-3-0-|---0-3-0-|---------|---|
A|-1-------|-1-------|-----0-0-|---|
E|---------|---------|-0-0-----|-1-|
E|-------|-------|---------|---------|
B|-------|-------|---------|---------|
G|-------|-------|---------|---------|
D|-------|-------|---------|---------|
A|-5-4-3-|-------|---------|---------|
E|-------|-5-4-3-|---------|---------|
E|-------------|---------|
B|-------------|---------|
G|-------------|-2-0-----|
D|-------------|-----4-2-|
A|-----------0-|---------|
E|-0-0-0-0-0---|---------|
outro
*
E-14-12--------------|-------------------------|
B-------14-12--------|-------------------------|
G-------------12-h14-|----11/12----12/14-14-14-|
D--------------------|-14-------14-------------|
A--------------------|-------------------------|
E--------------------|-------------------------|
Queen
Brian May - lead guitar
Shakin Stevens
and lead guitarrist
Albert Lee (left)
Potdevin - Cool Riffs and Hot Lead Guitar Licks - www.lepotdevin.com
13
Popotitos
La Gallinita - Twist
Intro:
E
(x2)
E-------------------------|---|
B-------------------------|---|
G-------------------------|---|
D-------------2-2-0-------|---|
A---------2-4-------4-2---|---|
E-0-0-3-4---------------4-|---|
Intro:
A
E-------------|-------------|
B-------------|-------------|
G-------------|-------------|
D-----2-4-2---|-----2-4-2---|
A-0-4-------0-|-0-4-------0-|
E-------------|-------------|
Teen Tops, 1963, (--) Orig chords ˜,
Teen Agers, 1962, (Victor M. Porras) Orig chords ˜,
A
E---|-------------------------|
B---|-------------------------|
G---|-------------2-2-0-------|
D---|---------2-4-------4-2---|
A---|-0-0-3-4---------------4-|
E---|-------------------------|
D
E-------------|-------------|
B-------------|-------------|
G-----2-4-2---|-----2-4-2---|
D-0-4-------0-|-0-4-------0-|
A-------------|-------------|
E-------------|-------------|
E
B A B A E
E---|-------------------------|-----------|
B---|-------------------------|-----------|
G---|-------------------------|-----------|
D---|-------------2-2-0-------|-----------|
A---|---------2-4-------4-2---|-----------|
E---|-0-0-3-4---------------4-|-----------|
A
E-------------|-------------|
B-------------|-------------|
G-------------|-------------|
D-----2-4-2---|-----2-4-2---|
A-0-4-------0-|-0-4-------0-|
E-------------|-------------|
E
E-------------------------|
B-------------------------|
G-------------------------|
D-------------2-2-0-------|
A---------2-4-------4-2---|
E-0-0-3-4---------------4-|
E
D
E-----------|-----------|
B-----0-2-0-|-----------|
G---1-------|-----2-4-2-|
D-2---------|-0-4-------|
A-----------|-----------|
E-----------|-----------|
A
E-------------|
B-------------|
G-------------|
D-----2-4-2---|
A-0-4-------0-|
E-------------|
14
Potdevin - Cool Riffs and Hot Lead Guitar Licks - www.lepotdevin.com
Dance To The Guitar Man
Duanne Eddy, 1962, (--) Orig chords ˜,
Intro:
E
E-------------|---------|
B-------------|---------|
G-------------|---------|
D-------------|---------|
A-------------|---------|
E-0-0-0-0-0-0-|-0-0-3-4-|
1st stanza
* A
(x4)
* D
(x3)
* E
E-----------------|---------------|---|
B-----------------|---------------|---|
G-----------------|-------2-2-4-2-|---|
D---------2-2-4-2-|-0-0-0---------|---|
A-0-0-2-4---------|---------------|---|
E-----------------|---------------|-0-|
A
D
E
E---------|------------|------------|---------|--------------|
B---------|------------|------------|---------|--------------|
G---------|------------|------------|---------|--------------|
D---------|------------|-0----0-----|---------|--------------|
A-------0-|-0----0-----|---4b---4b--|---------|--------------|
E-0-3-4---|---4b---4b--|------------|-0--3--0-|-0--2--2b--0--|
A
E---------------|-------------|
B---------------|-------------|
G---------------|-------------|
D---------------|---1-3-1---1-|
A-------------0-|-3-------3---|
E-0---0-0-3-4---|-------------|
Lead solo:
A
E----------------------|-----------|
B----------------------|-----------|
G----------------------|-----------|
D----------------------|-----2-4-2-|
A----0-0----0-0----0-0-|-2/3-------|
E-4b-----4b-----4b-----|-----------|
D
E
E----------------8-|----8-10-10b-10b-10b-8-|
B-----1-3-3/5/10---|-10--------------------|
G-2-2--------------|-----------------------|
D------------------|-----------------------|
A------------------|-----------------------|
E------------------|-----------------------|
A
E---------------|---------|---------------|
B-10-8-----10---|---------|---------------|
G------7h9----7-|-7-5h7p5-|-2-0-----------|
D---------------|---------|-----2-0-------|
A---------------|---------|---------3-3-0-|
E---------------|---------|---------------|
E
E---------------|
B---------------|
G---------------|
D---------------|
A-------------0-|
E-0-0-0-0-3-4---|
Steel Guitar & Glass of Wine
Paul Anka
Intro:
A
E-5--3----5--3----5--3--|--3--1----3--1----3--1-|
B-6--4----6--4----6--4--|--3--1----3--1----3--1-|
G-----------------------|-----------------------|
D-----------------------|-----------------------|
A-----------------------|-----------------------|
E-----------------------|-----------------------|
Potdevin - Cool Riffs and Hot Lead Guitar Licks - www.lepotdevin.com
15
Apache
Shadows, 1960, (Jerry Lordan) Orig chords ˜,
Intro:
° Am
D ( x 2 ) °
E----------|-----5-----|
B----------|-------8-5-|
G---5-7b-7-|---5-------|
D-7--------|-7---------|
A----------|-----------|
E----------|-----------|
° Am
D ( x 2 ) ° D
G
D
E-----|---------|-------|-------------|-------|
B-----|---------|-------|---3---3-----|-------|
G---2-|---2-----|-------|-2---2---2h4-|-2-0-2-|
D-2---|-2---2h4-|-2-0-2-|-------------|-------|
A-----|---------|-------|-------------|-------|
E-----|---------|-------|-------------|-------|
Am
D
Am
E-----|---------|-------|
B-----|---------|-------|
G---2-|---2-----|-------|
D-2---|-2---2h4-|-2-0-2-|
A-----|---------|-------|
E-----|---------|-------|
Triplets ( x 2)
° F
Am °
E------------------------------------------------|-----|
B------------------------------------------------|-----|
G------------------------------------------------|-----|
D---3-3-3-------3-3-3-------3-3-3-------3-3-3--3-|-2---|
A-3-------3-3-3-------3-3-3-------3-3-3----------|---0-|
E------------------------------------------------|-----|
F
G
Am
F
G
Am
E---------|-----0-------|---------|-------|
B-----1-0-|-1-3---3-1---|-----1-0-|-1-3---|
G---2-----|-----------2-|---2-----|-----0-|
D-3-------|-------------|-3-------|-------|
A---------|-------------|---------|-------|
E---------|-------------|---------|-------|
F
G
Am
E---------|-------------|----------------|
B---------|-----5-------|----------------|
G-----5-4-|-5-7---7-5---|----------------|
D---7-----|-----------7-|----------------|
A-8-------|-------------|----------------|
E---------|-------------|----------------|
F
G
Am
E-----3------6w-|---------|-----0-------|
B-2h3---3/5--8w-|-----1-0-|-1-3---3-1---|
G---------------|---2-----|-----------2-|
D---------------|-3-------|-------------|
A---------------|---------|-------------|
E---------------|---------|-------------|
Triplets ( x 2)
° F
Am °
E------------------------------------------------|-----|
B------------------------------------------------|-----|
G------------------------------------------------|-----|
D---8-8-8-------8-8-8-------8-8-8-------8-8-8--8-|-7---|
A-8-------8-8-8-------8-8-8-------8-8-8----------|---5-|
E------------------------------------------------|-----|
2 part - pizzicato - muting strings
° Am
D ( x 2 ) ° D
G
D
E-----|-------|-------|-----|------|-------|
B-----|-------|-------|-----|------|-------|
G-----|-------|-------|---7-|--7-4-|-------|
D---7-|---7-4-|-------|-7---|-7----|-7-5-7-|
A-7---|-7-----|-7-5-7-|-----|------|-------|
E-----|-------|-------|-----|------|-------|
Am
D
Am
E-----|-------|-------|----|
B-----|-------|-------|----|
G---7-|---7-4-|-------|-5w-|
D-7---|-7-----|-7-5-7-|-7w-|
A-----|-------|-------|----|
E-----|-------|-------|----|
16
F
G
Am
E---------|---------|--------------------|
B---------|---------|--------------------|
G-----5-4-|-4h5-7---|--------------------|
D---7-----|-------5-|-5-5-5--5-6--5-6--5-|
A-8-------|---------|--------------------|
E---------|---------|--------------------|
F
G
Am
E---------|-------------|---------|
B---------|-----5-------|-5-------|
G-----5-4-|-5-7---7-5---|---7-5---|
D---7-----|-----------7-|-------7-|
A-8-------|-------------|---------|
E---------|-------------|---------|
Triplets
° F
Am °
E------------------------------------------------|-----|
B------------------------------------------------|-----|
G------------------------------------------------|-----|
D---8-8-8-------8-8-8-------8-8-8-------8-8-8--8-|-7---|
A-8-------8-8-8-------8-8-8-------8-8-8----------|---5-|
E------------------------------------------------|-----|
Final Triplets
° Outro: repeat & fade °
° F
Am ° Am
D
E-----------------------|----------|-----5-----|
B-----------------------|----------|-------8-5-|
G-----------------------|---5-7b-7-|---5-------|
D-------------3-3-2-----|-7--------|-7---------|
A-----0-0-3-3---------0-|----------|-----------|
E-1-1-------------------|----------|-----------|
Potdevin - Cool Riffs and Hot Lead Guitar Licks - www.lepotdevin.com
Ghost Ryders In The Sky
Shadows, 1964, (S. Jones) Orig chords ˜,
Intro:
( x 2 )
Am
F
G
E------------------|---------0-3-|
B--------3-1-0-----|-----3-1-----|
G-2--0-2-------0-2-|-0-2---------|
D------------------|-------------|
A------------------|-------------|
E------------------|-------------|
Intro:
( x 2 ) variation
Am
F
G
E---------------------|---------------|
B---------------------|-------------8-|
G---------7-----------|------7----9---|
D-7-----7---10-9----7-|----7---10-----|
A----10----------10---|-10------------|
E---------------------|---------------|
Fill in: Gallop
E-------------------|
B-------------------|
G-------------------|
D-2-2---2-2---2-2---|
A-----0-----0-----0-|
E-------------------|
Am
C
G
E----------|----------|----------|-----|
B----------|----------|----------|-----|
G----------|----------|----------|-----|
D----------|----------|----------|-----|
A---0--0-0-|-2-3--3-3-|-0--------|-----|
E-0--------|----------|---3--3-3-|-0-3-|
Am
C
E----------|----------|----------|-----|
B----------|----------|----------|-----|
G----------|----------|----------|-----|
D----------|----------|-0-2--2-2-|---2-|
A---0--0-0-|-2-3--3-3-|----------|-3---|
E-0--------|----------|----------|-----|
Duane Eddy
Am
E-------------|---------|---------|
B-------------|---------|---------|
G-----2-2-2-2-|---------|---------|
D-2-2---------|-2-2-2-2-|---2-----|
A-------------|---------|-3---3-0-|
E-------------|---------|---------|
F
Am
E------------------|--------------|
B------------------|--------------|
G------------------|--------------|
D------------------|--------------|
A------------3-3-3-|-3--0-0-0---0-|
E-0-1--1-1-1-------|----------3---|
C
Am
E----------3-|--5--5--5--5-----|
B-5--5--5--5-|--5--5--5--5--5--|
G-5--5--5----|--------------5--|
D------------|-----------------|
A------------|-----------------|
E------------|-----------------|
F
Am
E------------|-----|
B----------1-|-1---|
G------------|---2-|
D-2-3--3-3---|-----|
A------------|-----|
E------------|-----|
Second part
Am
C
G
E----------|----------|----------|-----|
B---1--1-1-|-3-4--4-4-|-1--------|-----|
G-0--------|----------|---3--3-3-|-0-3-|
D----------|----------|----------|-----|
A----------|----------|----------|-----|
E----------|----------|----------|-----|
Am
C
E----------|----------|-1-3--3-3-|---3-|
B---1--1-1-|-3-4--4-4-|----------|-4---|
G-0--------|----------|----------|-----|
D----------|----------|----------|-----|
A----------|----------|----------|-----|
E----------|----------|----------|-----|
Hank Marvin
E-3-3-8-8-8-8-|---------|----------|
B-------------|-8-8-8-8-|---8------|
G-------------|---------|-8---8----|
D-------------|---------|-------10-|
A-------------|---------|----------|
E-------------|---------|----------|
F
Am
E--------------------------|-----------------|
B--------------------------|-----------------|
G------------------8---8-8-|-8---------------|
D-10-----------------------|---10-10-10-8-10-|
A----11--11-11--11---------|-----------------|
E--------------------------|-----------------|
Outro:
( repeat & fade )
Am
F
G
E-----------10-------------|-------10----12-15-|
B-10-----10----13-12----10-|----10----13-------|
G-----12-------------12----|-12----------------|
D--------------------------|-------------------|
A--------------------------|-------------------|
E--------------------------|-------------------|
Am
Potdevin - Cool Riffs and Hot Lead Guitar Licks - www.lepotdevin.com
17
Bonanza
Bat Masterson
Intro:
D
slide all the way up
E--2/-----------------------|
B--3/-----------------------|
G--2/-----------------------|
D--0------------------------|
A---------------------------|
E---------------------------|
Intro:
---, 1965, (--) Orig chords ˜,
---, 1960, (--) Orig chords ˜,
G
D
E-----------------|-----------------|
B---0---0---------|---0---0---1-0---|
G-----0---0---0---|-----0---0-----2-|
D-0---------2---0-|-0---------------|
A-----------------|-----------------|
E-----------------|-----------------|
A
E---------------0-|---------|---------|
B---0---0-0-1-3---|-1-0-----|-1-0-----|
G-----0-----------|-----2---|-----2-0-|
D-0---------------|-------0-|---------|
A-----------------|---------|---------|
E-----------------|---------|---------
D
E--------------------------------------------|
B-----------------------------------------12-|
G--------------------------------------12----|
D-12--12-12-12--12-12-12--12-12-12--12-------|
A--------------------------------------------|
E--------------------------------------------|
G
E------------------------------------------------|
B------------------------------------------------|
G----------------------------------------9-11-12-|
D-12--12-12-12--12-12-12-12-12--12-12-12---------|
A------------------------------------------------|
E------------------------------------------------|
A
E-------0---------|-----------|-----------|
B---1-3-------0-0-|-----------|-----------|
G-0-------0-2-----|-----0-2-2-|-0-------0-|
D-----------------|-2-4-------|---4-2-4---|
A-----------------|-----------|-----------|
E-----------------|-----------|-----------|
A
E-------0---------|-0---0-2-2-|-0---0-2-|
B---1-3-------0-0-|---4-------|---4-----|
G-0-------0-2-----|-----------|---------|
D-----------------|-----------|---------|
A-----------------|-----------|---------|
E-----------------|-----------|---------|
E-----------------------------------------12-|
B--------------------------------------13----|
G-12--12-12-12--12-12-12--12-12-12--12-------|
D--------------------------------------------|
A--------------------------------------------|
E--------------------------------------------|
C
E-------------------------------------------------|
B----------------------------------------10-12-13-|
G-12--12-12-12--12-12-12-12-12--12-12-12----------|
D-------------------------------------------------|
A-------------------------------------------------|
E-------------------------------------------------|
A
E-2-------------|
B---4-0-----3---|
G-------------0-|
D---------------|
A---------------|
E---------------|
D
E----10----|---------|----------------|
B-12-------|---------|-------12----10-|
G-------12-|-9-12----|----12----12----|
D----------|------12-|-12-------------|
A----------|---------|----------------|
E----------|---------|----------------|
D
E--------------------------------------------|
B-----------------------------------------12-|
G--------------------------------------12----|
D-12--12-12-12--12-12-12--12-12-12--12-------|
A--------------------------------------------|
E--------------------------------------------|
G
E------------------------------------------------|----------|--1--2-|
B------------------------------------------------|-------12-|--2--3-|
G----------------------------------------9-11-12-|----12----|--1--2-|
D-12--12-12-12--12-12-12-12-12--12-12-12---------|-12-------|-------|
A------------------------------------------------|----------|-------|
E------------------------------------------------|----------|-------|
Whistle your day away
18
Potdevin - Cool Riffs and Hot Lead Guitar Licks - www.lepotdevin.com
I Walk the Line ´64 vers
Johnny Cash, 1956, (Cash) Orig chords ˜, This version 1964
A
D
A
E
E------------|-----------|----------|------------|
B------------|-----------|----------|------------|
G------------|-----------|----------|------------|
D------------|-------0-0-|-0--------|------------|
A-------0--0-|-0-2-4--0--|--4-2-0-0-|-0------2---|
E-0-2-4--0---|-----------|-------0--|--4-2-0---0-|
B
E
E-------------------|----------|
B-------------------|----------|
G-------------------|----------|
D--------1----------|----------|
A----0-2--2-0-------|-2-2-2-2--|
E-0-2---------4-2-0-|--0-0-0-0-|
The Good The Bad & The Ugly
---, 1968, (---) Orig chords ˜,
Instrumental:
E-----------|-------|-----------|-------|
B-----------|-------|-----------|-------|
G---7---7---|-------|---7---7---|-----5-|
D-7---7---7-|---5---|-7---7---7-|---5---|
A-----------|-8---5-|-----------|-8-----|
E-----------|-------|-----------|-------|
E---------|------------|-----------|--------|
B---------|-5-h6-5-----|-----------|--------|
G---7---7-|--------7-5-|---7---7---|--------|
D-7---7---|------------|-7---7---7-|-5------|
A---------|------------|-----------|----5-5-|
E---------|------------|-----------|--------|
E-----------|-----------|-------------------|-5-|
B-----------|-----------|-------------5---8-|-5-|
G---------5-|---------5-|---------5-----5---|---|
D-----7-----|-----7-----|-----7-----5-------|---|
A-5-8---8---|-5-8---8---|-5-8---8-----------|---|
E-----------|-----------|-------------------|---|
The Lonely Bull
Ventures, 19--, (--) Orig chords ˜,
1st stanza:
*
E----------------|---------|-------|
B-----5----------|---------|-------|
G-6-7--7-6-4-----|-4-------|-------|
D------------5-5-|---7-----|-7---5-|
A----------------|-----7-7-|---7---|
E----------------|---------|-------|
*
E----------------|-------|---------|
B-----5----------|-------|---------|
G-6-7--7-6-4-----|-4-----|---------|
D------------5-5-|---7---|-6-4-6-7-|
A----------------|-------|---------|
E----------------|-------|---------|
Fill in 1:
E--------------------------|
B--------------------------|
G--------------------------|
D--------------------------|
A-12-12-10-10-9-9----------|
E-----------------12-12-10-|
2nd stanza:
E------------------|-------------|
B------------------|-------------|
G-11---------------|-------------|
D----12-11-9-------|-------------|
A------------12----|----10-12----|
E---------------12-|-12-------12-|
*
E------------------|------|-----------|
B------------------|------|-----------|
G-11---------------|------|-----------|
D----12-11-9-------|------|---------9-|
A------------12----|----9-|-9-11-12---|
E---------------12-|-12---|-----------|
Fill in 2:
E------------------------|
B------------------------|
G------------------------|
D-9-9--------------------|
A-----12-12-11-11-9-9----|
E---------------------12-|
E----------|------------|------------|
B-6-5----8-|---6-5----8-|---6-5----5-|
G-----7----|-7-----7----|-7-----7----|
D----------|------------|------------|
A----------|------------|------------|
E----------|------------|------------|
E-----------|-----------|-----------|-----|-----|
B-----------|-----------|-----------|-----|-----|
G-5-7-5-4-5-|---4-------|-----------|-----|-5-6-|
D-----------|-7---7-5-7-|-4-5-4---4-|-----|-----|
A-----------|-----------|-------7---|-5-6-|-----|
E-----------|-----------|-----------|-----|-----|
Hot Rod Lincoln
Junior Brown - Kentucky Headhunters,
19--, (--) Orig chords ˜,
Intro:
F# E
E---|-------------------------------|
B---|-------------------------------|
G---|-------------------------------|
D---|-----------------0-0-----------|
A---|---------2-2-4-2-----4-2-4-2---|
E-2-|-0-0-3-2---------------------4-|
A
E-------------------------------|
B-------------------------------|
G-----------------0-0-----------|
D---------2-2-4-2-----4-2-4-2---|
A-0-0-3-2---------------------4-|
E-------------------------------|
B
E-------------------------------|
B-------------------------------|
G-------------1---2-2-1---1-----|
D-------2-4-4---4-------4---4-1-|
A-2-2-4-------------------------|
E-------------------------------|
E
E--------------------------|
B--------------------------|
G--------------------------|
D-2-2-----2-2-----2------2-|
A-----4-2-----4-2---4-2----|
E--------------------------|
Potdevin - Cool Riffs and Hot Lead Guitar Licks - www.lepotdevin.com
19
Ram Bunk Shush
Raunchy
Intro:
F#
A
F#
E-------------|-------------|
B-------------|-------------|
G-------------|-------------|
D-------------|-------------|
A-------------|-------------|
E-2-2-2-2-2-2-|-7-7-7-7-7-2-|
*
E---------|-------------|---------|-------------|
B---------|-------------|---------|-------------|
G---------|-------------|---------|-------------|
D-----0-0-|-3-4-3-4-0-0-|-----0-0-|-3-4-3-4-0-0-|
A-0-3-----|-------------|-0-3-----|-------------|
E---------|-------------|---------|-------------|
Ventures, 1961, (Millinder, Glover, Munday) Orig chords ˜,
Ventures, 1960, (--) Orig chords ˜,
1st Stanza
F#
B-----------------|-------|---------------------------|
G-3/6---4/6---4/6-|--6--4-|--4/6--6--6--6--6--6--7----|
D-3/6---4/6---4/6-|--6--4-|--4/6--6--6--6--6--6--6--3-|
A-----------------|-------|-------------------------3-|
E-----------------|-------|---------------------------|
E-----------------|-------|---------------------------|
F#
E-----------------------------|
B-6/7---7--7---7--7---7--6--4-|
G-5/6---6--6---6--6---6--6--4-|
D-----------------------------|
A-----------------------------|
E-----------------------------|
F#
E------------------------------------------|
B---------10-------------------------------|
G----8-11----11-9--------------------------|
D-11--------------11-9-11-10-9-------------|
A------------------------------12-10-------|
E------------------------------------12-10-|
F#
G G# A
G# G F#
E--------------------------------------------|
B--------------------------------------------|
G--------------------------------------------|
D--------------------------------------------|
A--------------------------------------------|
E--2--2--2--2--3--4--5--5--5--5--4--3--2-----|
Wreck of The John B
Jimmy Rogers, 1961, (--) Orig chords ˜,
Main chords: play arpeggio muting strings.
F
C
F
E-----------------------|------------8--------|
B------------10---------|--------------8------|
G------10-------10------|----------------9----|
D---10----10-------10---|------10----------10-|
A-8-------------------8-|---10----10----------|
E-----------------------|-8-------------------|
Bb
F D#
E-----------------|-----------------|
B---------6-------|---------8-------|
G-----7-----7-----|-----8-----8-----|
D---8---8-----8---|---8---8-----8---|
A-8-------------8-|-6-------------6-|
E-----------------|-----------------|
Here she comes
Whistling happily.
20
Potdevin - Cool Riffs and Hot Lead Guitar Licks - www.lepotdevin.com
Dick Tracy
Ventures, 1966, (--) Orig chords ˜,
Intro:
E
G
E---------|
B---------|
G---------|
D---------|
A---------|
E-0-0-3-3-|
Batman Theme
Ventures, 1966, (--) Orig chords ˜,
Riff
F#
(x4)
B
(x2)
E-----------------|-----------------|
B-----------------|-----------------|
G-----------------|-----------------|
D-----------------|-9-9-8-8-7-7-8-9-|
A-9-9-8-8-7-7-8-9-|-----------------|
E-----------------|-----------------|
*
( x2 )
*
E
G
E G.....
E---|-----|---------|------------------------|
B---|-----|---------|---------10-11-12-11-10-|
G---|-4-3-|-0-------|-9-11-12----------------|
D-2-|-----|---2-0-2-|------------------------|
A---|-----|---------|------------------------|
E---|-----|---------|------------------------|
A C A C.....
E----|--------|--------------|----------10-11-12-11-10-|
B----|--------|--------------|-10-12-13----------------|
G-14-|--17-16-|--13----------|-------------------------|
D----|--------|-----14-12-14-|-------------------------|
A----|--------|--------------|-------------------------|
E----|--------|--------------|-------------------------|
E
G
E G.....
E---|-----|---------|------------------------|
B---|-----|---------|---------10-11-12-11-10-|
G---|-4-3-|-0-------|-9-11-12----------------|
D-2-|-----|---2-0-2-|------------------------|
A---|-----|---------|------------------------|
E---|-----|---------|------------------------|
F#
(x2)
C#
(x1)
E-----------------|-----------------------|
B-----------------|-----------------------|
G-----------------|-----------------------|
D-----------------|-11-11-10-10-9-9-11-11-|
A-9-9-8-8-7-7-8-9-|-----------------------|
E-----------------|-----------------------|
B
(x1)
F#
E-------------------|-----------------|
B-------------------|-----------------|
G-------------------|-----------------|
D-10-10-9-9-8-8-9-9-|-----------------|
A-------------------|-9-9-8-8-7-7-8-9-|
E-------------------|-----------------|
B / - A /
E G E G.....
E------------|------------------------|----------10-11-12-11-10-|
B------------|---------10-11-12-11-10-|-10-12-13----------------|
G------------|-9-11-12----------------|-------------------------|
D------------|------------------------|-------------------------|
A------------|------------------------|-------------------------|
E------------|------------------------|-------------------------|
Get Smart
Ventures, 1966, (--) Orig chords ˜,
Intro:
F
E-------|-----|-------|-----|
B-------|-----|-------|-----|
G-------|-----|-------|-----|
D-------|-----|-------|-----|
A---8-7-|-8\--|---8-7-|-8\--|
E-8-----|-----|-8-----|-----|
Whos teaching who
to whistle?
F
A#
C#
B
F
E-------|---------|---------|-------------------|
B-------|---------|---------|-------------------|
G-------|---------|---------|-------------------|
D-------|---------|---------|-------------------|
A---8-7-|-6-5-6-5-|-4-3-4-3-|-2-1-2-1-----------|
E-8-----|---------|---------|---------1-4-1-4-1-|
Main verse:
F
E-------------|-----|-------------|-------|
B-------------|-----|-------------|-------|
G-------------|-5-8-|-------------|-------|
D---6---8-6---|-----|---6---8-6---|-8-6---|
A-8---8-----8-|-----|-8---8-----8-|-----8-|
E-------------|-----|-------------|-------|
F
B
F
E-------------|-----|-------|-----|
B-------------|-----|-------|-----|
G-------------|-5-8-|-------|-----|
D---6---8-6---|-----|---9-8-|-6---|
A-8---8-----8-|-----|-8-----|---8-|
E-------------|-----|-------|-----|
Potdevin - Cool Riffs and Hot Lead Guitar Licks - www.lepotdevin.com
21
James Bond
007 Theme
Intro:
B
* ( 2 x ) *
E-------|-------|----------|-----------|
B-------|-------|----------|-----------|
G-4-4---|-4-4---|-4--4-4-4-|-----------|
D-------|-------|----------|-----------|
A-----2-|-----2-|----------|-2-3-4-3 2-|
E-------|-------|----------|-----------|
Intro:
*
( x3 )
*
E----------|--------------|
B--5---5---|--------------|
G----5-----|-5--5-----5-5-|
D-7------7-|------7-7-----|
A----------|--------------|
E----------|--------------|
---, 1966, (--) Orig chords ˜,
* 1st stanza
( 3 x )
Ventures, 1966, (--) Orig chords ˜,
*
E-----------|-------|-----------|-------|-----|-------|
B-----------|-------|-----------|-------|-----|-------|
G-----------|-------|-----------|-------|-----|-------|
D-----------|-------|-----------|-------|-1-0-|-------|
A-----------|-------|-----------|-------|-----|-2-0-2-|
E-0-2-2-2-2-|-0-0-0-|-0-3-3-3-3-|-2-2-2-|-----|-------|
* 1st stanza
( 4 x )
*
1st & 3rd x
2nd & 4th x
E-----------|---------|-------|-----||-------||-------|
B-----------|-----3-2-|-------|-----||-------||-------|
G-----------|---0-----|-0-2-4-|-0---||-------||-------|
D-----------|-2-------|-------|---4-||---2---||---0-2-|
A-2-3-4-3 2-|---------|-------|-----||-2---4-||-2-----|
E-----------|---------|-------|-----||-------||-------|
1st stanza:
*
(x2)
*
E------------|---------------|
B------------|---------------|
G------------|----------10-9-|
D-7-9-10-9-7-|-7-9-10-7------|
A------------|---------------|
E------------|---------------|
*
E------------|----------------|
B------------|----------11-10-|
G-7-9-10-9-7-|-7-9-10-7-------|
D------------|----------------|
A------------|----------------|
E------------|----------------|
A
E---------|---------|------------|
B---------|---------|------------|
G---------|-------9-|-10----10-9-|
D-------9-|-7-8-7---|----10------|
A-7-8-7---|---------|------------|
E---------|---------|------------|
*
( 2 x )
*
*
E-----|---------|-----|---------|
B-----|---------|-----|---------|
G-----|---------|-----|---------|
D-2-2-|-2-4-2-4-|-5-5-|-5-4-2-4-|
A-----|---------|-----|---------|
E-----|---------|-----|---------|
B
* ( 1 x ) *
E-------|-------|------------|-----------|
B-------|-------|------------|-----------|
G-4-4---|-4-4---|-4-4--4-4-4-|-----------|
D-------|-------|------------|-----------|
A-----2-|-----2-|------------|-2-3-4-3 2-|
E-------|-------|------------|-----------|
* 1st stanza
( 1 x )
*
E-----------|-------|-----------|-------|-----|-------|
B-----------|-------|-----------|-------|-----|-------|
G-----------|-------|-----------|-------|-----|-------|
D-----------|-------|-----------|-------|-1-0-|-------|
A-----------|-------|-----------|-------|-----|-2-0-2-|
E-0-2-2-2-2-|-0-0-0-|-0-3-3-3-3-|-2-2-2-|-----|-------|
Outro:
E---------|---------|-------------|-------22-21-|---|
B---------|---------|-------15-14-|-17-20-------|---|
G---------|-----7-6-|----12-------|-------------|-0-|
D-----0---|---5-----|-14----------|-------------|-4-|
A-------4-|-7-------|-------------|-------------|-4-|
E-0-3-----|---------|-------------|-------------|---|
Love Like A Man
Ten Years After, 1970, (Alvin Lee) Orig chords ˜,
Riff
E
(x4)
D A E
E-----------------------|----------------|
B-----------------------|----------------|
G-----------------0-----|----------------|
D---0-1-2-0---0-----2---|----------------|
A-2---------2---2-------|----------------|
E---------------------0-|----------------|
A
(x1)
E
E-----------------------|-----------------------|
B-----------------1-----|-----------------------|
G---0-1-2-0---0-----2---|-----------------0-----|
D-2---------2---2-------|---0-1-2-0---0-----2---|
A---------------------0-|-2---------2---2-------|
E-----------------------|---------------------0E
E-------------|
B-------------|
G-------------|
D-2-0---------|
A-----2-0-----|
E---------2-0-|
Alvin Lee
22
Potdevin - Cool Riffs and Hot Lead Guitar Licks - www.lepotdevin.com
Secret Agent Man
Peter Gun
Intro:
Em
Am
Em
E---0-----0---0-|-----0-|---0---0-|
B-0---0h1---1---|-1h2---|-1---1---|
G---------------|-------|---------|
D---------------|-------|---------|
A---------------|-------|---------|
E---------------|-------|---------|
Instrumental
A
E-----------------|
B-----------------|
G-----------------|
D-----------------|
A-----------------|
E-0-0-2-0-3-0-5-4-|
Ventures, 1966, (--) Orig chords ˜,
Em
Am
Em * fill in
E-----------|-------------|------------|
B-----------|-------------|-12-10------|
G-----0-4-2-|-0-2-0---0---|-------12-9-|
D-2-2-------|-------4---2-|------------|
A-----------|-------------|------------|
E-----------|-------------|------------|
Em
B7
* fill in
E-------------|------------|----12-11----|
B-------------|---3---4b---|-12-------12-|
G-------0-2-4-|-4---4----4-|-------------|
D-0h2-2-------|------------|-------------|
A-------------|------------|-------------|
E-------------|------------|-------------|
Em
E-------|------------|
B---3---|-5-5--5-3---|
G-4---4-|----------4-|
D-------|------------|
A-------|------------|
E-------|------------|
Am
Em
Am
Em
E------------|-----------|-------------|
B------------|-----------|-------------|
G-2-2--2-0---|-----0-4-2-|-0-2-0---0---|
D----------2-|-2-2-------|-------4---2-|
A------------|-----------|-------------|
E------------|-----------|-------------|
Ventures, 1965, (--) Orig chords ˜,
A
E-----|---------|-----------------------|-------|
B-----|-----7-6-|-----5-6-6-6-6-5-------|-------|
G-7-4-|-7-------|-4-7-------------7-4---|-4-----|
D-----|---------|---------------------7-|---5-6-|
A-----|---------|-----------------------|-------|
E-----|---------|-----------------------|-------|
A
E-------|-------------------|-----------|
B-------|-5-5-5-5-5-------5-|-5-5-------|
G-------|-----------7-4-7---|-----7-4-7-|
D---5-6-|-------------------|-----------|
A-7-----|-------------------|-----------|
E-------|-------------------|-----------|
A
E---------------------------------------------|
B-5-5-----------------------------------------|
G-----7-4-7-4---------------------------------|
D-------------7-5-7-7-7-7-5---5---------------|
A---------------------------7---7-5---5-------|
E-----------------------------------7---7-5-3-|
A
E-----------------|
B-----------------|
G-----------------|
D-----------------|
A-----------------|
E-0-0-2-0-3-0-5-4-|
Bm
Em
Bm
Em
E---------------|----------------|
B---3---7---3-5-|---3---6b---3-5-|
G-4-------------|-4--------------|
D---------------|----------------|
A---------------|----------------|
E---------------|----------------|
E---------------|----------------|
Am
Em
E----------------|-------------------|
B----------------|-------------------|
G-4-2-0-2--2-0-2-|-2-0-2/4-4-2-0-----|
D----------------|---------------2-0-|
A----------------|-------------------|
E----------------|-------------------|
Am
Em
Bm
Em
B---------------------|----------|
B-------------------3-|-6b---3-5-|
G-----0-2-0-2h4-4-4---|----------|
D-2-2-----------------|----------|
A---------------------|----------|
E---------------------|----------|
Intro:
Em
Am
Em
E---0-----0---0-|-----0-|---0---0-|
B-0---0h1---1---|-1h2---|-1---1---|
G---------------|-------|---------|
D---------------|-------|---------|
A---------------|-------|---------|
E---------------|-------|---------|
Green Onions
Ventures, 1966, (Booker T. Jones, Steve Cropper,
Al Jackson, Steinberg) Orig chords - Capo1
Riff:
E
G A
A
C D
E
G A
E-----------|-----------|-----------|
B-----------|-----------|-----------|
G-----------|-----------|-----------|
D-----------|---------0-|-----------|
A---------0-|-0-0-0-3---|---------0-|
E-0-0-0-3---|-----------|-0-0-0-3---|
B
D E
A
C D
E
G A
E-----------|-----------|-----------|
B-----------|-----------|-----------|
G-----------|-----------|-----------|
D-------0-2-|---------0-|-----------|
A-2-2-2-----|-0-0-0-3---|---------0-|
E-----------|-----------|-0-0-0-3---|
Potdevin - Cool Riffs and Hot Lead Guitar Licks - www.lepotdevin.com
23
The Saint - Theme
Mission Impossible
Intro:
*
( x 2 )
*
G
E-------------|---|--------------|
B-------------|---|--------------|
G---6-7---5---|---|--------------|
D-5-----5---8-|-5-|--------------|
A-------------|---|-----1-1--3-3-|
E-------------|---|-3-3----------|
Intro:
*
E---------------|
B-14/15m----/20-|
G---------------|
D---------------|
A---------------|
E---------------|
---, 1963, (--) Orig chords ˜,
--, 1970, (---) Orig chords ˜,
*
E-------------|-------------|-------------|---|
B-------------|---7-8---6---|-------------|---|
G---6-7---5---|-5-----5---8-|---6-7---5---|---|
D-5-----5---8-|-------------|-5-----5---8-|-5-|
A-------------|-------------|-------------|---|
E-------------|-------------|-------------|---|
*
( x 4 )
*
A
E--------------|-------------------|----13-12-------|
B--------------|-------------------|-13-------13-15-|
G--------------|----13-14----12----|----------------|
D--------------|-12-------12----15-|----------------|
A-0-0----------|-------------------|----------------|
E-----3-3--0-0-|-------------------|----------------|
D
E-------------------|-13-13-13-12-------|-------------------|----|
B-------------------|-------------13-15-|-------------------|----|
G----13-14----12----|-------------------|----13-14----12----|----|
D-12-------12----15-|-------------------|-12-------12----15-|-12-|
A-------------------|-------------------|-------------------|----|
E-------------------|-------------------|-------------------|----|
*
( x 4 )
*
D
E-------------------|---------------|----12----------------|
B-------------------|---------------|-------14-12----12-14-|
G----13-14----12----|---------------|-------------14-------|
D-12-------12----15-|-0-0--3-3--5-5-|-14-------------------|
A-------------------|---------------|----------------------|
E-------------------|---------------|----------------------|
Outro:
G
E-------------------|-------------|---|
B-------------------|-------------|---|
G----13-14----12----|---6-7---5---|---|
D-12-------12----15-|-5-----5---8-|-5-|
A-------------------|-------------|---|
E-------------------|-------------|---|
*
( x 4 )
*
( x 3 )
*
A
D
E--------------|---------------|
B--------------|---------------|
G--------------|---------------|
D--------------|-0-0--3-3--5-5-|
A-0-0----------|---------------|
E-----3-3--0-0-|---------------|
Bass 2
repeat
E----------------|----------------|
B----------------|----------------|
G----------------|----------------|
D----------------|----------------|
A------------1-3-|----------------|
E-3-3-3--3-3-----|-3-3-3--3-3-1-2-|
Main riff:
***
E-6-3---|-6-3---|-6-3---|-----|
B-----3-|-------|-------|-----|
G-------|-----6-|-----5-|-3-5-|
D-------|-------|-------|-----|
A-------|-------|-------|-----|
E-------|-------|-------|-----|
***
E-------|-------|-------|-----|
B-----7-|-----6-|-----5-|-4-3-|
G-3-0---|-3-0---|-3-0---|-----|
D-------|-------|-------|-----|
A-------|-------|-------|-----|
E-------|-------|-------|-----|
***
E-11-8---|-11-8----|-11-8----|------|
B------8-|---------|---------|------|
G--------|------11-|------10-|-8-10-|
D--------|---------|---------|------|
A--------|---------|---------|------|
E--------|---------|---------|------|
***
E-6-3---|-6-3---|-6-3---|-----|---------|---|
B-----3-|-------|-------|-----|-----1-3-|-3-|
G-------|-----6-|-----5-|-3-5-|-0-3-----|---|
D-------|-------|-------|-----|---------|---|
A-------|-------|-------|-----|---------|---|
E-------|-------|-------|-----|---------|---|
|---------------|
|---------------|
|-----------2-2-|
|-0-0--3-3------|
|---------------|
|---------------|
n.c
C
E-------------12-15----12-15-12----12-|-----|
B-------13-15-------15----------15----|-----|
G-12-14-------------------------------|--9--|
D-------------------------------------|--10-|
A-------------------------------------|--10-|
E-------------------------------------|--8--|
Bass 1
repeat
|---------|----------|
|---------|----------|
|---------|----------|
|---------|----------|
|-----1-3-|----------|
|-3-3-----|-3-3--1-2-|
Bass 3
* repeat
E--------|---------|
B--------|---------|
G--------|---------|
D--------|---------|
A-3---3--|---3-1---|
E---3----|-3-----3-|
2nd Riff:
*
( 2 x )
*
E------------|---------|-----------|
B-1----0-1-0-|---------|-----------|
G----0-------|-0-3-4-3-|-0-4-3-2-0-|
D------------|---------|-----------|
A------------|---------|-----------|
E------------|---------|-----------|
Bass 4
*
repeat
E--------||----------------|
B-----1--||----------------|
G-0-3----||----------------|
D--------||----------------|
A--------||------------1-3-|
E--------||-3-3-3--3-3-----|
24
Potdevin - Cool Riffs and Hot Lead Guitar Licks - www.lepotdevin.com
Perry Mason
Judas Priest
Intro:
*
E-----|-----|------|-------|
B-----|-----|------|-------|
G-----|-----|------|-----0-|
D-----|---0-|------|---0---|
A---0-|-----|---0--|-------|
E-3---|-3---|-3----|-3-----|
*
E-------------|-------|-------|-------|---|
B-------------|-------|-------|-------|---|
G-------------|-------|-------|-----0-|---|
D-------------|-------|-----0-|-2-3---|---|
A-----0-1-2-3-|-2-1-0-|-2-3---|-------|---|
E-3-4---------|-------|-------|-------|-3-|
*
E-----------|-----------|
B-----------|-----------|
G---------0-|---------1-|
D-----0-----|-----0-----|
A-2h3---3---|-2h3---3---|
E-----------|-----------|
*
E-----------|-----------|-----------|
B-----------|-----------|-----------|
G---------0-|-----------|---------1-|
D-----0-----|-----0-----|-----0-----|
A-2h3---3---|-2h3---3---|-2h3---3---|
E-----------|---------3-|-----------|
*
E-------------|-----|---------|-----|
B-------------|---8-|---------|---9-|
G-------5-8-7-|-5---|-5-7h8r7-|-5---|
D-5-7-8-------|-----|---------|-----|
A-------------|-----|---------|-----|
E-------------|-----|---------|-----|
*
E-----------|-----------|-----------|
B---------8-|-----------|---------9-|
G-4/5-7-5---|-4/5-7-5---|-4/5-7-5---|
D-----------|---------5-|-----------|
A-----------|-----------|-----------|
E-----------|-----------|-----------|
*
E----------------17-|-15----|----13-|-------|
B----------13-16----|----14-|-15----|-16----|
G-12-14-16----------|-------|-------|----15-|
D-------------------------------------------|
A-------------------------------------------|
E-------------------------------------------|
A
E-------------|-----------------------------|
B----15-13----|----15-13-12-13--18-16-15-16-|
G-15-------12-|-15--------------------------|
D-------------|-----------------------------|
A-------------|-----------------------------|
E-------------|-----------------------------|
*
E-18-16-15-13-|
B-------------|
G-------------|
D-------------|
A-------------|
E-------------|
*
E-------|-----|---------|-----|-----------|
B-------|---8-|---------|---9-|-----------|
G-5-8-7-|-5---|-5-7h8r7-|-5---|-4-8-7-5---|
D-------|-----|---------|-----|---------5-|
A-------|-----|---------|-----|-----------|
E-------|-----|---------|-----|-----------|
*
E---------------6---|---------------------------|
B-----------6-4-----|-8-10-------------------10-|
G-5-7-5-4-5-------7-|------8-10-----------------|
D-------------------|-----------8-10------------|
A-------------------|-----------------8-10------|
E-------------------|----------------------10---|
Intro:
*
E---------|---------------|
B---------|---------------|
G-2-1-2/5-|-2-1-2/12-10-9-|
D---------|---------------|
A---------|---------------|
E---------|---------------|
JC Superstar
---, 1961, (--) Orig chords ˜,
A
E---------------------|
B---------------------|
G-9-10----------------|
D------9-10-----------|
A-----------9-10------|
E----------------9-10-|
You can´t whistle
to that !
Alfred Hitchcok
---, 1960, (--) Orig chords ˜,
1st stanza
*
( x2 )
*
E-----|---------------|------|-------------|
B-----|---------------|------|----10-------|
G-----|---------------|----9-|-10----12-10-|
D-7---|-12-12-11-9-11-|-12---|-------------|
A---5-|---------------|------|-------------|
E-----|---------------|------|-------------|
A
E-------------|----12-10-|---------------------|
B-10-13-11-10-|-13-------|-10-11-10------------|
G-------------|----------|----------12-10-9----|
D-------------|----------|------------------12-|
A-------------|----------|---------------------|
E-------------|----------|---------------------|
2nd stanza
*
( x2 )
*
E-----|---------------|------|-------|-------|
B-----|---------------|------|-------|-10-13-|
G-----|---------------|----9-|-------|-------|
D-7---|-12-12-11-9-11-|-12---|-11-12-|-------|
A---5-|---------------|------|-------|-------|
E-----|---------------|------|-------|-------|
A
E---------------------|------------|---------|
B-11-10------------11-|------------|---------|
G-------12-10-9-12----|----------9-|-10-9----|
D---------------------|-12-11-12---|------12-|
A---------------------|------------|---------|
E---------------------|------------|---------|
Potdevin - Cool Riffs and Hot Lead Guitar Licks - www.lepotdevin.com
25
Pink Panther
Henry Mancini, 1970, (Henry Mancini) Orig chords ˜,
Intro:
*
( x2 )
*
E-----|-------------|
B-10v-|-------------|
G-----|-------------|
D-----|-------------|
A-----|-4h5-6h7-----|
E-----|---------7-0-|
1st Stanza:
*
( x 3 )
* *
1st and 3rd time
*
E-----------------|-----| |---------|-------------|
B-----------------|-----| |---------|-------------|
G-----------------|-----| |---------|-------------|
D-----4-5-----4-5-|-9-8-| |---5-9-8-|-7-5---------|
A-6-7-----6-7-----|-----| |-7-------|-----7-5-7-\-|
E-----------------|-----| |---------|-------------|
*
2nd
*
E---------|
B---------|
G-----9-8-|
D---5-----|
A-7-------|
E---------|
Roadrunner
---
|---------|---------------------------------------|
|---------|---------------------------------------|
|---------|-9-7-----------------------------------|
|---------|-----9-7-5---7b-7b-7b-7b-7b-5----------|
|-4-5-6-7-|-----------7------------------5-7-7----|
|---------|---------------------------------------|
Intro: (2x)
D
E-----------|
B-----------|
G-------0-2-|
D-0-2-4-----|
A-----------|
E-----------|
2nd stanza:
*
E------------------|---------|----------------|----------------|-----|
B---------------6b-|---------|----------------|----------------|-----|
G-----------6-7----|-8-6-----|-0--2h3r2-0-2-0-|-3--5h6r5-3-5-3-|-1---|
D-4-5--7-8---------|-----8\--|----------------|----------------|---3-|
A------------------|---------|----------------|----------------|-----|
E------------------|---------|----------------|----------------|-----|
1st stanza
D
A
D
E-----------------------------|
B-----------------------------|
G-7--7-7-7--7-7-9--9-9--6-9-7-|
D-----------------------------|
A-----------------------------|
E-----------------------------|
*
E---------------------|---------------------|
B---------------------|---------------------|
G---------------------|---3-5-6-6-5r3---3-5-|
D-3b-3b-3b-3b-3b-4-5\-|-5-------------5-----|
A---------------------|---------------------|
E---------------------|---------------------|
D
A
G
E-----------------------------|
B-------------------------8-7-|
G-7--7-7-7--7-7-9--9-9--6-----|
D-----------------------------|
A-----------------------------|
E-----------------------------|
*
( x1 )
*
E-------|------------|------|-------|-------|----||-------------|
B-------|------------|------|-------|-------|----||-------------|
G---3-5-|-6-6-5-3----|------|---3-3-|-0-2-2-|----||-------------|
D-5-----|----------5-|-3----|-5-----|-------|-5\-||-------------|
A-------|------------|---5\-|-------|-------|----||-4h5-6h7-----|
E-------|------------|------|-------|-------|----||---------7-0-|
G
D
E-----------------------------|
B-8--8-8-8--8-8-8--8-8----8-7-|
G-----------------------9-----|
D-----------------------------|
A-----------------------------|
E-----------------------------|
Outro:
*
( x 3 )
* *
( 1st and 3rd time )
*
A
E-------------------------------| |-------------|----------------|
B-------------------------13-12-| |-------12-11-|----------------|
G-------11h12-------11h12-------| |-11-12-------|-14-12----------|
D-13h14-------13h14-------------| |-------------|-------14-12-14-|
A-------------------------------| |-------------|----------------|
E-------------------------------| |-------------|----------------|
D
A
D
E-----------------------------|
B-----------------------------|
G-7--7-7-7--7-7-9--9-9--6-9-7-|
D-----------------------------|
A-----------------------------|
E-----------------------------|
Chorus: ( 4 x )
A
G
D
E-------|-----------------|
B-------|-----------------|
G-9-9-6-|-----------------|
D-------|-7-7-9-9--9-9--7-|
A-------|-----------------|
E-------|-----------------|
Outro:
D
A
D
E-------------------------------|
B-------------------------------|
G---------------------------8-7-|
D-9--9-9-10--10-10-7--7-7-7-----|
A-------------------------------|
E-------------------------------|
D
A
D
E---------------------------------|
B---------------------------------|
G-7-7--7-7-7--7-7-9--9-9-7--10-10-|
D---------------------------------|
A---------------------------------|
E---------------------------------|
*
2nd
*
E-------12-11-|
B----12-------|
G-12----------|
D-------------|
A-------------|
E-------------|
|---------|------------------------------------|
|---------|------------------------------------|
|---------|-9-7--------------------------------|
|---------|-----9-7-5---7b-7b-7b-7b-7b-5-------|
|-4-5-6-7-|-----------7------------------5-7-7-|
|---------|------------------------------------|
*
E-----------|-----------|-------|
B-----------|-----------|-19-\--|
G-----------|-----------|-19-\--|
D-5---------|-5---------|-------|
A---7-5-7-7-|---7-5-7-7-|-------|
E-----------|-----------|-------|
Whistle in
the morning
26
Potdevin - Cool Riffs and Hot Lead Guitar Licks - www.lepotdevin.com
Benny Hill
Mahna Mahna
Intro:
D
E-----------------|-------------------|
B-----------------|-------------------|
G-----------------|-------------------|
D-0--0-0-0--0-0-0-|-0--0-0-0--0-0-0-0-|
A-----------------|-------------------|
E-----------------|-------------------|
Main riff:
A
E---------|-----------|---------|---------|
B---------|---6-8-5---|---------|---6-8-5-|
G---------|-7-------5-|---------|-7-------|
D-7-6-5-4-|-----------|-7-6-5-4-|---------|
A---------|-----------|---------|---------|
E---------|-----------|---------|---------|
---, 1975, (--) Orig chords ˜,
1st stanza:
*
E---------------------------------------|
B---------------------------------------|
G-----0-0-----------------------------0-|
D-0h2-----2-0---0-0-------0-0-0-2-0-2---|
A-------------2-----2-0-----------------|
E-----------------------3---------------|
*
E---------------------------------------|
B---------------------------------------|
G-----0-0-------------------------2-----|
D-0h2-----2-0---0-0-------0-0-0-4---4-0-|
A-------------2-----2-0-----------------|
E-----------------------3---------------|
---, 1972, (--) Orig chords ˜,
A
E---------|-----------|-------|-------|-------------|
B---------|---6-8-5---|---5---|---5---|-------------|
G---------|-7-------5-|-7---5-|-7---5-|-----5-5-5-5-|
D-7-6-5-4-|-----------|-------|-------|-7-5---------|
A---------|-----------|-------|-------|-------------|
E---------|-----------|-------|-------|-------------|
Variation:
A
E---------12-10-------------|----------|----------|
B------8--------12-13-12----|-10-------|-10-------|
G----9-------------------10-|----12-12-|----12-12-|
D-10------------------------|----------|----------|
A---------------------------|----------|----------|
E---------------------------|----------|----------|
*
E-------------------|-----------------|
B-------------------|-----------------|
G-----0-0-0-0-0-4-0-|-0-------------0-|
D-0h2---------------|---2-2-2-2-2-2---|
A-------------------|-----------------|
E-------------------|-----------------|
*
E-----------------|-------------|
B---0---0---0-3---|-------------|
G-0---0---0-----4-|-2-2-2-4-2-0-|
D-----------------|-------------|
A-----------------|-------------|
E-----------------|-------------|
Beverly Hillbillies
*
E-7/8-7-6-7-6-|-3/4-3-2-3-|
B-------------|-----------|
G-------------|-----------|
D-------------|-----------|
A-------------|-----------|
E-------------|-----------|
*
E------------------------------------|
B------------------------------------|
G-------0--0-0-2-4--4-4-4-2--2-2-2---|
D-0-2-4----------------------------0-|
A------------------------------------|
E------------------------------------|
*
E-5-4-3-4-3-2-3-2-1-2-|---------------|
B---------------------|-------------1-|
G---------------------|-------0-2-0---|
D---------------------|-----2---------|
A---------------------|-3-3-----------|
E---------------------|---------------|
TV Series, 19--, (--) Orig chords ˜,
*
E--------------------------------|
B--------------------------------|
G----------0-2--2-2----0-2-0-----|
D-0-4--4-4-----------4-------2-0-|
A--------------------------------|
E--------------------------------|
*
E------------------------------0-|
B---------------------1--1-1-3---|
G---0--0-0-2-4--4-4-0------------|
D-0------------------------------|
A--------------------------------|
E--------------------------------|
*
E-0----------------------------|
B---3--3-3-3-3--3-3-3----------|
G----------------------------0-|
D----------------------0-2-4---|
A------------------------------|
E------------------------------|
*
E----------------------|
B----------------------|
G-2h4-0--2h4-0---2h4-0-|
D----------------------|
A----------------------|
E----------------------|
Potdevin - Cool Riffs and Hot Lead Guitar Licks - www.lepotdevin.com
27
28
Potdevin - Cool Riffs and Hot Lead Guitar Licks - www.lepotdevin.com
Tijuana Taxi
Herb Alpert, 196--, (--) Orig chords ˜,
Intro:
*
E-----|-----------|--------------------|
B-----|-13-13-13m-|-13-13-13-12-11-10m-|
G-----|-----------|--------------------|
D-----|-----------|--------------------|
A-----|-----------|--------------------|
E-1-1-|-----------|--------------------|
1st & 2nd stanzas *
E-------13-12-10-------|-------12-10----------|
B-10-13----------13-11-|----11-------13-11-10-|
G----------------------|-12-------------------|
D----------------------|----------------------|
A----------------------|----------------------|
E----------------------|----------------------|
*
E-------10-------------|----------------|
B----10----13-11-10----|----10-13-13-13-|
G-10----------------12-|-12-------------|
D----------------------|----------------|
A----------------------|----------------|
E----------------------|----------------|
*
E-------------||------|
B-11-10-------||------|
G-------12-10-||------|
D-------------||-10\3-|
A-------------||------|
E-------------||------|
3rd stanza *
E------------|---------------|--------------|----------------|
B------------|---------------|--------------|-------------10-|
G------------|-------9-10-12-|--------------|-------10-12----|
D------------|-10-10---------|-------7------|-10-10----------|
A-8-8-10-8-7-|---------------|-10-10---10-8-|----------------|
E------------|---------------|--------------|----------------|
*
E------------|----------------|------------|----------------|
B------------|-------------10-|------------|----------10-11-|
G------------|-------11-12----|------------|-------12-------|
D------------|-12-12----------|-7-7-8-7----|-12-12----------|
A-8-8-10-8-9-|----------------|---------10-|----------------|
E------------|----------------|------------|----------------|
4th stanza
*
E-------------|----------------|-------------|
B-13-11-13-11-|-11-13-11-13-11-|-11-10-11-10-|
G-------------|----------------|-------------|
D-------------|----------------|-------------|
A-------------|----------------|-------------|
E-------------|----------------|-------------|
*
E----------------|-------------|-------------------|------------|
B-10-11-10-11-10-|-10----10----|----10----10-------|------------|
G----------------|----12----12-|-12----12----12-10-|-5-7-5------|
D----------------|-------------|-------------------|-------7----|
A----------------|-------------|-------------------|------------|
E----------------|-------------|-------------------|----------1-|
Whistle like a tea kettle
Potdevin - Cool Riffs and Hot Lead Guitar Licks - www.lepotdevin.com
29
Honky Tonk
Bill Dogget, 1956, (B. Doggett, S. Shepherd, C. Scott and B. Butler)
Orig chords in F or capo1
Intro:
E
A
E---------|---------|---------|----------|
B---------|---------|---------|----------|
G---------|---------|---------|----------|
D---------|---------|---2---4-|---5---4\-|
A---2---4-|---2---4-|-0---0---|-0---0----|
E-0---0---|-0---0---|---------|----------|
E
E---------|---------|----------|----------|
B---------|---------|----------|----------|
G---------|---------|----------|----------|
D---------|---------|----------|----------|
A---2---4-|---2---4-|---5---4\-|---2---4\-|
E-0---0---|-0---0---|-0---0----|-0---0----|
A
E----------|----------|----------|----------|
B----------|----------|----------|----------|
G----------|----------|----------|----------|
D---2---4\-|---2---4\-|---5---4\-|---2---4\-|
A-0---0----|-0---0----|-0---0----|-0---0----|
E----------|----------|----------|----------|
E
E---------|----------|---------|----------|
B---------|----------|---------|----------|
G---------|----------|---------|----------|
D---------|----------|---------|----------|
A---2---4-|---2---4\-|---2---4-|---2---4\-|
E-0---0---|-0---0----|-0---0---|-0---0----|
B
A
E------------------|------------------|
B------------------|------------------|
G------------------|------------------|
D---4---6---7---6\-|---2---4---5---4\-|
A-2---2---2---2----|-0---0---0---0----|
E------------------|------------------|
E
E---------|---------|------------|
B---------|---------|------------|
G---------|---------|------------|
D---------|---------|------------|
A---2---4-|---2---4-|---2--0-1-2-|
E-0---0---|-0---0---|-0----------|
2 sax
E
A
E---------------|-----------------------|
B---------------|-----------------------|
G---------------|-----------------------|
D---6-6-7-7-9-9-|-9-9---------------9-9-|
A-7-------------|-----6-7-10-10-9-9-----|
E---------------|-----------------------|
E
E-----|-----------|-----------------|
B-----|-----------|-----------------|
G-----|-----------|-----------------|
D-7-6-|-6-7-7-9-9-|-7-7-6-6-7-7-9-9-|
A-----|-----------|-----------------|
E-----|-----------|-----------------|
A
E-----------------------|-----------------|
B-----------------------|-----------------|
G-----------------------|-----------------|
D-9-9---------------9-9-|-7-7-6-6-7-7-9-9-|
A-----6-7-10-10-9-9-----|-----------------|
E-----------------------|-----------------|
E
E-----------------|-----------------|
B-----------------|-----------------|
G-----------------|-----------------|
D-7-7-6-6-7-7-9-9-|-7-7-6-6-7-7-9-9-|
A-----------------|-----------------|
E-----------------|-----------------|
B
A
E---------------------|-------------------|
B---------------------|-------------------|
G-----------------6-6-|-------------------|
D-9-9---7-6-7-9-9-----|-9-9-----------9-9-|
A-----6---------------|-----10-10-9-9-----|
E---------------------|-------------------|
E
B
E-----------------|-------|----------------|
B-----------------|-------|----------------|
G-----------------|-------|----------------|
D-7-7-6-6-7-7-9-9-|-7-7-6-|-7/9--7/9--7/9\-|
A-----------------|-------|----------------|
3 guitar
E
E-------------|--------|------|---------|
B-------5/24--|-7b-b-5-|------|---------|
G-1/4b--------|--------|-6b-4-|-6-------|
D-------------|--------|------|---5/6---|
A-------------|--------|------|-------7-|
E-------------|--------|------|---------|
A
E
E--------------|--------|------|---------|
B------5-5/24--|-7b-b-5-|------|---------|
G-1/4b---------|--------|-6b-4-|-6-------|
D--------------|--------|------|---5/6---|
A--------------|--------|------|-------7-|
E--------------|--------|------|---------|
Bill Doggett - piano,
S. Shepherd, - bass
Clifford Scott - sax
Billy Butler - guitar
Billy Butler - guitar
Billy Butler - guitar
B
A
E-----7----7----7----7----7----7-|---\6----\5----5----5-|
B--------------------------------|----------------------|
G-7/8----8----8----8----8----8---|-\7----\6----6----6---|
D--------------------------------|----------------------|
A--------------------------------|----------------------|
E--------------------------------|----------------------|
E
E-3-0-3-0---0-0-|-0------0-----|------------|------|
B---------3-----|---3-0----3-0-|------------|------|
G---------------|--------------|-2-0--------|------|
D---------------|--------------|-----2-0-2m-|-0----|
A---------------|--------------|------------|---2m-|
E---------------|--------------|------------|------|
30
Potdevin - Cool Riffs and Hot Lead Guitar Licks - www.lepotdevin.com
4 part
*
E
E-4------4------4------4-----|
B---5------5------5------5---|
G-----6------6------6------6-|
D----------------------------|
A----------------------------|
E----------------------------|
A
E-3------3------3------3-----|
B---5------5------5------5---|
G-----6------6------6------6-|
D----------------------------|
A----------------------------|
E----------------------------|
*
E-4------4------4------4-----|
B---5------5------5------5---|
G-----6------6------6------6-|
D----------------------------|
A----------------------------|
E----------------------------|
*
E-7/9-7-----------------|
B--------9--------------|
G------------9----------|
D---------------9-8-7-6-|
A-----------------------|
E-----------------------|
*
E-7b-5----------|-7b-5----------|
B------7b-5-----|------7b-5-----|
G-------------6-|-------------6-|
D-----------7---|-----------7---|
A---------------|---------------|
E---------------|---------------|
5 - Train
( 2 x )
*
E--------12m-|--------12m-|--------12m-|--------12m-|
B-11/12m-14m-|-11/12m-14m-|-11/12m-14m-|-11/12m-14m-|
G-12/13m-----|-12/13m-----|-12/13m-----|-12/13m-----|
D------------|------------|------------|------------|
A------------|------------|------------|------------|
E------------|------------|------------|------------|
*
E-------------|---------------------|-------------|
B-12\---------|-11/12--11/12--11/12-|-12\---------|
G-13\---9/-13-|-12/13--12/13--12/13-|-13\---9/-13-|
D------11/-14-|---------------------|------11/-14-|
A-------------|---------------------|-------------|
E-------------|---------------------|-------------|
*
E----------------------------|------------|
B-11/12--11/12--11/12--11/12-|-12--11--10-|
G-12/13--12/13--12/13--12/13-|-13--12--11-|
D----------------------------|------------|
A----------------------------|------------|
E----------------------------|------------|
*
E----------------------------|----------|
B--9/10---9/10---9/10---9/10-|-10--9--8-|
G-10/11--10/10--10/11--10/11-|-10--9--8-|
D----------------------------1----------|
A----------------------------|----------|
E----------------------------|----------|
*
E--------------|---------|----------|-------|
B--------------|---------|-----8----|-------|
G-7------------|---------|-6-9----9-|-7b----|
D---9-8-7-5----|---9-8-7-|----------|-----9-|
A-----------7m-|-7-------|----------|-------|
E--------------|---------|----------1-------|
*
E----------------|-----------------|
B-8b-5-----------|-----------------|
G------7b-4------|-------------1-4-|
D--------------6-|-----2-4---2-----|
A------------7---|-2-4-----4-------|
E----------------|-----------------|
B
A
E-----7----7----7----7----7----7-|---\6----\5----5----5-|
B--------------------------------|----------------------|
G-7/8----8----8----8----8----8---|-\7----\6----6----6---|
D--------------------------------|----------------------|
A--------------------------------|----------------------|
E--------------------------------|----------------------|
E
E-3-0-3-0---0-0-|-0------0-----|------------|------|
B---------3-----|---3-0----3-0-|------------|------|
G---------------|--------------|-2-0--------|------|
D---------------|--------------|-----2-0-2m-|-0----|
A---------------|--------------|------------|---2m-|
E---------------|--------------|------------|------|
Potdevin - Cool Riffs and Hot Lead Guitar Licks - www.lepotdevin.com
Please, don´t stop whistling.
31
Walk, Don´t Run ´64
Work Song
into: mute all notes
*
E--------------------------------------------|
B--------------------------------------------|
G--------------------------------------------|
D--------------------------------------------|
A--------------------------------------------|
E-0-0-0-1-1-1-1-2-2-2-2-3-3-3-3-4-4-4-4-5----|
Instrumental:
G
C
E-------------------|-------------------|
B-----------------6-|-------------------|
G-------5-7-7-5-7---|-------5-----------|
D-5-7-8-------------|-5-7-8---5-5-----5-|
A-------------------|-------------5-8---|
E-------------------|-------------------|
Ventures, 1964, (John Smith) Orig chords ˜,
Ventures, 1966, (--) Orig chords ˜,
° Am
(x3) °
G
F
E
Am
E-------------|-------|-------|-------|-----|
B-------------|-------|-------|-------|-----|
G-------------|-------|-------|-------|-----|
D---0---------|-------|-------|-------|-----|
A-3---3-0---0-|-0-0---|-------|-------|---0-|
E---------3---|-----3-|-3-3-1-|-1-1-0-|-0---|
G
D
E-------------------|-------------------------|---|
B-----------------6-|-----6---6---6---6---6-7-|-8-|
G-------5-7-7-5-7---|-5-7-------7-------7-----|---|
D-5-7-8-------------|-------------------------|---|
A-------------------|-------------------------|---|
E-------------------|-------------------------|---|
°
G
F
E
E-------|-------|-------|
B-------|-------|-------|
G-------|-------|-------|
D-------|-------|-------|
A-0-0---|-------|-------|
E-----3-|-3-3-1-|-1-1-0-|
G
C
E-------|------------|-----|---------|--------|
B-8-6-8-|-8-6--------|-----|---------|--------|
G-------|-----7/5-h7-|-5---|-----5-7-|-5---5--|
D-------|------------|---8-|-5-8-----|---8--8-|
A-------|------------|-----|---------|--------|
E-------|------------|-----|---------|--------|
First verse
Am
G
F
E
Am
G
F
E-----|-------------|---------|--------------|
B-----|-------------|-----1-0-|--------------|
G---2-|-------------|-0-2-----|-2------------|
D-2---|-------0-2-3-|---------|--------0-2-3-|
A-----|-0-2-3-------|---------|--0-2-3-------|
E-----|-------------|---------|--------------|
G
D
C
G
E---------|-------|-------------------|
B---------|-------|-------------------|
G-----5-7-|---7-5-|---7-5---5---------|
D-5-------|-5-----|-5-----8---8-5---5-|
A---8-----|-------|---------------8---|
E---------|-------|-------------------|
C
G
C
E-----------------|----------------------|
B-----------------|----------------------|
G-0-2-0-----------|----------------------|
D-------3-2\1-2-2-|--0-2-3-2-0---0h2---0-|
A-----------------|------------3-----3---|
E-----------------|----------------------|
G
C// / ///// Am// / /////
E---------------|-------------|-------------|
B---------------|-1-----------|-1-----------|
G---------------|-0-----------|-2-----------|
D---------0-2-3-|-3-----------|-2-----------|
A---0-2-3-------|-2-----------|-0-----------|
E-3-------------|-------------|-------------|
Arpeggio
Variations Walk Don´t Run 60
A
Am G////// E
E-------------|-------------|---|-----------|
B-------------|-0-----0-----|---|-----------|
G-2-----2-----|---1-----1---|---|-----------|
D---3-----3---|-----2-----2-|---|-----------|
A-----3-----3-|-------------|---|-----------|
E-------------|-------------|---|-----------|
Mute 5th string (A) and slide down
E--------------------------------------------|
B--------------------------------------------|
G--------------------------------------------|
D--------------------------------------------|
A-12-12-11-10-9-8-7-6-5-4-3-2-1--------------|
E--------------------------------------------|
Outro:
G////// E ° mute 6th
°
A
E--3----------|---------------|--5-|
B--3----------|---------------|--5-|
G--4----------|---------------|--6-|
D--5----------|---------------|--7-|
A--5----------|---------------|--7-|
E--3----------|-0-1-2-3-4-4-5-|--5-|
32
Intro:
Am //
G //
F //
E
E--5--------3--------1-------0-|
B--5--------3--------1-------0-|
G--5--------4--------2-------1-|
D--7--------5--------3-------2-|
A--7--------5--------3-------2-|
E--5--------3--------1-------0-|
Arpeggio
A
C
E-------------|-------------|---|-----------|
B-------------|-0-----0-----|---|-----------|
G-2-----2-----|---1-----1---|---|-----------|
D---3-----3---|-----2-----2-|---|-0h1-0-----|
A-----3-----3-|-------------|---|-------3-2-|
E-------------|-------------|---|-----------|
Outro:
C
Fmaj7
slide to
C
E--------------------------8--|
B--1-----1-----------------8--|
G--0-----2-----------------9--|
D--2-----3-----------------10-|
A--3--------------------------|
E-----------------------------|
Potdevin - Cool Riffs and Hot Lead Guitar Licks - www.lepotdevin.com
Psyched Out Flights of Fantasy
Ventures, 1968, (Boggle,Edwards, Taylor, Wilson) Orig chords ˜,
Intro:
*
(x4)
*
E
D
A
A A
E-12\10--10-|-9--9-|-9\7---|-10\9--9-|-7--7-|-7\5-|----------|-0--0--|
B-12\10--10-|-9--9-|-9\7---|-10\9--9-|-7--7-|-7\5-|----------|-2--2--|
G-----------|------|-------|---------|------|-----|----------|-2--2--|
D-----------|------|-------|---------|------|-----|----------|-2--2--|
A-----------|------|-------|---------|------|-----|-------0--|-0--0--|
E-----------|------|-------|---------|------|-----|-0-2-4----|-0--0--|
Walking With Pluto
Ventures, 1964, (Boggle,Edwards, Taylor, Wilson)
Orig chords ˜,
Intro:
E-------------|
B-------------|
G-------------|
D-------------|
A-------------|
E-6--5--4--3--|
Part 1
A
D
E
E---------|-----------|---------|-----|-----|
B---------|-----------|---------|-----|-----|
G---------|-----------|---------|-----|-----|
D---------|---0-------|-------0-|-----|-----|
A-------0-|-4---4-2-0-|-0-2-4---|-----|-----|
E-0-2-4---|-----------|---------|-2-2-|-0-0-|
G
E------------|-------------|
B-12--10--12-|-3b----------|
G-12--10--12-|-----4-------|
D------------|---------3h5-|
A------------|-------5-----|
E------------|-------------|
A
D
G
C
F
E---------|-----|-----|-----|-------------|
B---------|-----|-----|-----|-------------|
G---------|-----|-----|-----|-------------|
D---------|---0-|-----|-----|-------------|
A-------0-|-4---|-----|-2-3-|-------------|
E-0-2-4---|-----|-2-3-|-----|-2-1-1-1-1-1-|
E-----------|-3------------------|
B-2--10--12-|---3h5--3-----------|
G-2--10--12-|----------5-3---3h5-|
D-----------|--------------5-----|
A-----------|--------------------|
E-----------|--------------------|
E
A
E
A
E-----------|-------------------|---------|
B-----------|-------------------|---------|
G-----------|-------------------|---------|
D-----------|-------------------|---------|
A-----------|-------0-0-0-0-0-0-|-------0-|
E-0-0-0-0-0-|-0-2-4-------------|-0-2-4---|
C
E-12--10--12-|-----------10-8----|
B-13--11--13-|-8----8-11------11-|
G------------|---10--------------|
D------------|-------------------|
A------------|-------------------|
E------------|-------------------|
Part 2
A
D
G
E---------|-----|-----|-------------|-----------|
B---------|-----|-----|-------------|-----------|
G---------|-----|-----|-------------|-----------|
D-------0-|-----|-----|-------------|-----------|
A-0-2-4---|-4-0-|-4-0-|-4-0-4-2-0---|-1---3-1---|
E---------|-----|-----|-----------3-|---3-----3-|
G
E-----------|----------------|
B-2--10--12-|---6------------|
G-2--10--12-|-7---7-5---5/7--|
D-----------|---------7------|
A-----------|----------------|
E-----------|----------------|
A
C
F
E---------------|---------|-------------|---------|
B---------------|---------|-------------|---------|
G---------------|---------|-------------|---------|
D---------------|---------|-------------|---------|
A-3-1-3-1---1-3-|-1-3-1-3-|-1/3\1-0-----|---------|
E---------3-----|---------|---------3-1-|-1-1/5\1-|
E
A
E---|-----|-----|---|-----|-----|---------|-----|-----|
B---|-----|-----|---|-----|-----|---------|-----|-----|
G---|-----|-----|---|-----|-----|---------|-----|-----|
D---|-----|-----|---|-----|-----|---------|-----|-----|
A---|-----|-----|---|-----|-----|-------0-|-0-0-|-0-0-|
E-0-|-0-0-|-0-0-|-0-|-0-0-|-0-0-|-0-2-4---|-----|-----|
D
C
E--14--12--14--|-12--10--12-|
B--15--13--15--|-13--11--13-|
G--------------|------------|
D--------------|------------|
A--------------|------------|
E--------------|------------|
Bridge:
*
E---------|-------------|---------|
B---------|-------------|-0h3-----|
G---------|-------0-3-3-|-----3---|
D---------|-0-3-3-------|-------5-|
A-1---3-1-|-------------|---------|
E---3-----|-------------|---------|
Chorus:
C Bb C Bb C C
E---------|---------------------|
B---------|--5--3--5--3---5--5--|
G---------|--5--3--5--3---5--5--|
D---------|--5--3--5--3---5--5--|
A---0-3-3-|---------------------|
E-3-------|---------------------|
Outro:
G
E-----------------|-----|
B--8b-6-----------|-----|
G---------7b-5----|--4--|
D--------------8--|--5--|
A-----------------|--5--|
E-----------------|--3--|
Potdevin - Cool Riffs and Hot Lead Guitar Licks - www.lepotdevin.com
33
Improptu Jazz A Go-Go
Stop Action
Flippers, 1966, (Flippers) Orig chords ˜,
Ventures / Flippers, 1966, (Boggle,Edwards, Taylor, Wilson) Orig chords ˜,
G F-G F-G F-G F
E------------------------------------------|
B-10\14-14-14-12--12-----------------14-12-|
G---------------15--15-12-12--12---15------|
D---------------------------15-------------|
A------------------------------------------|
E------------------------------------------|
E--------------------------|
B--------12-13h-12---------|
G---12-14---------14-12-14-|
D-15-----------------------|
A--------------------------|
E--------------------------|
Flippers - Arturo
Astudillo - lead
guitar
E--------------12\13-12---------|
B---------12-15--------15-13-15-|
G-14-12-14----------------------|
D-------------------------------|
A-------------------------------|
E-------------------------------|
E------------------------------------------------|
B-12----12-15----12-15----12-15---15-15-15-15----|
G-----14-------14-------14-------------------14--|
D------------------------------------------------|
A------------------------------------------------|
E-----------------------------------------------E------------------------------------------------|
B-12---------------------------------------------|
G---14-12-------------12-14h---12----------------|
D--------12-12---12-14-----------15-12--12-12----|
A-------------------------------------15---------|
E------------------------------------------------|
E------------------------------------------------|
B------------------------------------------------|
G------------------------------------------------|
D-----------------------------------------------12
A------------------------------------------------|
E-13-15h-15--13-15h-15--13-15h-15--13-15h-15--13-|
E---15--|--------------------------|
B---0---|--------------------------|
G---0---|-10\16-16-14-12--12-14-12-|
D---0---|---------------15---------|
A---14--|--------------------------|
E---15--|--------------------------|
E----------------------------|
B----------------------------|
G-12-12-12-12-12-------------|
D---------------15-12--12-12-|
A--------------------15------|
E----------------------------|
E---Fuzz-----|--------|-----------------|
B------------|--------|-----------12-12-|
G------12-12-|--------|------12-14------|
D-12-15------|-12--12-|-12-15-----------|
A------------|---15---|-----------------|
E------------|--------|-----------------|
Main riff:
E
E------------|------------|------------|------------|
B------------|------------|------------|------------|
G------------|------------|------------|------------|
D------------|------------|------------|------------|
A-2-0--------|-2-0--------|-2-0--------|-2-0--------|
E-----3-0-0--|-----3-0-0--|-----3-0-0--|-----3-0-0--|
A
E
E------------|------------|------------|------------|
B------------|------------|------------|------------|
G------------|------------|------------|------------|
D-2-0--------|-2-0--------|------------|------------|
A-----3-0-0--|-----3-0-0--|-2-0--------|-2-0--------|
E------------|------------|-----3-0-0--|-----3-0-0--|
B
A
E
E------------|------------|---------|
B------------|------------|---------|
G------------|------------|---------|
D------------|------------|---------|
A-2-0---2-2--|-2-0---0-0--|-2-0-----|
E-----3------|-----3------|-----3-0-|
2nd stanza:
E
E-----------|-----------|-----------|-----------|
B-----------|-----------|-----------|-----------|
G-4---------|-4---------|-4---------|-4---------|
D---7-5-----|---7-5-----|---7-5-----|---7-5-----|
A-------7-7-|-------7-7-|-------7-7-|-------7-7-|
E-----------|-----------|-----------|-----------|
A
E
E-----------|-----------|-----------|-----------|
B-5---------|-5---------|-----------|-----------|
G---7-5-----|---7-5-----|-4---------|-4---------|
D-------7-7-|-------7-7-|---7-5-----|---7-5-----|
A-----------|-----------|-------7-7-|-------7-7-|
E-----------|-----------|-----------|-----------|
B
A
E
E-----------|-----------|---------|
B-----------|-----------|---------|
G-4-----4-4-|-4---------|-4-------|
D---7-5-----|---7-5-7-7-|---7-5---|
A-----------|-----------|-------7-|
E-----------|-----------|---------|
3rd stanza: ( 2x )
* E
( 2x )
* A
E-----------------|----------------|
B-----------------|----------------|
G-------6-9-6-----|----------------|
D---6-9-------9-6-|------4-5-4-----|
A-7---------------|--4-7-------7-4-|
E-----------------|-5--------------|
* E
B
A
E
E-----------------|---------|---------|---|-----|
B-----------------|---------|---------|---|-----|
G-------6-9-6-----|---------|---------|---|-----|
D---6-9-------9-6-|---------|---------|---|-----|
A-7---------------|---6-9-6-|---4-7-4-|---|-----|
E-----------------|-7-------|-5-------|-0-|-12\-|
E----------|-------------------------|
B-12-12-12-|-12----------------------|
G----------|---14-12-14-12-----12-12-|
D----------|--------------15-15------|
A----------|-------------------------|
E----------|-------------------------|
G F G F G
E--Reverb---------------|
B-----------------------|
G---12-12------------12-|
D-15-----15-12--12-15---|
A-------------15--------|
34
Potdevin - Cool Riffs and Hot Lead Guitar Licks - www.lepotdevin.com
She´s Not There
Ventures / Flippers, 1966, (---) Orig chords ˜,
Intro:
*
E-----|
B-----|
G-----|
D-----|
A-----|
E-8-5-|
|--------|----------|
|--------|----------|
|--------|----------|
|--------|----------|
|--5-----|-7-5------|
|----8-5-|-----8--5-|
1st stanza
A
E-------------------|-----------|
B-----5-----5-------|-----------|
G---5---7-5---5---5-|---5-------|
D-7-------------7---|-7---7-5-7-|
A-------------------|-----------|
E-------------------|-----------|
*
E-----------------5-|-----------|
B-----5-----5---5---|-----------|
G---5---7-5---7-----|---5-------|
D-7-----------------|-7---7-5-7-|
A-------------------|-----------|
E-------------------|-----------|
*
E-----------------|-----------|---------|
B-----------5-----|-----------|---------|
G---5-7-7-7---5---|-----------|---------|
D-7-------------7-|-7-7-7-5---|-5-------|
A-----------------|---------7-|---7-5-7-|
E-----------------|-----------|---------|
*
E-----------------|-------|
B-----------5-8-5-|-5-8-9-|
G---5-7-7-7-------|-------|
D-7---------------|-------|
A-----------------|-------|
E-----------------|-------|
*
E-5-5---5-|-5-5-5---5-|-5-5---5-|-5-5---5-|
B-----8---|-------8---|-----8---|-----8---|
G---------|-----------|---------|---------|
D---------|-----------|---------|---------|
A---------|-----------|---------|---------|
E---------|-----------|---------|---------|
*
E-----------------|---------------------------|
B-----------------|---------------------------|
G-----------------|---------------------------|
D-----------------|---------------------------|
A-----7-5---7-----|---------------------------|
E-5-8-----8---8-5-|---------------------------|
A Go-Go Dancer
Ventures / Flippers, 1966,
(Boggle,Edwards, Taylor, Wilson) Orig chords ˜,
Intro: muting
E
*
repeat
*
E-------| |--------------|
B-------| |--------------|
G-------| |--------------|
D-2-2-2-| |----0-1-2-2-2-|
A-------| |2-2-----------|
E-------| |--------------|
E
(4x)
E-----------|-------------|
B-----------|-----9-------|
G---9-7-9---|-9-----9-7-9-|
D-9-------9-|---9---------|
A-----------|-------------|
E-----------|-------------|
A
(2x)
E-----------------|-----------|
B-----------------|-----------|
G-----------------|-----5-----|
D-7-7-5-7-7-5-7-7-|-5-7---7-5-|
A-----------------|-----------|
E-----------------|-----------|
E (2x)
E-----------|-------------|
B-----------|-----9-------|
G---9-7-9---|-9-----9-7-9-|
D-9-------9-|---9---------|
A-----------|-------------|
E-----------|-------------|
B
A
E-----------------|-----------|-----------|
B-----------------|-----------|-----------|
G-----------------|-----------|-----------|
D-9-9-9---7-9-9-9-|---9-7-7-7-|---5-7-7-7-|
A-------9---------|-9---------|-7---------|
E-----------------|-----------|-----------|
E
drums
E-----------|-------|
B-----------|-------|
G-----------|-------|
D-----5-5---|-------|
A-7-7-----7-|-------|
E-----------|-------|
Outro:
( X 3 )
E
G
F#
F
E
E----------------------|
B----------------------|
G----------------------|
D----------------------|
A----------------------|
E-0---3---2----1---0---|
Potdevin - Cool Riffs and Hot Lead Guitar Licks - www.lepotdevin.com
35
Hang On Sloopy
McCoys / Ventures, 1964,
(Rusell, Farell) Orig chords ˜,
Main riff:
G
G C
C D
D C A G ...
E---| |-----|-------|-----------|
B---| |-----|-------|-----------|
G---| |-----|-------|-----------|
D---| |-----|----0--|--0--------|
A---| |---3-|--3----|----3-0----|
E-3-| |-3---|-------|--------3--|
Louie Louie
Kingsmen, 1963, (Richard Barry) Orig chords
˜,
Main riff:
A / /
D /
Em / / D /...
E-------|-----|-------|-----|
B-------|-----|-------|-----|
G-------|-----|-------|-----|
D-------|-0-0-|-2-2-2-|-0-0-|
A-0-0-0-|-----|-------|-----|
E-------|-----|-------|-----|
Lead solo:
A
E-----------------------------------------------|
B--8---18-18-18-18--18-18-18-18--20-20-20-20-20-|
G-10---19-19-19-19--17-17-17-17--19-19-19-19-19-|
D-----------------------------------------------|
A-----------------------------------------------|
E-----------------------------------------------|
A
E----18-20-18-21-b22-20-18--------|----------18----------|
B-20------------------------18-20-|-20-18-20----20-18-20-|
G---------------------------------|----------------------|
D---------------------------------|----------------------|
A---------------------------------|----------------------|
E---------------------------------|----------------------|
A
E----18-------------|----------------------------------|
B-------------------|----------------------------------|
G-17-----17-\-15----|--------10----------10---------10-|
D----------------17-|-11-h12------11-h12------11-h12---|
A-------------------|----------------------------------|
E-------------------|----------------------------------|
17
12
A
E----------|----18-------------|----18-------------|
B----------|-------------------|-------------------|
G-12-15-15-|-17-----17-\-15----|-17-----17-\-15----|
D----------|----------------17-|----------------17-|
A----------|-------------------|-------------------|
E----------|-------------------|-------------------|
17
A
E------------------------|----------|
B------------------------|----------|
G--------------15-----15-|----------|
D-17--17-15-17-----17----|-17-15-17-|
A------------------------|----------|
E------------------------|---------A
E---------------------------------------------------------|
B---------------------------------------------------------|
G--------10----------10---------10----------10---------10-|
D-11-h12------11-h12------11-h12-----11-h12-----11-h12----|
A---------------------------------------------------------|
E---------------------------------------------------------|
12
36
Potdevin - Cool Riffs and Hot Lead Guitar Licks - www.lepotdevin.com
Wild Thing
Troggs / Ventures, 1966, (Chip Taylor)
Orig chords ˜,
Main riff:
A
D
E
A....
E-------|-------|-------|-------|
B-------|-------|-------|-------|
G-------|-------|-------|-------|
D-------|--0-0--|--2-2--|--0-0--|
A--0-0--|-------|-------|-------|
E-------|-------|-------|-------|
G A
G A
E-----------|
B-----------|
G-----------|
D-----------|
A---0-----0-|
Wild Child
Ventures, 1966, (Boggle, Edwards, Taylor, Wilson) Orig chords ˜,
1st riff: repeat
A / / * * F# / * B / / * * E / *
E----------|-------|-----------|------|
B----------|-------|-----------|------|
G----------|-------|-----------|------|
D----------|-------|-----------|------|
A-0-0-0----|-------|-2-2-2-----|------|
E----------|-2-2---|-----------|-0-0--|
2nd riff
C D / C D
G A / G A C D / C D
D E///
E-----------|-----------|-----------|-----|
B-----------|-----------|-----------|-----|
G-----------|-----------|-----------|-----|
D---0-0---0-|-----------|---0-0---0-|-0---|
A-3-----3---|---0-0---0-|-3-----3---|-----|
E-----------|-3-----3---|-----------|---0-|
Say I Am
Shondells, 1966, (Mack, Tommy James) Orig chords ˜,
Intro:
F#
E--2-----|
B--2-----|
G--3-----|
D--------|
A--------|
E--------|
F# B B
B C#
C# B B
B F#
|--2--2--2-----|--2--4-----|--4--2--2------|--2--2----|
|--2--4--4-----|--4--6-----|--6--4--4------|--4--2----|
|--3--4--4-----|--4--6-----|--6--4--4------|--4--3----|
|--------------|-----------|---------------|----------|
|------------4-|-----------|---------------|----------|
|--------------|-----------|---------------|----------|
uh
E--------|
B--------|
G--------|
D--------|
A------2-|
E--------|
ah
uh
ah
uh
|--------------|-----------|---------------|----------|
|--------------|-----------|---------------|----------|
|--------------|-----------|---------------|----------|
|--------------|-----------|---------------|----------|
|------------4-|---------2-|---------------|--------2-|
|--------------|-----------|-------------2-|----------|
Potdevin - Cool Riffs and Hot Lead Guitar Licks - www.lepotdevin.com
Sweet Jane
Velvet Underground, 1970, (Reed) Orig chords ˜,
Intro:
D A G - Bm A D
D A G# G - Bm A D
37
Good Lovin´
Young Rascals,
1966, (A. Resnik, R. Clark) Orig chords ˜,
In
D / G / A /
A G /
E---------------|---------|
B---------------|---------|
G---------------|---------|
D-0-0-----------|---------|
A-----------0-0-|--0------|
E------3-3------|----3-3--|
Gloria
Them 1964, (Van Morrison) Orig chords ˜,
Main riff:
E / / / D A
E-------------------|
B-------------------|
G-------------------|
D-2-2-----2---0-----|
A-----------------0-|
E-------------------|
D
E
A
E------------|------------|
B------------|------------|
G------------|------------|
D-0-0-0-0-0--|------------|
A------------|-------0----|
E------------|-0----------|
Fill A
E-12--12--12--10--9--10-|
B-12--12--12--10--9--10-|
G-----------------------|
D-----------------------|
A-----------------------|
E-----------------------|
Young Rascals
Gene Cornish
Fill B
E-4--4--4--2-------|
B-5--5--5--3--0-h3-|
G------------------|
D------------------|
A------------------|
E------------------|
All Day And All Night
Kinks, 1964, (Ray Davies) Orig chords ˜,
Intro
F G
G F
F Bb // G
E-----|-----|-----------|
B-----|-----|-----------|
G-----|-----|-----------|
D-----|-----|-----------|
A-----|-----|---1-1-1---|
E-1-3-|-3-1-|-1-------3-|
You Really Got Me
Verse:
Bb
F
A
E---------------|---------|
B---------------|---------|
G---------------|---------|
D---------------|---------|
A-1-1-1-1-------|-----0-0-|
E---------1-1-1-|-1-1-----|
Main riff:
F G G
F G
G A A
G A
C D D C D
D C
E-------------|---------------|---------------|-----|
B-------------|---------------|---------------------|
G-------------|---------------|---------------|-----|
D-------------|---------------|----0-0-----0--|-0---|
A-------------|----0-0-----0--|--3-------3----|---3-|
E-1-3-3--1-3--|--3-------3----|---------------|-----|
Chorus:
G C A - (C) D
D C
C F / / D
CD
E-------|--------|------|-------------|
B-------|--------|------|-------------|
G-------|--------|------|-------------|
D-------|-----0--|--0---|----3-3-3-0--|
A---3-0-|--3-----|----3-|--3----------|
E-3-----|--------|------|-------------|
Kinks - Dave Davies
(rythm), Ray Davies
(lead & vocals)
Kinks, 1964, (Ray Davies) Orig chords ˜,
38
Potdevin - Cool Riffs and Hot Lead Guitar Licks - www.lepotdevin.com
Devil With A Blue Dress On
Mitch Ryder & Detroit Wheels, 1966,
(Long, Stevenson / Blackwell, Marascalco) Orig chords ˜,
Lead solo:
A
E----------|----------|-15b-|--------11----|
B----------|-------11-|-----|-11-h13----13-|
G-12-12-10-|-12-12----|-----|--------------|
D----------|----------|-----|--------------|
A----------|----------|-----|--------------|
E----------|----------|-----|--------------|
A
E--------------------|-----|----------------|-11-|-11p-|
B-11----11-h13-11----|-----|----------------|-11-|-11p-|
G----12-----------12-|-12b-|-10----10-------|----|-----|
D--------------------|-----|----13----13-10-|----|-----|
A--------------------|-----|----------------|----|-----|
E--------------------|-----|----------------|----|-----|
Second lead solo
A
E-----14-----14--|------------|-15b-13-|------------------|
B-12b----12b-----|-13-h15-h15-|--------|-15b-13-13--------|
G----------------|------------|--------|------------14-12-|
D----------------|------------|--------|------------------|
A----------------|------------|--------|------------------|
E----------------|------------|--------|------------------|
Jim McCarty
lead guitarrist
C
E-----------|-------|---------------------|-------------|-----|
B-----------|-------|---------------------|-------------|-13\-|
G-12b-------|-------|-12b--12b--12b--12b--|-------------|-12\-|
D-----15-13-|-13----|---------------------|-15-13-------|-----|
A-----------|----15-|---------------------|-------15-13-|-----|
E-----------|-------|---------------------|-------------|-----|
Hello, I Love You
Doors, 1968, (Doors) Orig chords ˜,
Main riff:
G A
A
G / / /
C / /
A
E-------|---------------|------------|
B-------|---------------|------------|
G-------|---------------|------------|
D-------|---------------|------------|
A----0--|--0------------|--3-3-3---0-|
E--3----|------3-3-3-3--|------------|
Chorus:
C
A
C
A...
E---------------|-------------|
B---------------|-------------|
G---------------|-------------|
D---------------|-------------|
A---3-3-3-3-3-0-|-3-3-3-3-3-0-|
E-3-------------|-------------|
Potdevin - Cool Riffs and Hot Lead Guitar Licks - www.lepotdevin.com
Doors Robby
Krieger
39
La Bamba
Wipe Out
Intro:
C
(x4)
F
(x2)
E----------------------|-------------------------|
B----------------------|-------------------------|
G----------------------|----8-9-10-10-10-8-------|
D----8-9-10-10-10-8----|-10----------------10----|
A-10----------------10-|-------------------------|
E----------------------|-------------------------|
C
(x2)
E------------------------------------------------|
B------------------------------------------------|
G------------------------------------------------|
D----8-9-10-10-10--------------------------------|
A-10--------------10-----------------------------|
E-----------------------------The Surfaris-------|
G
F
E---------------------------|--------------------|
B---------------------------|--------------------|
G-----8-10-12-12-12-10---12-|-10-10-10-8----10---|
D-10-------------------12---|------------10------|
A---------------------------|--------------------|
E---------------------------|--------------------|
C
G
E--------------------------|---------------------|
B--------------------------|---------------------|
G--------------------------|---------------------|
D-10-10-10-8---------8-10--|---------------------|
A------------10---10-------|-10-10-10-10-10-10---|
E--------------------------|---------------------|
C - C - F - C - G - F - C
G G G G
E------------------------------------------------|
G
F
C
3
B------------------------------------------------|
G------------------------------------------------|
D------------------------------------------------|
A------------------------------------------------|
E------------------------------------------------|
Surfaris, 1963, (Surfaris) Orig chords ˜,
Ritchie Valens / Speakers, 1965, (Traditional) Orig chords ˜,
C
F
G
C
F
G
E-------------------|-----------------|-----------|
B-------------------|-----------------|-----------|
G-----------0---2-0-|-----------------|---0---2-0-|
D---------2---3-----|-----0-3-3-2-0---|-2---3-----|
A---0-2-3-----------|---2-----------3-|-----------|
E-3-----------------|-3---------------|-----------|
C
F
G
E-----------------|-----------|
B-----------------|-----------|
G-----------------|---0---2-0-|
D-----0-3-3-2-0---|-2---3-----|
A---2-----------3-|-----------|
E-3---------------|-----------|
Speakers
C
F
G
C
F
G
E-------------------|-----------------|-----------|
B-------------------|-----------------|-----------|
G-----------0---2-0-|-------2-2-0-----|---0---2-0-|
D---------2---3-----|-----0-------2---|-2---3-----|
A---0-2-3-----------|---2-----------3-|-----------|
E-3-----------------|-3---------------|-----------|
C
F
G
E|-----------------|-----------|
B|-----------------|-----------|
G|-------2-2-0-----|---0---2-0-|
D|-----0-------2---|-2---3-----|
A|---2-----------3-|-----------|
E|-3---------------|-----------|
La Bamba
Speakers, 1965, (Traditional) Orig chords ˜,
Lead solo:
C
F
G
C
E-6-5-3-----------|-----------|---------------|---------|
B-------5-3---3-5-|-3-6-6-6-6-|-5-6-5-3-------|---------|
G-----------5-----|-----------|---------5-3---|-3-5-3-5-|
D-----------------|-----------|-------------5-|---------|
A-----------------|-----------|---------------|---------|
E-----------------|-----------|---------------|---------|
C
E------------------------------------------------|
B------------------------------------------------|
G-12-14-12-----------------12-14-----------------|
D-0-------15-13-------13-15----------------------|
A--------------15---15---------------------------|
E------------------------------------------------|
*
E------|-------|-----|--------|------3-6-|
B-3b-3-|-3-3-3-|-3-3-|-3--3-3-|-3-5------|
G------|-------|-----|--------|----------|
D------|-------|-----|--------|----------|
A------|-------|-----|--------|----------|
E------|-------|-----|--------|----------|
*
E-3-----------|---------|-3----|-------|
B---5-3---3-3-|-3-5-3-5-|-3--5-|-3-5-3-|
G-------5-----|---------|------|-------|
D-------------|---------|------|-------|
A-------------|---------|------|-------|
E-------------|---------|------|-------|
F
E------------------------------------------------|
B-15b-15-13-----13-15b-15-13---------------------|
G----------12-14---------------------------------|
D------------------------------------------------|
A------------------------------------------------|
E------------------------------------------------|
*
E-3---|-------|---3-|-------|------|----1--1--1--3-|
B-3-5-|-3-5-3-|-5-3-|-5-3-5-|-1--1-|-1--1--1--1--3-|
G-----|-------|-----|-------|-0--0-|-0-------------|
D-----|-------|-----|-------|------|---------------|
A-----|-------|-----|-------|------|---------------|
E-----|-------|-----|-------|------|---------------|
*
c
F
E-3--3--1--3-|-------1--1-/-1--1-|-------------|
B-3--3--1--3-|-1--1--1--1-/-1--1-|-3-3--5-3----|
G------------|-0--0--------------|-----------5-|
D------------|-------------------|-------------|
A------------|-------------------|-------------|
E------------|-------------------|-------------|
Outro:
G
B
D
F
G G# A A# B C - C
Aaa Aaa
Aaa
Aaa
Aaaah !
40
C (Solo)
E------------------------------------------------|
B------------------------------------------------|
G-12-14-12---------12-12-12-14-12---12-14-12-----|
D-0-------15-13--13------------------------------|
A--------------15--------------------------------|
E------------------------------------------------|
C
E-----------------------------|------------------|
B------13-16-15-13------------|------------------|
G-12-14-----------12-12-14-12-|-12-12-14-12-14-12|
D-----------------------------|-0--0-------------|
A-----------------------------|------------------|
E-----------------------------|------------------|
G
G
F
E------------------------|-----------------------|
B------------------------|-----------------------|
G-12\14-14-12------------|-----------------12----|
D------------15-13-15-13-|-15b-15-13--13-15------|
A------------------------|-----------------------|
E------------------------|-----------------------|
è
Potdevin - Cool Riffs and Hot Lead Guitar Licks - www.lepotdevin.com
Round and Round
Twist and Shout
A
D
E
(x3)
E-9----------------------------------------------|
B---10----------10-------------------------------|
G------11-9--11----11-9--------------------------|
D------------------------------------------------|
A------------------------------------------------|
E------------------------------------------------|
A
D
A
(x2)
E------------------------------------------------|
B------------------------------------------------|
G------------------------------------------------|
D-------------------0----------------------------|
A-------0-------0-----3-0-----------0----------0-|
E-0-2-3-------0---0-----------0-2-3------0-2-3---|
D
A
E-----------------------|------------------------|
B-----------------------|------------------------|
G-7-7-5-5---------------|-6-6--------------------|
D--------7-7-5-5-4------|-----7-7-5-5-4-4--------|
A-----------------5-7-5-|----------------7-0-5-4-|
E-----------------------|------------------------|
G# A A# B
E
E------------------------------------------------|
B------------------------------------------------|
G----------4-4-----------------------------------|
D--------------7-7-6-6-4-4-----------------------|
A--------------------------7---5-4---------------|
E----------------------------7-------------------|
Intro:
A
D
G
A
D
G
A
E-----------------|---------|---------------|
B-----------------|---------|---------------|
G-----------------|---------|---------------|
D-------0-0-------|---------|-----0-0-----0-|
A-0-2-4---------0-|-0-0-0-0-|-2-4-----------|
E-----------3-3---|---------|---------3-3---|
Shadows / Speakers, 1966, (--) Orig chords ˜,
Beatles, 1963, (B.Rusell, P.Medley) Orig chords ˜,
Lead solo:
D
G
A
D G
E-------------|-----------|
B-------------|-----------|
G-------0-4-2-|---2-0-----|
D-0---0-------|-0-----4-0-|
A-------------|-----------|
E-------------|-----------|
A
Outro:
A
E F F# G G# A
E-------|------------------|--5--|
B-------|------------------|--5--|
G-------|------------------|--5--|
D-------|------------------|--4--|
A-0-0-0-|------------------|--5--|
E-------|-0--1--2--3--4--5-|-----|
The Beatles
George Harrison
lead guitar
John Lennon
Rythm guitar
A
E
E------------------------------------------------|
B------------------------------------------------|
G-----2------------2-----------2-----------------|
D----2-------2-4--2------2-4--2------2-4---------|
A------------------------------------------------|
E------------------------------------------------|
A
D
E
A
(x4)
E-5-5---4-4--------------------------------------|
B-----7-----5----5-5-5---------------------------|
G----------------------7-6-4---------------------|
D----------------------------7-------------------|
A------------------------------------------------|
E------------------------------------------------|
A
F# G# E
D C# B A
Shadows - Hank
Marvin - lead guitar
Perro Lanudo (Furry Dog)
Speakers - Rodrigo
Garcia - lead guitar
..è.....Wipe out solo ending
C
G
C
E---------------------|--------------------------|
B---------------------|--------------------------|
G-12-14-12--------12--|--------------------------|
D-0-------15-13-15----|-13-15-13-15-13-15-13-----|
A---------------------|---------------------15---|
E---------------------|--------------------------|
Ampex, 1965, (Lanne, Bernie) Orig chords ˜,
Intro:
G
E-----------------|-----------------|
B-----------------|-----------------|
G-----------------|-----------------|
D-----0-2-3-2-0---|-----0-2-3-2-0---|
A---2-----------2-|---2-----------2-|
E-3---------------|-3---------------|
C
E-----------------|-----------------|
B-----------------|-----------------|
G-----0-2-3-2-0---|-----0-2-3-2-0---|
D---2-----------2-|---2-----------2-|
A-3---------------|-3---------------|
E-----------------|-----------------|
G
E-----------------|-----------------|
B-----------------|-----------------|
G-----------------|-----------------|
D-----0-2-3-2-0---|-----0-2-3-2-0---|
A---2-----------2-|---2-----------2-|
E-3---------------|-3---------------|
Potdevin - Cool Riffs and Hot Lead Guitar Licks - www.lepotdevin.com
41
A Hard Day´s Night
Day Tripper
*
E---------------|
B----------1--3-|
G-0-0--0-3--3---|
D---------------|
A---------------|
E---------------|
Orig chords ˜,
Beatles, 1965, (Lennon, McCartney)
Beatles, 1965, (Lennon, McCartney) Orig chords ˜,
*
E------1-|------1-|------1-|---------|
B-1-h3---|-1-h3---|-1-h3---|-3-1-----|
G--------|--------|--------|-----3-0-|
D--------|--------|--------|---------|
A--------|--------|--------|---------|
E--------|--------|--------|---------|
outro:
F
E-----5-------|----5-------|
B--8-----6----|-8-----6----|
G-----------5-|----------5-|
D-------------|------------|
A-------------|------------|
E-------------|------------|
Intro:
E
E---------------------------|
B---------------------------|
G---------------------------|
D-----------2-0---4---0-2---|
A---------2-----2---2-------|
E-0---0-4-----------------0-|
A
E---------------------------|
B---------------------------|
G-----------2-0---4---0-2---|
D---------2-----2---2-------|
A-0---0-4-----------------0-|
E---------------------------|
Lead solo
B
E---------------------------|
B-----------------2---------|
G-----------4-2-------2-4---|
D-------1-4-----4---4-------|
A-2---2-------------------2-|
E---------------------------|
Beatles George Harrison lead guitar
Birthday
Beatles, 1968, (Lennon, McCartney) Orig chords ˜,
Main riff sequence: A (x2) D A
E
A
A
D
E
E-------3-2---|--------8-7----|--------10-9----|
B----2-5---5--|----7-10---10--|----9-12----12--|
G-2-2-------2-|-7-7---------7-|-9-9----------9-|
D-------------|---------------|----------------|
A-------------|---------------|----------------|
E-------------|---------------|----------------|
Lead solo 1:
* ( 3 x )
E-------------------------------------|
B-----5-5-6-6-7-7-8-8-6-6-5-5---------|
G-5-5-------------------------7-7-5-5-|
D-------------------------------------|
A-------------------------------------|
E-------------------------------------|
The Crickets Buddy Holly
Words Of Love
Buddy Holly / Beatles, 1957, (Buddy Holly) Orig chords ˜,
* ( 1 x )
E----------------------------------------|-12-|
B-----5-5-6-6-7-7-8-8-9-9-10-10-11-11-12-|----|
G-5-5------------------------------------|----|
D----------------------------------------|----|
A----------------------------------------|----|
E----------------------------------------|----|
Riff
A
D
A
E---0-0---0-|-----2-----|-0-----|
B-------2---|-0-----3---|---2---|
G-2---------|---2-----2-|-----2-|
D-----------|-----------|-------|
A-----------|-----------|-------|
E-----------|-----------|-------|
Lead solo 2:
A
E-0-0-0---0-|-----2-----|-0-----|
B-------2---|-0-----3---|---2---|
G-----------|---2-----2-|-----2-|
D-----------|-----------|-------|
A-----------|-----------|-------|
E-----------|-----------|-------|
D
E----------------12-10----------|
B-10-----10---13-------13-10----|
G---9-12---------------------12-|
D-------------------------------|
A-------------------------------|
E-------------------------------|
42
A
E------------------------------|
B-10-----10--------------------|
G---9-12------12-9-------------|
D------------------12-10-------|
A------------------------12-10-|
E------------------------------|
Potdevin - Cool Riffs and Hot Lead Guitar Licks - www.lepotdevin.com
And Your Bird Can Sing
Hey Bulldog
Intro
E
E-----------|---------|-----------------|------------|
B-9-7---7---|---------|-----------7-9-9-|-9-10-9-----|
G-----9---9-|-8-6-8-6-|---------9-------|--------9---|
D-----------|---------|-9-7-6-9---------|----------9-|
A-----------|---------|-----------------|------------|
E-----------|---------|-----------------|------------|
Intro: ( 3x )
B7
F#m
E------------------|-----------------|
B------------------|-----------------|
G------------------|-----------------|
D------0---2---3-4-|-----0---4---3-2-|
A--2-2---2---2-----|-2-2---2---2-----|
E------------------|-----------------|
Beatles, 1966, (Lennon), McCartney) Orig chords ˜,
E
E----------------|
B---7-9----7-----|
G-9----------9---|
D--------------9-|
A----------------|
E----------------|
Beatles - George
Harrison - lead
guitar
Arpeggio
G#
Cm
B
Bbm
E-------4-------|-------3-------|-------2-------|-------1-------|
B-----4---4-----|-----4---4-----|-----4---4-----|-----2---2-----|
G---4-------4---|---4-------4---|---4-------4---|---3-------3---|
D-6-----------6-|-5-----------5-|-4-----------4-|-3-----------3-|
A---------------|---------------|---------------|---------------|
E---------------|---------------|---------------|---------------|
E
F#
B
E-------0-------|-------2-------|-------2-------|-------2-------|
B-----0---0-----|-----2---2-----|-----2---2-----|-----4---4-----|
G---1-------0---|---2-------2---|---2-------2---|---4-------4---|
D-2-----------2-|-4-----------4-|-4-----------4-|-4-----------4-|
A---------------|---------------|---------------|---------------|
E---------------|---------------|---------------|---------------|
Beatles, 1968, (Lennon, McCartney) Orig chords ˜,
Lead solo:
* B7
F#m
( 2x )
*
E------------------|------------------|
B----------------7-|---------7--------|
G-----7---9---10---|-----7-------10-9-|
D-9-9---9---9------|-9-9---9---9------|
A------------------|------------------|
E------------------|------------------|
*
( x 2 )
*
B7
F#m
E-----------------|-----------------------|
B-12-12-12-12-12\-|-----4--2--2--2--4--5--|
G-----------------|-4-6----2--2--2--4--6--|
D-----------------|-----------------------|
A-----------------|-----------------------|
E-----------------|-----------------------|
A
F#m
E
E-----------------|-------4---12-12-12-12-|
B-----5-3---------|-----3---3-------------|
G-3\4-----6-6-4---|-3\4-------------------|
D---------------7-|-----------------------|
A-----------------|-----------------------|
E-----------------|-----------------------|
Lead Solo
E
A
F#m
B7
E-----------|---------|-----------------|------------|-----------| E-----------------|-------------------------|
B-9-7---7---|---------|-----------7-9-9-|-9-10-9-----|---7-9-7---| B-----5-3---------|--4--4--4--4--7--7--7--7-|
G-----9---9-|-8-6-8-6-|---------9-------|--------9---|-9-------9-| G-3\4-----6-6-4---|--4--4--4--4--8--8--8--8-|
D-----------|---------|-9-7-6-9---------|----------9-|-----------| D---------------7-|-------------------------|
A-----------|---------|-----------------|------------|-----------| A-----------------|-------------------------|
E-----------|---------|-----------------|------------|-----------| E-----------------|-------------------------|
A
E
E--------7------|----------------7-9-11-12-12-|
B-7-9-10---10-9-|-7-------7-9-10--------------|
G---------------|---9-8-9---------------------|
D---------------|-----------------------------|
A---------------|-----------------------------|
E---------------|-----------------------------|
E
E-12-13-12-|-7-----|
B----------|---9---|
G----------|-----9-|
D----------|-------|
A----------|-------|
E----------|-------|
Outro:
B7
F#m
E------------------|-----------------|
B------------------|-----------------|
G------------------|-----------------|
D------0---2---3-4-|-----------------|
A--2-2---2---2-----|-----0---4---3-2-|
E------------------|-2-2---2---2-----|
Outro:
(x3)
E
A
E---------------|
B-9-7---7-------|
G-----9---9-8-6-|
D---------------|
A---------------|
E---------------|
Come Together
Beatles, 1969, (Lennon-McCartney) Orig chords ˜,
G7
One thing I can tell you is you got to be free.
Bm
A
G
Come together, right now
A
Dm
Over me.
Beatles - John Lennon - guitar
Potdevin - Cool Riffs and Hot Lead Guitar Licks - www.lepotdevin.com
43
Something
My Love
Intro:
F
D# G7 C
E-----------------|
B-10-12b-10-11-12-|
G-----------------|
D-----------------|
A-----------------|
E-----------------|
1st stanza
F6
Am
E-------------|-----------3-------|
B-------3-5-6-|-------3-6---6-5---|
G---3-5-------|---3-5-----------5-|
D-3-----------|-3-----------------|
A-------------|-------------------|
E-------------|-------------------|
Beatles, 1969, (George Harrison) Orig chords ˜,
Chords:
C Cmaj7 C7 F F E D
Am
Am#7
Am7
D7
D
F
D7
D
Paul McCartney, 1973, (Paul McCartney) Orig chords ˜,
D9
Gm
E---------|---------------|
B---------|---5-----------|
G---5-7---|-----7-5-------|
D-7-----7-|-7-------8-7---|
A---------|-------------8-|
E---------|---------------|
G
Eb G7 C
Guitar solo:
E-----------|-----------------|
B-----------|------10-10------|
G----9-12-9-|----9-------12-9-|
D-12--------|-12--------------|
A-----------|-----------------|
E-----------|-----------------|
*
E------------------|-------10----|-12-10-------|
B---------10----10-|-13-13----13-|-------13-10-|
G----9-12----12----|-------------|-------------|
D-12---------------|-------------|-------------|
A------------------|-------------|-------------|
E------------------|-------------|-------------|
*
E----------|--------------|---------------|-------|
B-10-13-13-|--------------|---------------|-10-12-|
G----------|-9-12-12-9----|---------11-11-|-------|
D----------|--------------|-9----12-------|-------|
A----------|-----------12-|---12----------|-------|
E----------|--------------|---------------|-------|
*
E-------------|----10-------|-12-10-------|
B-10-12-10----|-10----13-10-|-------13-10-|
G----------12-|-------------|-------------|
D-------------|-------------|-------------|
A-------------|-------------|-------------|
E-------------|-------------|-------------|
Am F6 Dm
F
Bb
C7
F
E-------|-----5-|-5-------|-5-------|------------|
B-------|---6---|---8-6---|---8-6---|-------6--6-|
G-----5-|-7-----|---------|---------|-----7------|
D---7---|-------|-------7-|-------5-|-8-8--------|
A-8-----|-------|---------|---------|------------|
E-------|-------|---------|---------|------------|
Lead solo:
F6
Am
E-------------|----------------|----------------|
B-11----------|-11-------------|----------------|
G----12-10----|----12-10-------|-10-12-10-------|
D----------10-|----------10-12-|----------12-10-|
A-------------|----------------|----------------|
E-------------|----------------|----------------|
D9
Gm
E-----------------------|------------------------|
B-------13--13----------|------------------------|
G----14--------14-------|-12-12-12---------------|
D-14--------------14-16-|------------------------|
A-----------------------|----------13-13---13-13-|
E-----------------------|------------------------|
Am
F6
E----------------------|-------------|
B-10-10-10-------------|-------------|
G----------------------|-------10-12-|
D----------10-10----10-|-10-12-------|
A----------------------|-------------|
E----------------------|-------------
* ( x3 ) *
E--------|------12-10-|----10-------|
B--------|------------|-13----13-10-|
G-9b-----|-9-12-------|-------------|
D----10--|------------|-------------|
A--------|------------|-------------|
E--------|------------|-------------|
Outro:
F
D# G7 A
F
D# G7 C
E--------------------|----16-14-12-|--------------------|
B-10-12b-10-11-12-14-|-14----------|-10-12b-10-11-12-13-|
G--------------------|-------------|--------------------|
D--------------------|-------------|--------------------|
A--------------------|-------------|--------------------|
E--------------------|-------------|--------------------|
Dm
E----------------10-13-|-13-10----10----|
B----------10-13-------|-------13----13-|
G----10-12-------------|----------------|
D-12-------------------|----------------|
A----------------------|----------------|
E----------------------|----------------|
F
Bb
C7
F
E-------------|-------------|----------------|
B-10----------|-10----------|----------------|
G----12-10----|----12-10----|----------10-10-|
D-------------|-------------|-------12-------|
A----------13-|----------10-|-13-13----------|
E-------------|-------------|----------------|
Denny Laine
Lead guitarrist
44
Potdevin - Cool Riffs and Hot Lead Guitar Licks - www.lepotdevin.com
Blackbird
Beatles, 1968, (Lennon, McCartney) Orig chords ˜,
Intro:
G
Am7
G
E--------------------|-------------|---------|
B-0-----1-----3-/-12-|----------12-|---------|
G----0-----0---------|-0-0-0-0-----|-0-0-0-0-|
D--------------------|-------------|---------|
A-------0-----2-/-10-|----------10-|---------|
E-3------------------|-------------|---------|
1st stanza
G
Am7
G
E--------------------|-------------|---------|
B-0-----1-----3-/-12-|----------12-|---------|
G----0-----0---------|-0-0-0-0-----|-0-0-0-0-|
D--------------------|-------------|---------|
A-------0-----2-/-10-|----------10-|---------|
E-3------------------|-------------|---------|
C A7
D7 B7
Em Cm
G A7
E----3--|----5--|----|---------|---|---------|----3--|
B-5-----|-7-----|--8-|---------|-8-|---------|-7-----|
G-------|-------|----|-0-0-0-0-|---|-0-0-0-0-|-------|
D-------|-------|----|---------|---|---------|-------|
A-3--4--|-5--6--|--7-|---------|-7-|---------|-5--4--|
E-------|-------|----|---------|---|---------|-------|
Am7 Cm
G
A7
Am7
D7
G
E----|---------|---|---------|---|---------|---|---------|---|---------|---|---------|
B--5-|---------|-4-|---------|-3-|---------|-2-|---------|-1-|---------|-0-|---------|
G----|-0-0-0-0-|---|-0-0-0-0-|---|-0-0-0-0-|---|-0-0-0-0-|---|-0-0-0-0-|---|-0-0-0-0-|
D----|---------|---|---------|---|---------|---|---------|-0-|---------|---|---------|
A--3-|---------|-3-|---------|-2-|---------|-1-|---------|---|---------|---|---------|
E----|---------|---|---------|---|---------|---|---------|---|---------|-3-|---------|
Instrumental
G
E-----||----------------|---------|----------|----|---------|---|
B-12\-||-0-----1-----3--|-5--3--2-|----------|--1-|---------|-0-|
G-----||----0-----0-----|---------|-0-0-0-0--|----|-0-0-0-0-|---|
D-----||----------------|---------|----------|--0-|---------|---|
A-10\-||-------0-----2--|-3--2--1-|----------|----|---------|---|
E-----||-3--------------|---------|----------|----|---------|-3-|
Chorus:
Intro:
F
C Dm C Bb
C
F
C Dm C Bb
C
D7
G
Am7
G
E-----------------------------------|---------------------------------------------||--------------------|
B--10--8--6--5--3---------5---------|--10--8--6--5--3---------2---------1---------||-0-----1-----3-/-12-|
G-----------------0-0-0-0---0-0-0-0-|-----------------0-0-0-0---0-0-0-0---0-0-0-0-||----0-----0---------|
D-----------------------------------|-----------------------------------0---------||--------------------|
A--8---7--5--3--1---------3---------|--8---7--5--3--1---------0-------------------||-------0-----2-/-10-|
E-----------------------------------|---------------------------------------------||-3------------------|
Country walk whistling
Potdevin - Cool Riffs and Hot Lead Guitar Licks - www.lepotdevin.com
45
I Will
Junk
Intro:
*
E---------------|-------------|
B---------------|-------------|
G-----5-2-----3-|-----5-2---5-|
D-2-3-----3-5---|-2-3-----3---|
A---------------|-------------|
E---------------|-------------|
1st stanza:
*
E---------|--------|------------|
B-10---10-|-9-10-9-|-7-9-7-10-7-|
G----9----|--------|------------|
D---------|--------|------------|
A---------|--------|------------|
E---------|--------|------------|
Beatles, 1995, (Lennon, McCartney) Orig chords ˜,
Paul McCartney, 1970, (Paul McCartney) Orig chords ˜
*
E-----------------|---------------|
B---6-3-----------|---6-3---------|
G-5-----3---5-2---|-5-----3-------|
D---------5-----3-|---------5-2-3-|
A-----------------|---------------|
E-----------------|---------------|
*
Fill in
*
E--------7---|---------|-----------------|
B-7-9-10---7-|-10-10-7-|-----------------|
G------------|---------|---7---6-6---7-6-|
D------------|---------|-7---------7-----|
A------------|---------|-----------------|
E------------|---------|-----------------|
2nd stanza
*
E-------------|----------------------|
B-------------|----------------------|
G-3-2-3-2-3-5-|-2-----2--3-2-3-5-5-2-|
D-------------|-----3----------------|
A-------------|---5------------------|
E-------------|----------------------|
2nd stanza
E----------|----------|-------------------|
B-14-15-14-|-12-14-12-|----12----14-------|
G----------|----------|-14----14----14\11-|
D----------|----------|-------------------|
A----------|----------|-------------------|
E----------|----------|-------------------|
*
E----------------|------------|
B----------12----|------------|
G-11-13-14----11-|-14-14-11\9-|
D----------------|------------|
A----------------|------------|
E----------------|------------|
*
E-------------|--------------------------|
B-------------|--------------------------|
G-3-2-3-2-3-5-|-2-----2----2-3-5-5-5\3\2-|
D-------------|-----3----5---------------|
A-------------|---5----------------------|
E-------------|--------------------------|
3rd stanza
*
( 2 x )
*
E----|---------------------|-----|
B-8b-|---------------------|-----|
G----|-10-10-9-7-6---6-7-6-|-7-9-|
D----|-------------9-------|-----|
A----|---------------------|-----|
E----|---------------------|-----|
Ending
*
E-----------------|-----------------|
B---6-3-----------|---6-3-----------|
G-5-----3---5-2---|-5-----3---5-2---|
D---------5-----3-|---------5-----3-|
A-----------------|-----------------|
E-----------------|-----------------|
4th stanza
E----------14-16-17-|----------|----------14----|
B-14-15-14----------|-14-15-14-|-14-15-14-------|
G-------------------|----------|-------------14-|
D-------------------|----------|----------------|
A-------------------|----------|----------------|
E-------------------|----------|----------------|
*
E-----------------|---------------|
B---6-3-------6-3-|---6-3---------|
G-5-----3---5-----|-3-----3-------|
D---------5-------|---------5-2-3-|
A-----------------|---------------|
E-----------------|---------------|
*
E---------------|------------|
B----------12---|------------|
G-11-13-14---14-|-14-14-11\9-|
D---------------|------------|
A---------------|------------|
E---------------|------------|
*
E-----|---------------------------------3-5-|
B---6-|---------------------------3-5-6-----|
G-----|-3-2-3-2-3-5--2-----2--3-5-----------|
D-3---|------------------3------------------|
A-----|----------------5--------------------|
E-----|-------------------------------------|
Outro:
E-9-10-9-|-7-9-7-|----7----9------|
B--------|-------|-10---10---10\7-|
G--------|-------|----------------|
D--------|-------|----------------|
A--------|-------|----------------|
E--------|-------|----------------|
My Sweet Lord
George Harrison, 1971, (George Harrison) Orig chords ˜,
Chords: F# B F# B
E C#m E C#m E E7 F#
F
E-16-14-12-14-12-------|-16-14-12-14-12----|----12-------|
B----------------14-14-|----------------14-|-14----14-12-|
G----------------------|-------------------|-------------|
D----------------------|-------------------|-------------|
A----------------------|-------------------|-------------|
*
E-16-14-12-|-16\--13\--10\-|-7-10-13-9-9-|-9-7-----|
B----------|---------------|-------------|-----9-7-|
G----------|---------------|-------------|---------|
D----------|---------------|-------------|---------|
A----------|---------------|-------------|---------|
E----------|---------------|-------------|---------|
E----------|---------------|-------------|---------|
46
Potdevin - Cool Riffs and Hot Lead Guitar Licks - www.lepotdevin.com
It´s Only Love
Girl
Intro:
*
E-----------|-----------|
B-1-0-------|-1-0-------|
G-----2-0---|-----2-0---|
D---------2-|---------2-|
A-----------|-----------|
E-----------|-----------|
1st stanza:
*
E-----------------------------|
B-------------6---------------|
G-5-7-8-8-8-8---8-7-5-5---5---|
D-----------------------5---8-|
A-----------------------------|
E-----------------------------|
Beatles, 1965, (Lennon, McCartney) Orig chords ˜,
1st stanza
( 2x )
*
E-------------------|-------|
B---3---------------|-------|
G-5---4---3-5-2-----|---4---|
D-------5-------3-5-|-5---5-|
A-------------------|-------|
E-------------------|-------|
2nd stanza
*
E-----------------------|
B-----------------------|
G-5-2---------------2---|
D-----3---5---2-5-2---5-|
A-------5---------------|
E-----------------------|
Chorus
*
E-----------------|-----------------|
B---3-5-6-5-3-----|-----3-5-3-------|
G-5-----------5-4-|-4-5-------5-4-2-|
D-----------------|-----------------|
A-----------------|-----------------|
E-----------------|-----------------|
*
E-----------------|---------|-------|
B---3-5-6-5-3-----|-----3---|-----3-|
G-5-----------5-4-|-4-5---5-|-4-5---|
D-----------------|---------|-------|
A-----------------|---------|-------|
E-----------------|---------|-------|
Ending
*
E---------|-------|-----3---5-----|
B-3-3-3---|-----3-|-------------5-|
G-------5-|-4-5---|-5-5-----------|
D---------|-------|---------------|
A---------|-------|---------------|
E---------|-------|---------------|
Beatles, 1965, (Lennon, McCartney) Orig chords ˜,
*
E-------------------|
B-------------------|
G---5-4-5-7-5-------|
D-6-----------8-6-5-|
A-------------------|
E-------------------|
Chorus
*
E----------|-----------|
B----------|-----------|
G-5b-------|-----------|
D----8-5\3-|-----8-5\3-|
A----------|-----------|
E----------|-----------|
2nd stanza
*-------------( 2x )--------------*
E-----------------------------------|
B-------------------------------6---|
G-5-5-5-5-5-5-5-5-5-5-5-5-5-5-5---8-|
D-----------------------------------|
A-----------------------------------|
E-----------------------------------|
*
E------|-----|---------------|
B--6---|-6---|-6-------------|
G----8-|---8-|---8-5---------|
D--------------------6-8-5\3-|
A----------------------------|
E----------------------------|
Lead solo: ( 2 x )
*
E-------------------------------------|
B-------------------------11-11-------|
G-12-12-------13-13-10-10-------12-12-|
D-------13-13-------------------------|
A-------------------------------------|
E-------------------------------------|
*
E-------------------------------------|
B-13-13-11-11-------13-13-11-11-------|
G-------------13-13-------------13-13-|
D-------------------------------------|
A-------------------------------------|
E-------------------------------------|
Free As A Bird
Beatles, 1995, (---) Orig chords ˜,
Intro:
E
E---|----|------|--------------|-----------|------|-------0----|
B---|----|------|--------------|-----------|------|-----0------|
G-9-|-7b-|-6----|-------6b-----|-9h11r9h10-|-12-9-|---1------4-|
D---|----|----7-|-7h9r7----9-7-|-----------|------|-2----------|
A---|----|------|--------------|-----------|------|------------|
E---|----|------|--------------|-----------|------|------------|
*
E-------------------------|
B-------------------------|
G-12-12-13-13-12-12-10-10-|
D-------------------------|
A-------------------------|
E-------------------------|
Lead solo:
*
E-----|-------|-------|-------------|-15b-17b-----|----------------|
B-17b-|-19/20-|-15h17-|-15h17r15----|---------17b-|-15h17r15-------|
G-----|-------|-------|----------14-|-------------|----------12-14-|
D-----|-------|-------|-------------|-------------|----------------|
A-----|-------|-------|-------------|-------------|----------------|
E-----|-------|-------|-------------|-------------|----------------|
Potdevin - Cool Riffs and Hot Lead Guitar Licks - www.lepotdevin.com
47
Satisfaction
Jumpin Jack Flash
Intro:
E
D
E
E----------------|------------|
B----------------|------------|
G----------------|------------|
D----------------|------------|
A-2-2---2-4--4/5-|-5-5-4--2-2-|
E----------------|------------|
Intro
Bb
G#
Bb
E------------------------------------|
B------------------------------------|
G------------------------------------|
D-8-8-------6-------6-------6----8-8-|
A-------6-8-----6-8-----6-8----------|
E------------------------------------|
Rolling Stones, 1965, (Jagger-Richard) Orig chords ˜,
Rolling Stones, 1968, (Jagger-Richard) Orig chords ˜,
Verse:
E
A
E
E---|---------|---|---------|
B---|---------|---|---------|
G---|---------|---|---------|
D---|---2-----|---|---2---2-|
A---|-4---4-0-|---|-4---4---|
E---|---------|---|---------|
Paint It Black
Rolling Stones, 1966, (Jagger-Richards)
Orig chords ˜
E
B7
E
A
E---|---------------|---------------|
B---|---------------|---------------|
G---|---------------|---------------|
D---|-------------2-|-------------2-|
A---|-0-2-0-2-0-4---|-0-2-0-2-0-4---|
E---|---------------|---------------|
E
D
E
E---|----------|---------------|
B---|----------|---------------|
G---|----------|---------------|
D---|----------|--0-0----------|
A---|-2-4--4/5-|-------4--2-2--|
E---|----------|---------------|
Roling Stones - Keith
Richards - lead guitar
Intro:
E
E----------|---------|-------|
B---7-8-10-|-8-7-----|-----7-|
G-9--------|-----9-9-|-8-9---|
D----------|---------|-------|
A----------|---------|-------|
E----------|---------|-------|
Slide all notes
E----------|---------|
B----------|---------|
G-6-8-9-11-|-9-8-6-8-|
D----------|---------|
A----------|---------|
E----------|---------|
Roling Stones - Keith
Richard - lead guitar
Angie - intro
Rolling Stones, 1973,
(Mick Jagger, Keith Richard) Orig chords ˜
Intro:
(use a pick)
Am
E---|--0--0--|--3--0-----|-------|
B---|--1--1--|--1--1-----|-------|
G---|--2-----|--2-----2--|-2-----|
D---|--2-----|--2--------|---2---|
A-0-|--------|-----------|-----0-|
E---|--------|-----------|-------|
E7
E---|-----0-------0--|-0-|
B---|-0-3---3-0---0--|---|
G---|-----------2-1--|---|
D---|----------------|---|
A---|----------------|---|
E-0-|----------------|---|
G
Fmaj7 Fmaj7
E---|-----3-------|-------|
B---|-0-3---3-0---|----1--|
G-0-|-----------0-|-3--2--|
D---|-------------|-0--3--|
A---|-------------|-------|
E---|-------------|-------|
Dmaj7
Dmaj7
c
E-1-------1-|---------|
B---1---1---|---------|
G-----2-----|---------|
D-----------|---3--2--|
A-----------|-3----3--|
E-----------|---------|
Am
E--------------|
B-----1-----1--|
G-------0---2--|
D---0-------2--|
A-2------------|
E--------------|
48
Long Cool Woman In A Black Dress
Hollies, 1965, (Clarke-Cook-Greenway) Orig chords ˜,
guitar 1
guitar 2 (enters 3rd time)
|-------------|---------|-------------|-------|-------------|---------|---0-2-3-2-0-|-0-2-3-2
|-------------|---------|-0h1-2-4-2-1-|-1-2-4-2
|-2---------2-|-2-------|-------------|-------|-2-4--5--4-2-|-2-4-5-4-|-------------|-------|-0-0--0--0-0-|-0-0-0-0-|-------------|--------
Am
E7
G
F
Fmaj7 E Dm C
E-----|-0--0--0-------0--|-----3-4-0--3-|-------------------|
B-3/5-|-1--1--1--3-1--0--|------------0-|-------------------|
G-----|-2--2--2-------1--|--------------|-------------------|
D-----|---------------0--|--------------|-------------------|
A-----|---------------2--|--------------|-------------------|
E-----|------------------|--------------|-------------------|
Angie....................Angie
Potdevin - Cool Riffs and Hot Lead Guitar Licks - www.lepotdevin.com
Long Tall Texan
Beach Boys, 1965, (---) Orig chords ˜,
12
Intro
B
E----------------|----------|----------|--------|----------|----------|
B----------------|----------|----------|--------|----------|----------|
G-9b-9b-9b-9b-9b-|-9--------|----------|--------|----------|----------|
D----------------|---12-9---|--------9-|------9-|--------9-|----------|
A----------------|----------|-9-12-9---|-9-12---|-9-12-9---|-11-9-----|
E----------------|--------7-|----------|--------|----------|-----10-7-|
Lead solo
* B
( 2X )
*
E------------|---------|-------|---------|------|---------|
B------------|---------|-------|---------|------|-9--9----|
G-9h11-11-11-|-11-9----|-------|---------|------|-9--9----|
D------------|------12-|-12-12-|-9----12-|-12-9-|------12-|
A------------|---------|-------|---12----|------|---------|
E------------|---------|-------|---------|------|---------|
B
E--------|----------------|
B--------|----------------|
G--------|----------------|
D-9----9-|-12-9-12-9----9-|
A---12---|-----------12---|
E--------|----------------|
Beach Boys Carl Wilson - lead guitar
* B
*
E------------|-----------|----------------|--------------|
B------------|-----------|----------------|--------------|
G-9h11-11-11-|-9h11-9----|-9h11-9----9----|-11-9---------|
D------------|--------12-|--------12---12-|------12-9-12-|
A------------|-----------|----------------|--------------|
E------------|-----------|----------------|--------------|
B
E--------------|----------------|--------|
B--------------|----------------|--------|
G--------------|----------------|--------|
D-12-9----9----|----------------|----9-9-|
A------12---12-|-9-12-9---------|--------|
E--------------|--------12-10-7-|-10-----|
B
E----|-----|-9b----|---------|
B-9b-|-12b-|----10-|---------|
G----|-----|-------|-11-10-9-|
D----|-----|-------|---------|
A----|-----|-------|---------|
E----|-----|-------|---------|
The Last Kiss
Frank Wilson & The Cavaliers, 1964, (Cochran) Orig chords ˜,
Intro:
E
C#m
A
B7
E-----|---------|---------|---------|
B-----|---------|---------|---------|
G---4-|---------|---------|-6-6-4---|
D-----|-------6-|---6-7---|-------4-|
A-7---|-7-6-4---|-7-----7-|---------|
E-----|---------|---------|---------|
B
E---------|-----------|--------------|
B---------|-----------|--------------|
G---------|-----------|--------------|
D-12-9-12-|-11-9------|--------------|
A---------|------12-9-|-12-9---------|
E---------|-----------|------12-10-7-|
I´m a Believer
Not Your Steppin´ Stone
Intro:
*
E----13-13-12-12-|----------------------------------------------------|
B-13-------------|----------------------------------------------------|
G----------------|-------10--------10----10--------10--------10----10-|
D----------------|-10h12-----10h12-----10----10h12-----10h12-----10---|
A----------------|----------------------------------------------------|
E----------------|----------------------------------------------------|
Main riff:
Em /
G /
A /
C /
E-------|-------|-------|-------|
B-------|-------|-------|-------|
G-------|-------|-------|-------|
D-------|-------|-------|-------|
A-------|-------|-------|--3-3--|
E--0-0--|--3-3--|--0-0--|-------|
Monkees, 1966, (Neil Diamond) Orig chords ˜,
Potdevin - Cool Riffs and Hot Lead Guitar Licks - www.lepotdevin.com
Monkees, 1966, (Boyce, Hart) Orig chords ˜,
49
Yeh Yeh
Oh, Pretty Woman
Roy Orbison, 1964,
Georgie Fame & The Blue Flames, 1966, (--) Orig chords ˜,
(Roy Orbison, William Dees) Orig chords ˜,
Intro:
D# Cm
D# Cm
E--3---3--|--3--3--|
B--4---4--|--4--4--|
G--3---5--|--3--5--|
D------5--|-----5--|
A------3--|-----3--|
E------3--|-----3--|
Intro:
*
(x2)
*
E
E7
E-----------|
B-----------|
G-----------|
D---------0-|
A-2-2---2---|
*
( x 4 )
*
E
E7
|-----------|------|
|-----------|------|
|-----------|------|
|---------0-|4-2-0-|
|-2-2---2---|------|
A
Verse:
2 x
*
D#
Cm
E-----------|---------------|-----------|---------------|
B-------1---|-------1-------|-----------|---------------|
G---0-3---3-|---0-3---3-0-3-|-----------|---------------|
D-1---------|-1-------------|-----1-3-1-|-----1-3-1---1-|
A-----------|---------------|-1-3-------|-1-3-------3---|
E-----------|---------------|-----------|---------------|
D#
Cm
E-----------|---------------|-----------|---------------|
B-------1---|-------1-------|-----------|---------------|
G---0-3---3-|---0-3---3-0-3-|-----------|---------------|
D-1---------|-1-------------|-----1-4-3-|-----1-4-3-1-3-|
A-----------|---------------|-1-3-------|-1-3-----------|
E-----------|---------------|-----------|---------------|
Cm
E---------|---------|---------|
B---------|---------|---------|
G---------|---------|---------|
D-----1-1-|-4-3-1-3-|-----1-1-|
A-1-3-----|---------|-1-3-----|
E---------|---------|---------|
Chorus
G#
E-----------------------------------|
B---------------------0-0-2-0-2-3-4-|
G---------0-0-1-1-3-3---------------|
D-1-1-3-3---------------------------|
A-----------------------------------|
E-----------------------------------|
D#
E-----------|-----------|
B---4---2-4-|---4---2-4-|
G-3---3-----|-3---3-----|
D-----------|-----------|
A-----------|-----------|
E-----------|-----------|
G#
E---------------------------------|
B---------------------0-0-2-2-4-6-|
G---------0-0-1-1-3-3-------------|
D-1-1-3-3-------------------------|
A---------------------------------|
E---------------------------------|
*
E-----------|-----------|
B-6-6-6-6-6-|-----------|
G-----------|-3-3-3-3-3-|
D-----------|-----------|
A-----------|-----------|
E-----------|-----------|
Black Is Black
Bravos, 1966, (Wadey, Hayes,Granger) Orig chords ˜,
Intro:
E
E---|-------------------------------|
B---|-------------------------------|
G---|-------------------------------|
D-2-|---0-2-----0-2-----0-2-----0-2-|
A---|-2-------2-------2-------2-----|
E---|-------------------------------|
D
E---|-------------------------------|
B---|-------------------------------|
G---|-------------------------------|
D-0-|-----0-------0-------0-------0-|
A---|-0-2-----0-2-----0-2-----0-2---|
E---|-------------------------------|
First Verse
A
E-------|--------------|-------|------------------|
B-----8-|--------7-----|-----8-|------------------|
G---9---|---7-9----7---|---9---|-6-6-7-9-6--------|
D-9-----|-7----------7-|-9-----|-----------7------|
A-------|--------------|-------|-------------10-9-|
E-------|--------------|-------|------------------|
A
E---------|-------------|-----------|
B-------7-|-7-8-7-------|-----------|
G-7-7-9---|-------9-7-6-|-9-9-9-9-7-|
D---------|-------------|-----------|
A---------|-------------|-----------|
E---------|-------------|-----------|
Second Verse
E-------|---------|-----------|------|
B-------|---7-7-7-|---7-8-8-8-|-8-7--|
G-9-9-9-|-9-------|-9---------|----9-|
D-------|---------|-----------|------|
A-------|---------|-----------|------|
E-------|---------|-----------|------|
A
E-------|---------|------------|---7-|
B-9-9-9-|---9-9-9-|---10-10-10-|-----|
G-------|-9-------|-9----------|-9---|
D-------|---------|------------|-----|
A-------|---------|------------|-----|
E-------|---------|------------|-----|
50
Potdevin - Cool Riffs and Hot Lead Guitar Licks - www.lepotdevin.com
Chiken Pickin´ Style Intro
Suspicious Minds
Intro:
G
E------------------------------|
B------------------------------|
G-----0------0------0------0---|
D---0------0------0------0-----|
A------------------------------|
E-3------3------3------3-----3-|
Arpeggio
Elvis Presley, 1969, (Mark James) Orig chords ˜,
---, ----, (---) Orig chords ˜,
C
Em
Dm
G
E-----------------------|
B-----------------------|
G---------0------0------|
D-------2------2------0-|
A-0-2-3------2------0---|
E-----------------------|
| G
(x4)| C
(x2)|
E---------|--------------|---------|--------------|
B---------|--------------|---------|--------------|
G-----0---|------5-4-5-4-|------5--|------5---5---|
D---0---0-|-0-h5---------|-5-h7--5-|-5-h7---7---7-|
A---------|--------------|---------|--------------|
E-3-------|--------------|---------|--------------|
James Burton
D
(x1)
C
(x1)
E---------|--------------|---------|--------------|
B---------|--------------|---------|--------------|
G------7--|------7---7---|------5--|------5---5---|
D-7-h9--7-|-7-h9---9---9-|-5-h7--5-|-5-h7---7---7-|
A---------|--------------|---------|--------------|
E---------|--------------|---------|--------------|
C
E------------------------|
B------------------------|
G------------------------|
D------------------------|
A-5--5-5-3--3-3-2--2-2-5-|
E------------------------|
There´s A Kind Of Hush - lead solo
Herman´s Hermitts / Carpenters, 1964, (---) Orig chords ˜,
Intro: (Carpenters)
A
E-------------|-------------|----------------------|
B-------10-10-|-11----11-12-|-------12-15-12-10----|
G-11/12-------|----11-------|-11/12-------------12-|
D-------------|-------------|----------------------|
A-------------|-------------|----------------------|
E-------------|-------------|----------------------|
Elvis Presley
James Burton - lead guitar
A
E-15-15-15p-|-10-10-10p-|-----------|----------|
B-----------|-----------|-12-12-12b-|-------10-|
G-----------|-----------|-----------|-11/12----|
D-----------|-----------|-----------|----------|
A-----------|-----------|-----------|----------|
E-----------|-----------|-----------|----------|
Outro:
A
E--------------|-------|----------------------|
B--------------|-------|-10-10-10----10-11----|
G-------9-12-9-|-11/12-|----------11-------11-|
D-11/12--------|-------|----------------------|
A--------------|-------|----------------------|
E--------------|-------|----------------------|
A
E------|-------------------|-12-10-------|
B-9-11-|-12-12-12----12-13-|-------13-12-|
G------|----------12-------|-------------|
D------|-------------------|-------------|
A------|-------------------|-------------|
E------|-------------------|-------------|
Carpenters
Tony Peluso - lead guitar
A
E----10----------|------------------|-------|-----------|
B-------14-12-10-|-12-10---------10-|-------|-----------|
G----------------|-------12-9-11----|----11-|-11-9------|
D-12-------------|------------------|-12----|------12-9-|
A----------------|------------------|-------|-----------|
E----------------|------------------|-------|-----------|
Potdevin - Cool Riffs and Hot Lead Guitar Licks - www.lepotdevin.com
51
Blue Moon
In My Room
---, 1958, (---) Orig chords ˜,
Beach Boys, 1963, (Brian Wilson, Usher) Orig chords ˜,
Arpeggio
C
Am
Dm
G7
E-------0-|-------0-|-------1-|-------1-|
B-----1---|-----1---|-----3---|-----0---|
G---2-----|---2-----|---2-----|---0-----|
D---------|---------|-0-------|---------|
A-3-------|-0-------|---------|---------|
E---------|---------|---------|-3-------|
Arpeggio
* A
(x4) * G
A
E-------------|-------------|-------------|
B-------2-----|-------0-----|-------2-----|
G-----2---2---|-----0---0---|-----2---2---|
D---2-------2-|---0-------0-|---2-------2-|
A-0-----------|-2-----------|-0-----------|
Beach Boys - Carl Wilson (lead) E-------------|-------------|-------------|
& Alan Jardine (rythm)
C Am Dm G7
C Am Dm G7
C Am Dm G7
F#
Bm
G
E-------|-----------------|----------------|-------------------|
E-------------|-------------|-------------|
B-8---8-|---8-10-8-8----8-|----------------|-------------------|
B-------1-----|-------3-----|-------0-----|
G---9---|-10---------10---|-7-9-10-9-9-7-9-|----7-9------------|
G-----3---3---|-----4---4---|-----0---0---|
D-------|-----------------|----------------|-10-----10-10-7-10-|
D---4-------4-|---4-------4-|---0-------0-|
A-------|-----------------|----------------|-------------------|
A-4-----------|-2-----------|-2-----------|
E-------|-----------------|----------------|-------------------|
E-------------|-------------|-------------|
Fm
G7
C
Am
Fm
G7
C Am
E--------------|-------|-----------|--------------|-------|-------|
B--------------|-------|-----------|--------------|-------|-----8-|
G----------7-7-|-7-7-9-|-9-9-------|----------7-7-|-7-7-9-|-9-9---|
D-10-10-10-----|-------|-----10-10-|-10-10-10-----|-------|-------|
A--------------|-------|-----------|--------------|-------|-------|
E--------------|-------|-----------|--------------|-------|-------|
* E
(x2) * A
G
(x4) *
E-------------|-------------|-------------|
B-------0-----|-------2-----|-------0-----|
G-----1---1---|-----2---2---|-----0---0---|
D---2-------2-|---2-------2-|---0-------0-|
A-2-----------|-0-----------|-2-----------|
E-------------|-------------|-------------|
Ab
C
Am
D7
G G7
E----------------|------------------|-----------|-----------|
B----------------|------------------|-----------|---------8-|
G----------------|------------------|-9-9-9-7-7-|-7-9-7-9---|
D-10-10-10-10-10-|-10-10-8----10-10-|-----------|-----------|
A----------------|---------11-------|-----------|-----------|
E----------------|------------------|-----------|-----------|
Shondells - Tommy James
Crimson and Clover
Shondells, 1968, (Tommy James, Lucia) Orig chords ˜,
The House Of The Rising Sun
Chords:
B F# E
Animals, 1964, (Traditional, Brian Auger, Eric Burdon) Orig chords ˜,
Arpeggio:
Am
C
D
F
E---------0-----|---------0-----|---------2-----|---------1-----|
B-------1---1---|-------1---1---|-------3---3---|-------1---1---|
G-----2-------2-|-----0-------0-|-----2-------2-|-----2-------2-|
D---2-----------|---2-----------|---0-----------|---3-----------|
A-0-------------|-3-------------|-0-------------|-3-------------|
E---------------|---------------|---------------|---------------|
Am
C
E
E
E---------0-----|---------0-----|---------0-----|---------0-----|
B-------1---1---|-------1---1---|-------0---0---|-------0---0---|
G-----2-------2-|-----0-------0-|-----1-------1-|-----1-------1-|
D---2-----------|---2-----------|---2-----------|---2-----------|
A-0-------------|-3-------------|-2-------------|-2-------------|
E---------------|---------------|---------------|---------------|
B
A
F#
E
B
-
B
B
A
F#
E
E
-
F#
B
F#
Outro arpeggio:
C
G
F
G
E---------|---------|---------|---------|
B-----1---|-----0---|-----1---|-----0---|
G---0---0-|---0---0-|---2---2-|---0---0-|
D-2-------|-0-------|-3-------|-0-------|
A---------|---------|---------|---------|
E---------|---------|---------|---------|
Green Tambourine
Lemmon Pipers, 1967, (Pinz, Leka) Orig chords ˜,
Am
C
D
F
E---------0-----|---------0-----|---------2-----|---------1-----|
B-------1---1---|-------1---1---|-------3---3---|-------1---1---|
G-----2-------2-|-----0-------0-|-----2-------2-|-----2-------2-|
D---2-----------|---2-----------|---0-----------|---3-----------|
A-0-------------|-3-------------|-0-------------|-3-------------|
E---------------|---------------|---------------|---------------|
Intro:
G
D
D C G
C Em A G
G
E-----------|--------|----------|----------|
B-----------|--------|----------|----------|
G---------7-|-7------|----------|----------|
D-9--9-10---|---10-9-|-9-8-7----|----9-8-7-|
A-----------|--------|-------10-|-10-------|
E-----------|--------|----------|----------|
Am
E
Am
E
E---------0-----|---------0-----|---------0-----|---------0-----|
B-------1---1---|-------0---0---|-------1---1---|-------0---0---|
G-----2-------2-|-----1-------1-|-----2-------2-|-----1-------1-|
D---2-----------|---2-----------|---2-----------|---2-----------|
A-0-------------|-2-------------|-0-------------|-2-------------|
E---------------|---------------|---------------|---------------|
D
F E D C C Em Am G G D C G
E--------|-----------|----------|----------|
B--------|-----------|----------|----------|
G------7-|-10-9-7----|----------|----------|
D-9-10---|--------10-|-9-8-7----|-----0----|
A--------|-----------|-------10-|------3---|
E--------|-----------|----------|-3-3---3--|
52
Potdevin - Cool Riffs and Hot Lead Guitar Licks - www.lepotdevin.com
Here Comes The Sun
Ramble Tamble
Intro
D
E-2---0-2---|-2-0-------0-------|-----------0---|
B---3-----3-|-----3-0-3---3-0---|-0-3-3-0-3---3-|
G-----------|-----------------2-|---------------|
D-----------|-------------------|---------------|
A-----------|-------------------|---------------|
E-----------|-------------------|---------------|
Arpeggio
Am
C
G
D
E---------0---|-------------|---------|---|
B-------1---1-|-----------1-|-------0-|---|
G-----2-------|---------0---|-----0---|---|
D---2---------|-------2-----|---0-----|---|
A-0-----------|-0-2-3-------|-2-------|---|
E-------------|-------------|---------|---|
Beatles, 1969, (George Harrison) Orig chords ˜,
Creedence, 1970, (John C. Fogerty) Orig chords ˜,
A
E-2---0-2---|-2-0-----2-0-----|-------|
B---3-----3-|-----3-0-----3-2-|-2-3-3-|
G-----------|-----------------|-------|
D-----------|-----------------|-------|
A-----------|-----------------|-------|
E-----------|-----------------|-------|
Arpeggio:
C
G
D
A
E
E-------|-------|-------|-------|-------|---|
B-------|-------|-------|-------|-------|---|
G-------|-----0-|-----0-|-----2-|-----2-|---|
D-------|---2---|---0---|---0---|---0---|---|
A-----0-|-3-----|-2-----|-0-----|-0-----|---|
E-0-3---|-------|-------|-------|-------|---|
Creedence CWR
John Fogerty - lead & vocals
Tom Fogerty - rythm
All The Children Go To Heaven
Beatles, 1969, (Lennon, McCartney) Orig chords ˜,
Arpeggio
C
G
D
E-------|-----------|-------2-|
B-------|-------0---|-------3-|
G-----0-|-----0---0-|-----2---|
D---2---|---0-------|---0-----|
A-3-----|-2---------|-0-------|
E-------|-----------|---------|
Bb add 9
It Don´t Come Easy
Ringo Starr, 1981, (George Harrison) Orig chords ˜,
Intro:
D
Am
C
G
E---2---0---|-0-------|-------|---------|
B-----3---3-|---3-1---|-------|-1---0---|
G-----------|-------2-|-------|---2---0-|
D-0---------|---------|-2-0---|---------|
A-----------|---------|-----3-|---------|
E-----------|---------|-------|---------|
D
E-------2h3r2-|---------|
B-----3-------|-3-1-----|
G---2---------|-----2---|
D-0-----------|-------0-|
A-------------|---------|
E-------------|---------|
Dm
C
Bette Davies Eyes
Kim Carnes, 1981, (Donna Weiss, Jackie DeShannon) Orig chords ˜,
Arpeggio
Bbadd9 Dm
C
Bbadd9 C Dm Bbadd9 Dm
C
E-1-------------|-1-------------|-1-------------|
B---1-------3-1-|---1-------1-3-|---1-------3-1-|
G-----3---2-----|-----3---0-----|-----3---2-----|
D-------0-------|-------2-------|-------0-------|
A---------------|---------------|---------------|
E---------------|---------------|---------------|
Bbadd9 Dm
C
Bbadd9 C F
Bbadd9 Dm
C
E-1-------------|-1-----------1-|-1-------------|
B---1-------3-1-|---1-------1---|---1-------3-1-|
G-----3---2-----|-----3---0-----|-----3---2-----|
D-------0-------|-------2-------|-------0-------|
A---------------|---------------|---------------|
E---------------|---------------|---------------|
Mr. Tambourine Man
Byrds, 1965, (Bob Dylan) Orig chords ˜,
Intro:
D
A
D
E---|-5---7-5-|---------|-----|-------|
B---|---7-----|-8-7-5---|-5-5-|---5---|
G-7-|---------|-------7-|-----|-7---7-|
D---|---------|---------|-----|-------|
A---|---------|---------|-----|-------|
E---|---------|---------|-----|-------|
Bass
D
A
D
E---|----------|-----|
B---|----------|-----|
G---|----------|-----|
D---|----------|-----|
A-5-|-5/12--12-|-0-5-|
E---|----------|-----|
The Byrds Roger McGuinn
- lead guitar
Potdevin - Cool Riffs and Hot Lead Guitar Licks - www.lepotdevin.com
53
Born On The Bayou
Creedence, 1969, (John C. Fogerty) Orig chords ˜,
E7
D A E
D A E
D A E
Joe South, 1968, (Joe South) Orig chords ˜,
Main riff:
A
E
E------------------|---------------------|
B------------------|---------------------|
G-6-6-4------------|-6-6-4----4--4-4-4-4-|
D-------7--7-7-7-7-|-------7-------------|
A------------------|---------------------|
E------------------|---------------------|
Intro:
7
E7
E----------|-------|-------|
B-------5--|---5---|---5---|
G-----7--7-|-----7-|-----7-|
D---6------|-6-----|-6-----|
A-7--------|-------|-------|
E----------|-------|-------|
E7
Games People Play
E7
Proud Mary
D
A
E----------------|------------------|
B-----5-7--7-7-7-|------------------|
G-4-6------------|-6-6-4------------|
D----------------|-------7--7-7-7-7-|
A----------------|------------------|
E----------------|------------------|
Creedence, 1969, (John C. Fogerty) Orig chords ˜,
Intro:
C
A
C
A C
A G F
() F D
E---------|---------|-----------------------|
B-1-1-1---|-1-1-1---|-1-1-1-----------------|
G-------2-|-------2-|-------2-0-------------|
D---------|---------|-----------3-3-3-0-3-0-|
A---------|---------|-----------------------|
E---------|---------|-----------------------|
Down On The Corner
Creedence, 1970, (John C. Fogerty) Orig chords ˜,
Intro:
C
G
(x2)
E-----------|-------------|
B-----------|-------------|
G-----------|-------------|
D-----------|-------------|
A-3-0---3-3-|-0-----2-3-3-|
E-----3-----|---3-3-------|
F
G
C
E-------------|---------------|-----------|
B-------------|---------------|-----------|
G-------------|---------0-0-0-|-----------|
D-3-0---3-3-3-|-0-----2-------|-----------|
A-----3-------|---3-3---------|-3-0---3-3-|
E-------------|---------------|-----3-----|
Creedence CWR
John Fogerty - lead guitar
If you can`t sing, whistle!
54
Potdevin - Cool Riffs and Hot Lead Guitar Licks - www.lepotdevin.com
Heart Of Gold
Neil Young, 1972, (Young) Orig chords ˜,
Intro:
Em D Em
Em D Em
E---------|---------------|------------|
B---------|---------------|------------|
G---------|---------------|------------|
D---------|-----0h2-------|------------|
A---------|-0h2-----0h2---|------------|
E---------|-------------0-|------------|
1st stanza
Em
C D
G Em
E-----------------------------|
B-----5-----------------------|
G----------7-7-7--4-----------|
D-----------------------------|
A-7-7-------------------7-7-7-|
E-----------------------------|
Chorus 1:
Em G C - C Em Am G
Chorus 2:
Em D Em - Em D Em -
G C
C Em Am G
Baby Blue
Bad Finger, 1972, (---) Orig chords ˜,
Badfinger Pete Ham lead guitar
Intro: capo4
G
D
E-3-------------|-----------------2-|
B-3-------------|-----------------3-|
G-4--4--5--4--5-|-----------------2-|
D-5--3--3--3--3-|-------0---------0-|
A-5--5--5--5--5-|---0-2---3-2-0-----|
E-3--3--3--3--3-|-3-------------3---|
C
G
F
C G D C F C G D
E--------------------1-|-----------------------|
B--------------------1-|-----------------------|
G-----0----------0---2-|-----------------------|
D---2----------0-----3-|-----------------------|
A-3-------3--2-----2-3-|-----------------------|
E--------------------1-|-----------------------|
D
Am Am7
C
G
E-----------------|------|-------------0-------3-----|
B-----------------|------|-------1-------1-------1---|
G-------2-0-------|------|-----0---0-------0-------0-|
D-0-2-4-----4-2-0-|------|---2-------2---------------|
A-----------------|------|-3-------------------------|
E-----------------|------|---------------------------|
Potdevin - Cool Riffs and Hot Lead Guitar Licks - www.lepotdevin.com
55
Purple Haze
Jimi Hendrix, 1967, (Jimi Henrdrix) Orig chords ˜,
( x4 )
E
G A
E (x2)
G
A
E
G
A
E
E----|--------------|------------|--------|------------|--------------|
B----|---8----------|------------|--------|------------|--------------|
G----|--7-----------|------------|--------|------------|-------7/9--9-|
D--8-|-9---7-5------|----5-7-9-5-|-5------|----5-7-9-5-|-5---5--------|
A-6--|--------5-5/7-|-5/7--------|--5-5/7-|-5/7--------|--5-7---------|
E----|---------0----|------------|---0----|------------|--------------|
Fire
Jimi Hendrix, 1967, (Jimi Henrdrix) Orig chords ˜,
*
G#
(x2) D#
* D#
C#
E--------------------|-------------|
B--------------------|-------------|
G-13-12--10/12-------|-------------|
D--------------------|----11-13-13-|
A-11-10---8/10-12-12-|-13----------|
E--------------10-10-|-------------|
Tales Of Brave Ulyses
Sunshine of Your Love
Intro:
D
E--------------------------|
B--------------------------|
G-11-----------------------|
D-12-----------------------|
A-12---5--5-3--3-2--2-1--1-|
E-10-----------------------|
Intro: ( 2x )
D
C D
A G# G
D F D
E-------------|----------|----------|
B-------------|----------|----------|
G-------------|----------|----------|
D-12-12-10-12-|----------|----------|
A-------------|-12-11-10-|----------|
E-------------|----------|-10-13-10-|
Cream, 1967, (Eric Clapton, Martin Sharp) Orig chords ˜,
D
C
Bm
Bb
D
E--5---------------|
B--7---------------|
G--7---------------|
D--7---------------|
A--5---------------|
D
C
Bm
Cream, 1967, (Bruce, Brown, Clapton) Orig chords ˜,
Bb
|-----------------|
|-8---6----5---4--|
|-7---5----4---3--|
|-0---0----0---0--|
|-----------------|
A
Main riff:
D
C D
A G# G
D F D
E-------------|----------|----------|
B-------------|----------|----------|
G-------------|----------|----10----|
D-12-12-10-12-|----------|-12----12-|
A-------------|-12-11-10-|----------|
E-------------|----------|----------|
|---|
|---|
|---|
|---|
|---|
G
F G
D C# C
D
G F
E-------------|----------|----------|
B-------------|----------|----11----|
G-12-12-10-12-|----------|-12----12-|
D-------------|-12-11-10-|----------|
A-------------|----------|----------|
E-------------|----------|----------|
D
C D
A G# G
D F D
E-------------|----------|----------|
B-------------|----------|----------|
G-------------|----------|----10----|
D-12-12-10-12-|----------|-12----12-|
A-------------|-12-11-10-|----------|
E-------------|----------|----------|
Chorus:
A
C G
A
E----------|------|----------|
B----------|------|----------|
G----------|-5----|----------|
D--7--7--7-|-5--5-|--7--7--7-|
A--7--7--7-|----5-|--7--7--7-|
E----------|------|----------|
Cream Jack Bruce (bass & vocals) , Ginger Baker (drums), Eric Clapton (guitar)
Main riff variation:
D
C D
A G# G
A D C
E-------------|---------|---------|
B-------------|---------|----6----|
G-7--7--5--7--|---------|-7--5--7-|
D-7--7--5--7--|-7--6--5-|-7-----7-|
A-------------|-7--6--5-|---------|
E-------------|---------|---------|
Mi Parque
Flippers, 1969, (Arturo Astudillo-) Orig chords ˜,
Intro
*
repeat
*
E-------------------|-----|------------|
B-------------------|-----|------------|
G-------------------|-----|------------|
D-------------------|-----|------------|
A-------------------|-----|------------|
E-12-11-12-11-12-11-|-9-9-|-3-3-3/-5-5-|
Chords:
56
A A
( )G
( )G
( )G
Humming and
concentrating
A A
Potdevin - Cool Riffs and Hot Lead Guitar Licks - www.lepotdevin.com
Feel So Bad
Cactus, 1971, (Willis) Orig chords ˜,
Intro
Em
E-----------------|
B-----------------|
G-5-6-------------|
D-----6-7---------|
A---------7-------|
E-----------7---0-|
Em
(repeat)
E-------------|----------|-------------|
B-------------|----------|-------------|
G-------------|----------|-------------|
D---2---0-2---|--2---0-2-|---2---0-2---|
A-----2-------|----2-----|-----2-------|
E-0---------0-|-0--------|-0---------0-|
Cactus Rusty day - vocals
Jim McCarty - lead
Tim Boggert - bass
Carmine Appice - drums
Am
E-------------|----------|-------------|
B-------------|----------|-------------|
G---2---0-2---|--2---0-2-|---2---0-2---|
D-----2-------|----2-----|-----2-------|
A-0---------0-|-0--------|-0---------0-|
E-------------|----------|------------Am
E
B7 A7
E-----------------|-------------|
B-----------------|-------------|
G---2---0---------|-------------|
D-----2---2-0-----|---2---0-2---|
A-0-----------2---|-----2-------|
E---------------0-|-0---------0-|
Cactus - Tim Boggert & Jeff Beck
Bridges
E---------------|
B-1-2-----------|
G-----1-2-------|
D---------2-----|
A-----------2---|
E-------------0-|
|---------------|
|---------------|
|---------------|
|-------0-------|
|-0-1-2---2-----|
|-----------2-0-|
Hometown Bust
Derek & The Dominoes
Eric Clapton - lead guitar
Layla
Derek & Dominoes, Eric Clapton 1969,
(Eric Clapton, Gordon) Orig chords ˜,
Intro:
A
E---------------|-------|-------|-------|
B-------6-------|-------|-------|-------|
G---5h7---7-5-7-|-7-5---|-----5-|-----7-|
D-7-------------|-----8-|-7-5---|-7-5---|
A---------------|-------|-------|-------|
E---------------|-------|-------|-------|
Main riff:
A
E---------------|-15-------------|
B-------6-------|----18-17----15-|
G---5h7---7-5-7-|----------17----|
D-7-------------|----------------|
A---------------|----------------|
E---------------|----------------|
Cactus, 1971, (Appice, Bogert, Day, McCarty) Orig chords ˜,
In
D C
D
G
F
D
G F
E------|----------|-------------|----------|-------------|
B------|----------|-------------|----------|-------------|
G------|----------|----10h12-10-|----------|----10h12-10-|
D------|-12-12-12-|-12----------|-12-12-12-|-12----------|
A------|----------|-------------|----------|-------------|
E-10-8-|----------|-------------|----------|-------------|
A
D C
A
D C
E----------|-------------|----------|-------------|
B----------|-------------|----------|-------------|
G----------|-------------|----------|-------------|
D----------|----10h12-10-|----------|----10h12-10-|
A-12-12-12-|-12----------|-12-12-12-|-12----------|
E----------|-------------|----------|-------------|
G
F D
E----------|----------|----------|-------|----------------------|
B----------|----------|----------|-------|----------------------|
G----------|----------|----------|-------|-10-11-12-14-10-------|
D----------|----------|----------|----12-|----------------12-12-|
A-10-10-10-|-10-------|----------|-------|----------------------|
E----------|----13-10-|-10-10-10-|-10----|----------------------|
A
E---------------|-17-15----------|
B-------6-------|-------17----15-|
G---5h7---7-5-7-|----------17----|
D-7-------------|----------------|
A---------------|----------------|
E---------------|----------------|
Potdevin - Cool Riffs and Hot Lead Guitar Licks - www.lepotdevin.com
D
E----------------|
B----------------|
G----------------|
D-12-10----------|
A-------12-10----|
E-------------10-||
57
In A Gadda Da Vida
Iron Butterfly, 1968, (Inge) Orig chords ˜,
Intro
A
E-------------------5-|-----5-----5-10-|
B-----5-----5-----6---|---6-----6------|
G-6-7---6-7---6-7-----|-7-----7--------|
D---------------------|----------------|
A---------------------|----------------|
E---------------------|----------------|
Iron Butterfly Eric Brann
A
E-----5-13-----5--15-----5-17-|-15-17-13-|-15-12-|-12-10-8-|
B---6--------6---------6------|----------|-------|---------|
G-7--------7---------7--------|----------|-------|---------|
D-----------------------------|----------|-------|---------|
A-----------------------------|----------|-------|---------|
E-----------------------------|----------|-------|---------|
Riff:
D
E-------------------||---------------|--------|------------------|
B-------------------||---------------|-10-9-8-|------------------|
G-------------2-1-0-||-7-7-10-9----7-|--------|-10-7-7-10-9----7-|
D-0-0-3-2---0-------||----------10---|--------|-------------10---|
A---------3---------||---------------|--------|------------------|
E-------------------||---------------|--------|------------------|
*
E----------|-----------|------------|-------------|
B----------|----9-10-9-|-10-11-10-9-|-10-9------8-|
G-7-9-10-9-|-10--------|------------|------10-9---|
D----------|-----------|------------|-------------|
A----------|-----------|------------|-------------|
E----------|-----------|------------|-------------|
Heart Breaker
Led Zeppelin, 1969, (Page, Plant Jones, Bonham) Orig chords ˜,
In
A
E-----------|-------|-------------|-------|
B-----------|-------|-------------|-------|
G-----------|-------|-------------|-------|
D-----------|---2---|-------------|---2---|
A-------3-5-|-5-----|---------3-5-|-5-----|
E-3---5-----|-----3-|-5-5-5-5-----|-----3-|
B
E-------|-------|-------------|-------|
B-------|-------|-------------|-------|
G-------|-------|-------------|-------|
D-------|---4---|-------------|---4-- |
A---5-7-|-7-----|---------5-7-|-7-----|
E-7-----|-----5-|-7-7-7-7-----|-----5-|
A D A D A D A D
Living Loving Maid
Led Zeppelin, 1969, (Jimmy Page, Robert Plant) Orig chords ˜,
Intro:
A
G
G A
G A
C G
E---------------|-----------|-----|-----|-----------|
B---------------|-----------|-----|-----|-----------|
G---------------|-----------|-----|-----|-----------|
D---------------|-----------|-----|-----|-----------|
A---3---3-4-5---|-------3---|-----|-----|-------3---|
E-5---5-------3-|-3-4-5---5-|-3-5-|-3-5-|-3-4-5---5-|
58
Whistle while you work.
Potdevin - Cool Riffs and Hot Lead Guitar Licks - www.lepotdevin.com
Smoke On The Water
Maybe I´m A Leo
Intro:
G Bb C
G Bb C# C
G Bb C Bb G
E----------|------------|---------------|
B----------|------------|---------------|
G-----3--5-|----3--6--5-|----3--5--3----|
D--5--3--5-|-5--3--6--5-|-5--3--5--3--5-|
A--5-------|-5----------|-5-----------5-|
E----------|------------|---------------|
Intro
F
G#
E-----------------|-------------------|
B-----------------|-------------------|
G-------------1---|---------------3-1-|
D-3-3-1---1-3---3-|-3-3-1---1-3-------|
A-------3---------|-------3-----------|
E-----------------|-------------------|
Deep Purple, 1972, (Deep Purple) Orig chords ˜,
Deep Purple, 1971, (Deep Purple) Orig chords ˜,
Deep Purple Ritchie Blackmore lead guitar
C
D# E
E-----------------|---------------|
B-----------------|---------------|
G-----------------|---------------|
D-------------1---|-----------1-2-|
A-3-3-1---1-3---3-|-3-3-1---------|
E-------3---------|-------3-------|
F
G#
E-----------------|-------------------|
B-----------------|-------------------|
G-------------1---|---------------3-1-|
D-3-3-1---1-3---3-|-3-3-1---1-3-------|
A-------3---------|-------3-----------|
E-----------------|-------------------|
C
D# Bb C...
E-----------------|-----------------|
B-----------------|-----------------|
G-----------------|-----------------|
D-------------1---|---------1-------|
A-3-3-1---1-3---3-|-3-3-1-------1-3-|
E-------3---------|-------3---------|
..C
F...C
E------------------|---------------|
B------------------|---------------|
G-0----------------|-0-------------|
D---3-1---1-3------|---3-1---1-----|
A-------3------1-3-|-------3---1-3-|
E------------------|---------------|
C
G
F
D#
D
C
variation
F
C
E-----------------|-----------------|
B-----------------|-----------------|
G-----------------|-----------------|
D-3-3-1---1-3-----|-3-3-1---1-------|
A-------3-----1-3-|-------3-----1-3-|
E-----------------|-----------------|
Babba O´Riley
We´ re Not Gonna Take It
The Who, 1971, (--) Orig chords ˜,
The Who, 1969, (Pete Townshend) Orig chords ˜,
Intro:
A B C Outro:
E B A
A
-
B
E B A
E
-
-
A
B
C
-
G D B7
E B A
The Who Pete Townshend
- guitar
Potdevin - Cool Riffs and Hot Lead Guitar Licks - www.lepotdevin.com
Intro:
*
E--------------13-13--------------|
B--------13-13-------13-13--------|
G--11-11-------------------11-11--|
D---------------------------------|
A---------------------------------|
E---------------------------------|
F
C
Bb
E---8-----8-----6---|
B---10----8-----6---|
G---10----9-----7---|
D---10----10----8---|
A---8-----10----8---|
E---8-----8-----6---|
59
Workin on the Road
Get Ready
Orig chords ˜,
Main riff:
D D C D C
C D D C G F
E-----------|-------------|
B-----------|-------------|
G-----------|-------------|
D-----------|---------5-3-|
A-5-5-3-5-3-|-3-5-5-3-----|
E-----------|-------------|
Ten Years After, 1971, (Alvin Lee)
Rare Earth, 1968, (---) Orig chords ˜,
Intro:
D
E---------------------------|
B---------------------------|
G---------------------------|
D-0--0-0-0--0-0-0--0-0-0--0-|
A---------------------------|
E---------------------------|
C
A
C D
E----------------------------|
B----------------------------|
G--------------------------0-|
D-3--3-3-3--3-3-3--0-0-0-3---|
A----------------------------|
E----------------------------|
Chorus
*
E-----------|-------|-------|
B-----------|-------|-------|
G-----------|-------|---2---|
D-----3-5-3-|---3-5-|-5---5-|
A-3-5-------|-5-----|-------|
E-----------|-------|-------|
Alvin Lee
D
C
E---------------|---------|
B---------------|---------|
G---------------|---------|
D--0-0-0--0-0-0-|-------3-|
A---------------|-0-0-3---|
E---------------|---------|
Cold Turkey
John Lennon, 1969, (John Lennon) Orig chords ˜,
Intro:
A
E---------------|-------------|
B---------------|-9\-7\-5\-4\-|
G-5h7-9-7-5---5-|-9\-7\-5\-4\-|
D-----------7---|-------------|
A---------------|-------------|
E---------------|-------------|
D
E-----------------|---------|
B-----------------|---------|
G-----------------|---------|
D-0--0-0-0--0-0-0-|-------0-|
A-----------------|-0-0h3---|
E-----------------|---------|
Blind Eye
F
G
D
has got me
A
On the run
f1
5
7
x x x
f3
Tales
Uriah Heep, 1971, (---) Orig chords ˜,
G
|---------------|
|-7h9-9-7-5---5-|
|-7h9-9-7-5---5-|
|-----------7---|
|---------------|
|---------------|
Chorus:
C
Cold turkey
Intro:
Am
Main riff
Uriah Heep, 1972, (---) Orig chords ˜,
Am
Solo:
Am
G
F
G
E-----------|--------------|----------|----------|
B-----------|--------------|----------|-12-10----|
G--------12-|-11-9-11------|------12--|-------11-|
D-9h10-9----|---------12-9-|-9h10-----|----------|
A-----------|--------------|----------|----------|
E-----------|--------------|----------|----------||
Intro:
Am Em
G
Am
Am
G
F
Em
Am
F
F
Em
Em
G
Am
G
Am
Am
G
F
G
Am G
E-----------|--------------|-----------|-----------------|
B-----------|--------------|-----------|-----------------|
G--------12-|-11-9-11------|-----------|-11-12-9---------|
D-9h10-9----|---------12-9-|-10-9h10-9-|---------12-10-9-|
A-----------|--------------|-----------|-----------------|
E-----------|--------------|-----------|-----------------|
F
G
Am
E-----------|---------------|
B-----------|---------------|
G-----------|-11-12-9-------|
D-10-9h10-9-|---------12-10-|
A-----------|---------------|
E-----------|---------------|
Whistling Trio
60
Potdevin - Cool Riffs and Hot Lead Guitar Licks - www.lepotdevin.com
Blues 01
Traditional, ---, (---) Orig chords ˜,
*
E
E----|--------|------|------------|
B----|--------|------|------------|
G----|--------|------|------------|
D--2-|--2--4--|-4--5-|-5--4-h5--4-|
A--0-|--0--0--|-0--0-|-0--0--0--0-|
E----|--------|------|------------|
A
E----|--------|------|------------|
B----|--------|------|------------|
G--2-|--2--4--|-4--5-|-5--4-h5--4-|
D--0-|--0--0--|-0--0-|-0--0--0--0-|
A----|--------|------|------------|
E----|--------|------|------------|
E
E----|--------|------|------------|
B----|--------|------|------------|
G----|--------|------|------------|
D--2-|--2--4--|-4--5-|-5--4-h5--4-|
A--0-|--0--0--|-0--0-|-0--0--0--0-|
E----|--------|------|------------|
B
E----|--------|------|------------|
B----|--------|------|------------|
G----|--------|------|------------|
D----|--------|------|------------|
A--2-|--2--4--|-4--5-|-5--4-h5--4-|
E--0-|--0--0--|-0--0-|-0--0--0--0-|
E
E----|--------|------|------------|
B----|--------|------|------------|
G----|--------|------|------------|
D--2-|--2--4--|-4--5-|-5--4-h5--4-|
A--0-|--0--0--|-0--0-|-0--0--0--0-|
E----|--------|------|------------|
Hocus Pocus
Focus, 1972, (---) Orig chords ˜,
In
A
E F D B E
E-------|-------|-----------|
B-------|-------|-----------|
G-------|-------|-----------|
D-------|-------|-----------|
A-------|-------|-7-8-5---7-|
E-5-5-5-|-5-5-5-|-------7---|
A C D
D F G
E
|-------|--------|---|
|-------|--------|---|
|-------|--------|---|
|-------|--------|---|
|-----5-|-5-8-10-|-9-|
|-5-8---|--------|---|
A
E---------------------|-------------|-12-13-15-17-|
B---------------------|-10-11-13-15-|-------------|
G-9-7-----------------|-------------|-------------|
D-----10-9-7------9-9-|-------------|-------------|
A------------10-9-----|-------------|-------------|
E---------------------|-------------|-------------|
Lay o re lay...po po
Ah, ah.....
Blues 02
Traditional, ---, (---) Orig chords ˜,
Chords:
E A G E ( x 4 )
E A G A ( x 2 )
E A G E ( x 2 )
B7
A7
Fill
E-------------|
B-------------|
G-------------|
D---0---0-----|
A-2---2---2---|
E-----------0-|
Spam
Erb Gut, 2006, (---) Orig chords ˜,
Intro
*
|---------------|---------------|---------------------|---------------------|
|-5-5-4---4-5-4-|---------------|---4-5-6-5-4---4-5---|---------------------|
|------5-4------|-2-2-1---1---2-|-5-----------5-----4-|-1-2-4-2-1-4-1-2-4---|
|---------------|-------3---3---|---------------------|-------------------3-|
|---------------|---------------|---------------------|---------------------|
|---------------|---------------|---------------------|---------------------|
Whistling trees.
Potdevin - Cool Riffs and Hot Lead Guitar Licks - www.lepotdevin.com
61
Whiter Side From Pale
Nights In White Satin
Intro:
A
E------------------------|---------------|
B---------------------10-|-12-13---------|
G-9---------------9------|-------10-9-10-|
D---12-10-9-10-12---10---|---------------|
A------------------------|---------------|
E------------------------|---------------|
1st stanza:
*
E------------|--------------|------------|-------------|
B------------|--------------|------------|-------------|
G------------|--------------|-9-7----7---|-------------|
D-9-7----7-7-|-9-9-9-7----7-|-----10---9-|-7-7-7---7---|
A-----10-----|---------10---|------------|-------10--7-|
E------------|--------------|------------|-------------|
Procol Harum, 1967, (---) Orig chords ˜,
Moody Blues, 1967, (---) Orig chords ˜,
*
E-----------10----------|-----------------------|
B----12--13-------------|--------------------10-|
G--------------12-10-12-|-10-9-10-9-------------|
D-12--------------------|-----------10-12-10----|
A-----------------------|-----------------------|
E-----------------------|-----------------------|
*
E------------|-----------------|
B------------|-----------------|
G-------9-12-|-9-10-9-10----10-|
D-10-12------|-----------12----|
A------------|-----------------|
E------------|-----------------|
Fill in:
*
E---------------------|---------------------|----------|
B---------------------|---------------------|----------|
G----9-11-12-11----11-|----9-11-12-11-------|----------|
D-12------------12----|-12------------12-10-|-10-9-----|
A---------------------|---------------------|-----12---|
E---------------------|---------------------|-------12-|
1st stanza:
*
E---------------|---------------------|
B---------------|---------------------|
G-9-7-9--7-7----|-------7-------------|
D------------10-|-10-10--10-10-7-10-7-|
A---------------|---------------------|
E---------------|---------------------|
*
E----------------|---------------|-------------|
B----------------|---------------|-------------|
G----------------|----9-7-7----9-|----7------7-|
D-9-9-9-9-7-7----|-10-------10---|-10---7-10---|
A-------------10-|---------------|-------------|
E----------------|---------------|-------------|
*
E----------------|--------------|---|-----------|
B----------------|-----8-8---10-|---|-----------|
G----------------|-7-9-----9----|-9-|----7------|
D-9-9-9-9-7-7----|--------------|---|-10---7-10-|
A-------------10-|--------------|---|-----------|
E----------------|--------------|---|-----------|
*
E--------------|--------------|-----------------|
B-----8-10-8---|--------------|-----------------|
G-9-9--------9-|-------7------|-----------------|
D--------------|-10-10---7-10-|-9-9-9-9-7-7-----|
A--------------|--------------|--------------10-|
E--------------|--------------|-----------------|
*
E------------|-------------|
B------------|-------------|
G------------|------9-7----|
D-7-10-10-10-|-7-10-----10-|
A------------|-------------|
E------------|-------------|
62
Chorus:
*
E----------|---------|----------|
B----------|---------|-8-7--7---|
G----------|-9-7-9-9-|--------9-|
D------7-7-|---------|----------|
A-7-10-----|---------|----------|
E----------|---------|----------|
Flute solo:
*
E--------------------|----------------|----------|
B---17-19-20-19-17---|-17-19-17-------|----17----|
G-16--------------19-|----------19-17-|-19----20-|
D--------------------|----------------|----------|
A--------------------|----------------|----------|
E--------------------|----------------|----------|
*
E-------------17-------|----17----------|----------|
B----17-19-20----20-19-|-20----20-19-17-|-19-20-19-|
G-16-------------------|----------------|----------|
D----------------------|----------------|----------|
A----------------------|----------------|----------|
E----------------------|----------------|----------|
*
E-19-19-17-------|----19-19-17----|----17-19-20-19-|
B----------20-17-|-20----------20-|-20-------------|
G----------------|----------------|----------------|
D----------------|----------------|----------------|
A----------------|----------------|----------------|
E----------------|----------------|----------------|
*
E-20-19-17-|-19-20-19-|
B----------|----------|
G----------|----------|
D----------|----------|
A----------|----------|
E----------|----------|
Potdevin - Cool Riffs and Hot Lead Guitar Licks - www.lepotdevin.com
Round About
Yes, 1970, (Jon Anderson, Steve Howe) Orig chords ˜,
Intro:
E
E-------12-|--------------|------12-|-------------|
B------12--|-12-10-----10-|-----12--|-12-10-------|
G-----12---|------12-11---|----12---|-------12-11-|
D----------|--------------|---------|-------------|
A----------|--------------|---------|-------------|
E-12-------|--------------|-12------|-------------|
Owner of a Broken Heart
Yes, 1982, (Trevor Rabin, Jon Anderson, Chris Squire,
Trevor Horn) Orig chords ˜,
Main riff:
A
B C D /
G /
E---------------|-------|
B---------------|-------|
G---------------|-------|
D---------------|-------|
A-0---2-3--5-5--|--3-3--|
*
E--------------------|
B--------------------|
G--------------------|
D-9h10h12------------|
A---------9h10h12----|
E-----------------8--|
Main riff:
* bass
* E F# G F#
E
E-2--2-3r2-0---|--------------------|-----------------|
B------------3-|--------------------|-----------------|
G--------------|--------------------|-----------------|
D--------------|-4--4-2-0-----------|-----------------|
A--------------|----------3-2-0-----|-----------------|
E--------------|----------------3-2-|-----------------|
Nature whistling
Potdevin - Cool Riffs and Hot Lead Guitar Licks - www.lepotdevin.com
63
Sonata # 7
Malanga, 1973, (Ch. Merchan A.Restrepo, A.Galvis) Orig chords ˜,
Intro:
( x 2 )
B
C B
E----------|---------------------|-----|
B----------|---------------------|-----|
G----------|---------------------|-----|
D----------|---------------------|---0-|
A-2--2-3-2-|----------2-1--0-----|-2---|
E----------|-0--0-0-3--------3-0-|-----|
*
1st stanza: ( x 2 )
*
( x 2 )
*
E
B
E
B
E
E-------|---------|---------|----------|---------|
B-------|---------|---------|-------12-|-12------|
G-------|---------|---------|----14----|---14----|
D-2-0---|---------|---------|-14-------|------14-|
A-----2-|-2-2-0-2-|-2-0-----|----------|---------|
E-------|---------|-----3-0-|----------|---------|
E
E--------|-----------|---------------|
B--------|-----------|---------------|
G-7-9-9b-|-7----7----|---------------|
D--------|---10---10-|-7--7----7--10-|
A--------|-----------|-------10------|
E--------|-----------|---------------|
Estoy Bareto
---, 1970, (---) Orig chords ˜,
A
E7
E-----------------|----------|-------------------------|
B-----------------|----------|----------------------15-|
G-12b--------9----|----------|-14h16b---16r14----14----|
D------10-12---12-|-10h12r10-|----------------17-------|
A-----------------|----------|-------------------------|
E-----------------|----------|-------------------------|
A
B
E--------|----------|-----|-------------------|
B--------|----------|-----|-------------------|
G--------|----------|-----|-------------------|
D--------|----------|-----|-------------------|
A-0--0-2-|-0-0--0-2-|-0-1-|-2-2-2-2-2-2-2-2-2-|
E--------|----------|-----|-------------------|
Lick
E// ** G/ * A// ** B/ *
E-------------|---------------|
B-------------|---------------|
G-------------|---------------|
D-2--------5--|-7---------9---|
A-2--------5--|-7---------9---|
E-0--------3--|-5---------7---|
F// ** G#/ * A#// ** C/ *
E-------------|---------------|
B-------------|---------------|
G-------------|---------------|
D-3--------6--|-8---------10--|
A-3--------6--|-8---------10--|
E-1--------4--|-6---------8---|
Bridge - guitar & bass
A
E-----|-------|-------|-------|-----|-----|-----|
B-----|-------|-------|-------|-----|-----|-----|
G-----|-------|-------|-----0-|---0-|---0-|---0-|
D-2-2-|-0-2-2-|-0-2-2-|-0-2---|-2---|-2---|-2---|
A-----|-------|-------|-------|-----|-----|-----|
E-----|-------|-------|-------|-----|-----|-----|
E---------|-----------|-----------|
B---------|-----------|-----------|
G-------1-|---------1-|-0---------|
D---1-0---|---1-0-0---|---3-0---0-|
A-0-------|-0---------|-------3---|
E---------|-----------|-----------|
C
B
E---------------------|-------------------|
B---------------------|-------------------|
G--------0----------0-|-------------------|
D-4-0------4-0--------|-3-0---4-3-0-----4-|
A-----2---------2-2---|-----2-------2-2---|
E---------------------|-------------------|
Outro:
B
E-------|---------|-------|
B-------|---------|-------|
G-------|---------|-------|
D-------|---------|-------|
A-2-2-2-|-----0h2-|-2-2-2-|
E-------|-0h2-----|-------|
Bb
A
E---------------------|-----------|
B---------------------|-----------|
G---------------------|-----------|
D-2-0----3-2-0------3-|-2-0-------|
A-----2--------2-2----|-----2-0-2-|
E---------------------|-----------|
D
E
B
D
E
D
E----------------|----------------|----------------|
B----------------|----------------|----------------|
G--7--7--9--9--7-|----------------|--7--7--9--9--7-|
D--7--7--9--9--7-|--9--7--9--7--9-|--7--7--9--9--7-|
A----------------|--9--7--9--7--9-|----------------|
E----------------|----------------|----------------|
Bb
A
E---------|-----------|---------|-----------|
B---------|-----------|---------|-----------|
G-------3-|---------3-|-------2-|---------2-|
D---3-0---|---3-0-0---|---2-0---|---2-0-0---|
A-0-------|-0---------|-0-------|-0---------|
E---------|-----------|---------|-----------|
B
B B C
B
E-------------|-----------------|
B-------------|-----------------|
G-------------|-----------------|
D--9----------|--9---9--10---9--|
A--9----------|--9---9--10---9--|
E--7----------|--7---7--8----7--|
G#
64
|-----------|-----------|
|-----7-----|-----------|
|-9-7---9-7-|-------7---|
|-----------|---7-9---9-|
|-----------|-9---------|
|-----------|-----------|
G
Potdevin - Cool Riffs and Hot Lead Guitar Licks - www.lepotdevin.com
More Than A Feeling
Feeling Alright
Intro and main riff:
D
C Bm
G
D
E--2----3-2-----|--0---2---1---2--|
B--3--------3---|--1---3---0---3--|
G--2--2-------2-|--0---4---0---2--|
D--0------------|--2---4---0---0--|
A---------------|--3---2---2------|
E---------------|--0---2---3------|
Riff:
repeat
E------2--|-------|-------|
B------3--|-------|-------|
G------2--|-------|-------|
D---0--0--|---0---|-------|
A---------|-----3-|---3-2-|
E-3-------|-3-----|-3-----|
Boston, 1977, (---) Orig chords ˜,
Pre-chorus fill in:
*
E--------------------|----------------|
B-12/13--12-13-12----|-12/13----------|
G-----------------14-|-------14-12-12-|
D--------------------|----------------|
A--------------------|----------------|
E--------------------|----------------|
Chorus
G
C
Em D
E--3---3---7---5--|
B--3---5---8---7--|
G--4---5---9---7--|
D--5---5---9---7--|
A--5---3---7---5--|
E--3---3---7---5--|
Grand Funk, 1970, (Dave Mason) Orig chords ˜,
Chorus
D
G
D G
D
G....D G
D
E--2---1----|--5---3----------2---|
B--3---0----|--7---3----------3---|
G--2---0----|--7---4----------2---|
D--0---0----|--7---5----------0---|
A------2----|--5---5--------------|
E------3----|--5---3--------------|
Chorus ending
G
C
D# Em D
|--3---3---6---7---5--|
|--3---5---4---8---7--|
|--4---5---4---9---7--|
|--5---5---4---9---7--|
|--5---3---6---7---5--|
|--3---3---6---7---5--|
Transition between chorus and main riff:
D C#m Bm A - G
C
Bm G
D
E--5---4---2---0--|--1---0---2---1---2--|
B--7---5---3---2--|--0---1---3---0---3--|
G--7---6---4---2--|--0---0---4---0---2--|
D--7---6---4---2--|--0---2---4---0---0--|
A--5---4---2---0--|--2---3---2---2------|
E--5---4---2------|--3---0---2---3------|
Verse and main riff:
D
C Bm
G
D
E--2----3-2-----|--0---2---1---2--|
B--3--------3---|--1---3---0---3--|
G--2--2-------2-|--0---4---0---2--|
D--0------------|--2---4---0---0--|
A---------------|--3---2---2------|
E---------------|--0---2---3------|
Potdevin - Cool Riffs and Hot Lead Guitar Licks - www.lepotdevin.com
65
Reelin´ In The Years
Steely Dan, 1971, (---) Orig chords ˜,
Intro:
G
A
E----------------5-|-5---6/7--5-|---5--5-5-----|------------|
B-7\6\5--5--6/7----|---7--------|-7--------7-5-|-5-7--------|
G------------------|------------|--------------|------5b----|
D------------------|------------|--------------|----------7-|
A------------------|------------|--------------|------------|
E------------------|------------|--------------|------------|
G
A
E---------|---------------------|-------------|
B---------|---------------------|-------------|
G---------|---------------------|-------------|
D-----7-9-|-9\7/9--9\7/9--9\7/9-|-------------|
A-7/9-----|---------------------|-7h9-7-5-4---|
E---------|---------------------|-----------5-|
G
E-----------|---------|---------|-------------|
B-----------|-------8-|------12-|-------15-15-|
G-----------|-----7---|---------|-------------|
D-----------|-7-9-----|-9/12----|-12/16-------|
A-----0-4/7-|---------|---------|-------------|
E-0-2-------|---------|---------|-------------|
Steely Dan Band
Steely Dan Elliott Randall 1st lead guitar
A
E-14/15-15-|-15-15\14-|-14-14\12-|-12-12-12\10-|-10-10-10\9-|-9-9-9\7-|
B----------|----------|----------|-------------|------------|---------|
G----------|----------|----------|-------------|------------|---------|
D----------|----------|----------|-------------|------------|---------|
A----------|----------|----------|-------------|------------|---------|
E----------|----------|----------|-------------|------------|---------|
G
E-7-7-7\5-|-5-5-5\3-|-3-3-3\2-|-0-3-|-------|
B---------|---------|---------|-----|-3-3-3-|
G---------|---------|---------|-----|-------|
D---------|---------|---------|-----|-------|
A---------|---------|---------|-----|-------|
E---------|---------|---------|-----|-------|
A
E----------|-----------|---------|---------|
B-----3----|-----------|---------|-------2-|
G-3/4------|-----------|-----6---|-------2-|
D--------5-|---------5-|-6/7-----|-------2-|
A----------|-2-3-4-5---|-------7-|-5-4-0-0-|
E----------|-----------|---------|---------|
D
Steely Dan Jeff «Skunk» Baxter 2nd lead guitar
Walter Skunk Baxter solo:
G
A
E-----------------|------------------------------|------------------|
B-----------------|------------------------------|------------------|
G-----0-0-----0-0-|-----0-2-4-2-0--------0-2-0---|-2-2-2---0-2--2-2-|
D-2-4-----2-4-----|-2-4-----------4-2-4--------4-|-------4----------|
A-----------------|------------------------------|------------------|
E-----------------|------------------------------|------------------|
G
E------------0-----|-------0-----|------------------|
B-----3-2-0----0---|-3-2-0---0---|------------------|
G---2------------2-|-----------2-|-0---0-0-----0-0--|
D-4----------------|-------------|---------2-4------|
A------------------|-------------|------------------|
E------------------|-------------|------------------|
66
Potdevin - Cool Riffs and Hot Lead Guitar Licks - www.lepotdevin.com
Samba Pa Ti
Santana, 1970, (Carlos Santana) Orig chords ˜,
*
1st stanza:
(x2)
*
(Am)
G
Bm
Em
Am
E---------------|-----|---------|---------|---------|
B---------4h5/8-|-----|-----6h7-|-7h8r7\5-|---------|
G---4-5-7-------|-6h7-|-4h7-----|---------|---------|
D-7-------------|-----|---------|---------|---2-----|
A---------------|-----|---------|---------|-2---2-0-|
E---------------|-----|---------|---------|---------|
Note: Sometimes,
Santana, only uses
his left hand fingers, with not right
hand picking; very
softly.
At first, only play
the notes in black
with no sliding,
hammering or pulling
effects.
2nd stanza:
Am
D
Am
D *
silence
*
E-5/7-5---|----5--7----|-5/7-5---|---5-|----------------|
B-------8-|-5--7--8----|-------8-|-5---|-5---5--h7r5----|
G---------|----7-------|---------|-----|---7---------h7-|
D---------|------------|---------|-----|----------------|
A---------|------------|---------|-----|----------------|
E---------|------------|---------|-----|----------------|
3rd stanza:
*
silence
* Am
D
Am
D
E---------------|----|-----|--------------|-5h7-5-5---------5-|
B-5-----------5-|----|-----|-4h5-h7-h5----|---------8-8-5-8---|
G---7-5\4/5h7---|----|-4-7-|-----------h7-|-------------------|
D---------------|-7--|-----|--------------|-------------------|
A---------------|-7--|-----|--------------|-------------------|
E---------------|-5--|-----|--------------|-------------------|
*
1st stanza:
(x2)
*
(Am)
G
Bm
Em
Am
E------------------|-----|------------|---------|---------|
B------------5-7/8-|-----|-----6h7-7b-|-7h8r7h5-|---------|
G---4-5-6/7--------|-6/7-|-4h7--------|---------|---------|
D-7----------------|-----|------------|---------|---2-----|
A------------------|-----|------------|---------|-2---2-0-|
E------------------|-----|------------|---------|---------|
*
Fill in 2nd time
*
|-------11b-|----------------|
|-10h12-----|-12----10-------|
|-----------|----12----h12\9-|
|-----------|----------------|
|-----------|----------------|
|-----------|----------------|
D
Organ fill in
G
E----------|-------------|----------|----------------------|
B-10/12-12-|-------------|----------|----------------------|
G----------|-14-12-14-12-|-12----12-|----------------------|
D----------|-------------|----14----|-12/14-12-12----------|
A----------|-------------|----------|-------------15-12----|
E----------|-------------|----------|-------------------15-|
Lead solo:
G
Bm
Em
Am
E-------5-7-7-|-10b/12-|--7-5-----|-----5-|-------5-7-7-|-9b--8-|--7-5-----|-----5-|
B-8-8-8-------|--------|------8-7-|-7-8---|-8-8-8-------|-------|------8-7-|-7-8---|
G-------------|--------|----------|-------|-------------|-------|----------|-------|
D-------------|--------|----------|-------|-------------|-------|----------|-------|
A-------------|--------|----------|-------|-------------|-------|----------|-------|
E-------------|--------|----------|-------|-------------|-------|----------|-------|
*
(x2)
*
G
Am G
Am
G
E-----------5h7-|-----------5--------|
B-------5-8-----|-------5-8-----5----|
G-7-7-7---------|-7-7-7-------7---h7-|
D---------------|--------------------|
A---------------|--------------------|
E---------------|--------------------|
*
(x2)
*
Fill in
G Am
E---------------------|-------------------|-------|-------------||--------------|-------------|-----|
B---15-15-15-15-15-15-|-13-12-------------|----12-|-------------||-5-5\3-1-0-1--|-3/5-3-1-0-1-|-0---|
G-7-------------------|-------14-12-11-12-|-14----|-12----------||--------------|-------------|---0-|
D---------------------|-------------------|-------|----12-14-12-||--------------|-------------|-----|
A---------------------|-------------------|-------|-------------||--------------|-------------|-----|
E---------------------|-------------------|-------|-------------||--------------|-------------|-----|
*
A
E-12-12b----|-------------------|----------------------|-----------12b-------12-12b-|-------------|
B--------15-|-15-15-15-15-15-15-|-11\12-------------12-|-15b-12-15-----12-15--------|-12-15-15-15-|
G-----------|-------------------|-------14-12----12----|----------------------------|-------------|
D-----------|-------------------|-------------14-------|----------------------------|-------------|
A-----------|-------------------|----------------------|----------------------------|-------------|
E-----------|-------------------|----------------------|----------------------------|-------------|
Potdevin - Cool Riffs and Hot Lead Guitar Licks - www.lepotdevin.com
67
Stairway to Heaven
5
Led Zeppelin, 1971, (---) Orig chords ˜,
-
-
5
5
1st part - Intro ( 2x ) and beginning stanzas:
Am
B
C
D
Fmaj7
G
Am
E-------5-|-7-----7-|-8-----8-|-2-----2-|-0-----0-|-0-----|----|-------|
B-----5---|---5-----|---5-----|---3-----|---1-----|---1---|-0--|-1--1--|
G---5-----|-----5---|-----5---|-----2---|-----2---|-----2-|-0--|-2--2--|
D-7-------|-6-----6-|-5-----5-|-4-----4-|-3-----3-|-3-----|----|-------|
A---------|---------|---------|---------|---------|-------|----|-0--0--|
E---------|---------|---------|---------|---------|-------|-3--|-------|
D
-
fill in
|----------|
|----------|
|----------|
|----------|
|-0--\8-7--|
|----------|
2nd part: ( 1x )
C
D
Fmaj7
Am
E-----|---------|-2-----2-|-0-----0-|------|
B-----|-------1-|---3-----|---1-----|-1----|
G-----|-----0---|-----2---|-----2---|----2-|
D-----|---2-----|-0-----0-|-3-----3-|------|
A-0-2-|-3-------|---------|---------|-0----|
E-----|---------|---------|---------|------|
C
G
D
|-----|---------|-3-----3-|-3p2-2--2-|
|-----|-1-----1-|---0-----|-----3--3-|
|-----|---0-----|-----0---|----------|
|-----|-----2---|---------|-0--------|
|-0-2-|-3-----3-|---------|----------|
|-----|---------|-3-----3-|----------|
C
D
Fmaj7
Am
E-----|---------|-2-----2-|-0-----0-|------|
B-----|-------1-|---3-----|---1-----|-1----|
G-----|-----0---|-----2---|-----2---|----2-|
D-----|---2-----|-0-------|-3-----3-|------|
A-0-2-|-3-------|---------|---------|-0----|
E-----|---------|---------|---------|------|
C
D
G Am Am
|-----|---------|-----3-2--3--0--0-|
|-----|-------1-|----------0--1--1-|
|-----|-----0---|---3------0--2--2-|
|-----|---2-----|-0--------0--2--2-|
|-0-2-|-3-------|----------2--0--0-|
|-----|---------|----------3-------|
Repeat 1st part ( 2x )
(There´s a lady....
When she gets....
Repeat 2nd part ( 1x )
( Woo oo oo.... )
There´s a sign on the wall.....
C
D
Fmaj7
Am
E-----|---------|-2-----2-|-0-----0-|------|
B-----|-------1-|---3-----|---1-----|-1----|
G-----|-----0---|-----2---|-----2---|----2-|
D-----|---2-----|-0-----0-|-3-----3-|------|
A-0-2-|-3-------|---------|---------|-0----|
E-----|---------|---------|---------|------|
Fmaj7
)
C
D
G Fmaj7
|-----|---------|-2-----2-|-3--0--0-|
|-----|-1-----1-|---3-----|-0--1--1-|
|-----|---0-----|-----2---|-0--2--2-|
|-----|-----2---|-0-----0-|-0--3--3-|
|-0-2-|-3-----3-|---------|-2-------|
|-----|---------|---------|-3-------|
Repeat 1st part ( 2x ) ( In a tree by the... )
3rd part: Makes me wonder.......
G
Am
D
Am
E--3--| |--0---3---0--|--3--2---0--2--|--0---3---0--|-7--5--3--5-|
B--0--| |--1---1---1--|--3--3---3--3--|--1---1---1--|-8--7--5--7-|
G--0--| |--2---2---2--|--2--2---2--2--|--2---2---2--|-9--7--5--7-|
D--0--| |--2---2------|--0--0---------|--2---2------|-0----------|
A--2--| |--0---0------|--0--0---------|--0---0------|------------|
E--3--| |--0---0------|--0--0---------|--0---0------|------------|
Em
7
D
5
C
3
4th part: There´s a feeling I get
C
G
Am
C
G
F
Am
E---------|---------|-----|---------|-----|---------|---------|--0---0-|------|
B---------|---------|-1---|-------1-|-----|---------|---------|--0---1-|------|
G-----0---|-----0---|---2-|-----2---|-----|-----0---|-----0---|--2---2-|------|
D---2-----|---0-----|-----|---2-----|-----|---2-----|---0-----|--3---2-|------|
A-3-----3-|-2-----2-|-----|-0-------|-0-2-|-3-----3-|-2-------|--3---0-|--0-2-|
E---------|---------|-----|---------|-----|---------|---------|--1-----|------|
c
G
E-------------|---------|
B-------------|---------|
G---------0---|-----0---|
D-------2-----|---0-----|
A-0-2-3-----3-|-2-----2-|
E-------------|---------|
3rd part: Makes me wonder.......
Am
D
Am
|--0---3---0--|--3--2---0--2--|--0---3---0--|-7--5--3--5-|
|--1---1---1--|--3--3---3--3--|--1---1---1--|-8--7--5--7-|
|--2---2---2--|--2--2---2--2--|--2---2---2--|-9--7--5--7-|
|--2---2------|--0--0---------|--2---2------|-0----------|
|--0---0------|--0--0---------|--0---0------|------------|
|--0---0------|--0--0---------|--0---0------|------------|
Last stanza before lead solo:
Dear lady can you hear the wind blow... Your stairway lies on the wind...
C
G
Am
C
G
F
Am
C
G
D
E-------------|---------|-----|--------|-----|---------|-------|--1---0-|------------3---|-----3---|-2-----|
B-------------|---------|-1---|------1-|-----|---------|-------|--1---1-|----------5-----|---3-----|-3-----|
G---------0---|-----0---|---2-|-----2--|-----|-----0---|-----0-|--2---2-|-2-4----5-----5-|-4-----4-|-2-----|
D-------2-----|---0-----|-----|---2----|-----|---2-----|---0---|--3---2-|----------------|---------|-0-----|
A-0-2-3-----3-|-2-----2-|-----|-0------|-0-2-|-3-----3-|-2-----|--3---0-|----------------|---------|-------|
E-------------|---------|-----|--------|-----|---------|-------|--1---0-|----------------|---------|-------|
è
68
Potdevin - Cool Riffs and Hot Lead Guitar Licks - www.lepotdevin.com
Tangerine
Led Zeppelin, 1970, (---) Orig chords ˜,
Intro:
Am Am7 Am Asus2 G
D
D
E---0----0----0----0----3----2----2--|
B---1----3----1----0----0----3----3--|
G---2----2----2----2----0----2----2--|
D---2----2----2----2----0----0----0--|
A---0----0----0----0----2------------|
E-----------------------3------------|
Am Am7 Am Asus2 G
D
D
D
C
C
G
Am
E---0----0----0----0----3----2----2--|---2----0---|----------|---------|--0--|
B---1----3----1----0----0----3----3--|---3----1---|----------|---------|--1--|
G---2----2----2----2----0----2----2--|---2----0---|------0---|-----0---|--2--|
D---2----2----2----2----0----0----0--|---0----2---|----2-----|---0-----|--2--|
A---0----0----0----0----2------------|--------3---|--3-----3-|-2-----2-|--0--|
E-----------------------3------------|--------0---|----------|---------|-----|
Am / /
G /
D /
D /
E-------------|---------|------|--2----3--2--0--2----|
B-------------|---------|------|--3----3--3--3--3----|
G-------------|---------|------|--2----2--2--2--2----|
D-------------|---------|------|--0----0--0--0--0----|
A-------------|---------|------|---------------------|
E-------------|---------|------|---------------------|
C / /
D / /
G / /
Chorus
E-------------|---------------|----------------|
B-------------|---------------|----------------|
G-------------|---------------|----------------|
D-------------|---------------|----------------|
A-------------|---------------|----------------|
E-------------|---------------|----------------|Chorus:
-----C D G G
C
Tangerine, tangerine
D G
G
C
Living reflection from a dream
D G
G
C
I was her love, she was my queen
D G
G
G
G
D
And now a thousand years between
Song For Aries
Cactus, 1971, (Appice, Bogert, Day, McCarty) Orig chords ˜,
Intro:
D C B Bb
D C B Bb G F E
E-----------|---------------|-------------|
B---3---3---|---------------|-------------|
G--2-2-2-2--|---------------|-------------|
D-0---0---0-|---------------|-------------|
A-----------|---------------|-------------|
E-----------|---------------|-------------|
2nd stanza:
D C B Bb
Lead solo intro
*
D (x3)
* C C/D
D
E--2---3----2--|----------|---2----|
B--3---3----3--|--1---3---|---3----|
G--2---2----2--|--0---0---|---2----|
D--0---0----0--|--2---2---|---0----|
A--------------|--3---3---|--------|
E--------------|----------|--------|
Intro flute part:
*
E---|---|---|-------|
B-5-|---|---|---5-5-|
G-5-|-5-|-5-|-7-5-5-|
D---|---|-7-|-9-----|
A---|---|---|-------|
E---|---|---|-------|
Lead solo back up chords:
Am
G
Fmaj7
|--0----3----0---|
|--1----0----1---|
|--2----0----2---|
|--2----0----3---|
|--0----2--------|
|-------3--------|
|-------5-------|---------|-------|
|-5--7--6-8-6-5-|-8-8---8-|-8-7-7-|
|-5--7----9-7-5-|-9-9-----|-9-7-7-|
|---------------|---------|-------|
|---------------|---------|-------|
|---------------|---------|-------|
D
C
B
Bb
D A D A
And she´s buying a stairway to heaven.
|----------------------------|
|----------------------------|
|----------------------------|
|----0-2-0-------------------|
|--3-------3-2-3-2-0-----3-0-|
|--------------------3-------|
|---5-----------|-5--8-7-8-|-10-12--10-|---------|
|-5-5-8-8-7-5---|-5------8-|----13--10-|-8-10-10-|
|-5---9-9-7-5-7-|----------|-----------|-9-9--9--|
|---------------|----------|-----------|---------|
|---------------|----------|-----------|---------|
|---------------|----------|-----------|---------|
Potdevin - Cool Riffs and Hot Lead Guitar Licks - www.lepotdevin.com
69
Listen To The Music
Eyes of Silver
Main chords: play with Flanger
E
C#m
B
A
E--7-----7-------9------7-----5--|
B--9-----10------9------7-----5--|
G--9-----9-------9------8-----6--|
D--9-----9-------11-----9-----7--|
A--7-----7-------11-----9-----7--|
E--7-----7-------9------7-----5--|
Intro:
A
E-------------|---------|-------------|---------|
B-------------|---------|-------------|---------|
G-------------|-------1-|-------------|---------|
D-------2---2-|-2-2h4---|-------2---2-|-2h4-2---|
A-----4---4---|---------|-----4---4---|-------4-|
E-0h2---------|---------|-0h2---------|---------|
Doobie Brothers, 1974, (---) Orig chords ˜,
Chorus:
C#
A
Wow oo wow listen to the music
B A E
Wow oo wow
Doobie Brothers, 1974, (---) Orig chords ˜,
1st stanza chords: play with Flanger
E
D
E
A
D
E
E--7----7----5----7--| |--5----5----7----|
B--9----10---7----9--| |--5----7----9----|
G--9----9----7----9--| |--6----7----9----|
D--9----9----7----9--| |--7----7----9----|
A--7----7----5----7--| |--7----5----7----|
E--7----7----5----7--| |--5----5----7----|
(x3)
Solo:
E
D
E
D
E-----------|---------|-----------|-------|
B-----------|---------|-----------|-------|
G-----------|-----0---|-----------|-----0-|
D-0h2-2-2-2-|-0-2---2-|-0h2-2-2-2-|-0-2---|
A-----------|---------|-----------|-------|
E-----------|---------|-----------|-------|
E
D
E
A
E
E-----------|---------|-----------|------------|
B-----------|---------|-----------|------------|
G-----------|-----0---|-----------|------------|
D-0h2-2-2-2-|-0-2---2-|-0h2-2-2-2-|-0h2-0------|
A-----------|---------|-----------|--------2---|
E-----------|---------|-----------|----------0-|
You Ain´t Seen Nothing Yet
Bachman Turner Overdrive, 1975, (---) Orig chords ˜,
American Woman
Guess Who, 1970, (---) Orig chords ˜,
Intro:
Chords:
Solo:
B D E
D E
E------------|--7--5--7----5--7-|---------|----------|
B-6--5--4--3-|--7--7--7----7--7-|---------|----10-12-|
G-7--6--5--4-|--8--7--8----7--8-|-9-11-13-|-13-------|
D------------|--9--7--9----7--9-|---------|----------|
A------------|--9--5--7----5--7-|---------|----------|
E------------|--7--5--7----5--7-|---------|---------|
*
E-----------|----------------|
B-----------|----12-12h14-15-|
G-9-9h11-13-|-13-------------|
D-----------|----------------|
A-----------|----------------|
E-----------|----------------|
Riff chords chords:
A () G D
E--------------|
B--------------|
G--6-----4--7--|
D--7-----5--7--|
A--7--0--5--5--|
E--5--0--3--5--|
Bridge:
Chorus:
D F G D E F# D E
A E
D
E--2--1--3--2--0--2--2--0--|-----------|
B--3--1--3--3--0--2--3--0--|-----9--7--|
G--2--2--4--2--1--3--2--1--|--6--9--7--|
D--0--3--5--0--2--4--0--2--|--7--9--7--|
A-----3--5-----2--4-----2--|--7--7--5--|
E-----1--3-----0--2-----0--|--5--7--5--|
Love Is Love
Titanic, 1972, (Asperud, Aas) Orig chords ˜,
Something On My Mind
Titanic, 1972, (Robinson, Asperud, Loseth) Orig chords ˜,
Intro:
E G - E G - E G - A G Main riff:
E A D G
D
A
G
E
A
Original version
F G# - F G# - F G# - A# G# - A# G# F
F A# D# G# D# A#
70
Intro:
E
A
C
D
G
A
C
E---|------------------------------------------|
B---|------------------------------------------|
G---|------------------------------------------|
D---|------------------0-0-0-0-----------------|
A---|-0-0-0-0--3-3-3-3-----------------0-0-0-3-|
E-0-|--------------------------3-3-3-3---------|
Chorus:
A
C
D#
F
G
E---------|---------|------------|
B---------|---------|------------|
G---------|---------|----------0-|
D---------|-----0-1-|-1-1--3-3---|
A-0-0-2-3-|-3-3-----|------------|
E---------|---------|------------|
Potdevin - Cool Riffs and Hot Lead Guitar Licks - www.lepotdevin.com
Frankenstein
Edgar Winter, 197--, (--) Orig chords ˜,
Intro:
*
E--------------------------|-----------------|
B--------------------------|-----------------|
G-----------------------3--|-----------------|
D--5--5--5--5--3--5--5--3--|--5--5--5--3--5--|
A--5--5--5--5--3--5--5-----|--5--5--5--3--5--|
E--------------------------|-----------------|
*
E------------------------------|-----------------|
B------------------------------|-----------------|
G-----------------------3h5p3--|-----------------|
D--5--5--5--5--3--5--5---------|--5--5--5--3--5--|
A--5--5--5--5--3--5--5---------|--5--5--5--3--5--|
E------------------------------|-----------------|
Tobacco Road
Eric Burdon, 1972, (Loudermilk) Orig chords
˜,
Intro:
E
E-----|---------|-----------|
B-----|---------|-----------|
G-----|---------|-----------|
D-2-2-|-------0-|-0---------|
A-----|-0-1-2---|---2-1-----|
E-----|---------|-------3-3-|
E
A B
E-----|---------|-----------|
B-----|---------|-----------|
G-----|---------|-----------|
D-2-2-|-------0-|-0---------|
A-----|-0-1-2---|---2-1-----|
1st stanza
E----------------------|------------------|
B----------------------|-----3b-----------|
G----------3---5-3---3-|-5-3----5\3---3---|
D----3-4-5---5-----5---|------------5---5-|
A--5-------------------|------------------|
E----------------------|------------------|
*
E-------------------------------------------|
B-10/11-------------------------------------|
G-------10h12-10-------------------10-------|
D----------------12-10-------10-12----10----|
A----------------------10h13-------------10-|
E-------------------------------------------|
*
E-------------------------|-----------------------------------|
B-------------------------|------------8----------------------|
G----------8----10-8----8-|--8h10p8--------8h10p8----8--------|
D-7-8-9-10---10------10---|---------10------------10------10--|
A-------------------------|-----------------------------------|
E-------------------------|-----------------------------------|
*
E----------------------------------|----------------------------------|
B----------------11----13-11----11-|-11h13p11----15-11h13p11----11----|
G-9-10-11-12--12----12-------12----|----------12-------------12----12-|
D----------------------------------|----------------------------------|
A----------------------------------|----------------------------------|
E----------------------------------|----------------------------------|
*
( 2 x )
*
E-------------------------------------|
B-10/11-11----10/11-11----10-11-10----|
G----------12----------12----------12-|
D-------------------------------------|
A-------------------------------------|
E-------------------------------------|
*
E--------------------------|-----------------|
B--------------------------|-----------------|
G-----------------------3--|-----------------|
D--5--5--5--5--3--5--5--3--|--5--5--5--3--5--|
A--5--5--5--5--3--5--5-----|--5--5--5--3--5--|
E--------------------------|-----------------|
Potdevin - Cool Riffs and Hot Lead Guitar Licks - www.lepotdevin.com
Quit humming! You´re scaring the fish.
Rock On
T-Rex, 1972, (Marc Bolan) Orig chords ˜,
Intro:
( x 2 )
D F G
G D Bb (D) F G
E--------|-3-------------|
B--------|---3-----------|
G-----0--|-----3-3-----0-|
D-0h3----|---------0h3---|
A--------|---------------|
E--------|---------------|
Chords:
G F# E - G
D
Bb
F
G
Chorus:
G Bb G - G
D
Bb
F
G
71
Everyone´s A Winner
Hot Chocolate, 1978, (---) Orig chords ˜,
Intro:
F D#
A#
F
E---------------------------|-------------|----------|----------|----------|
B---------------------------|-------------|----------|----------|----------|
G---------------------------|-------------|-------13-|-------13-|----------|
D---13-12-13-12-13-12-13-12-|-13-12-------|-13h15----|-13h15----|-15-13-15-|
A---------------------------|-------15-13-|----------|----------|----------|
E---------------------------|-------------|----------|----------|----------|
D#
A#
F
E---------------------------|-------------|-----------------|----------------|
B---------------------------|-------------|-----------------|----------------|
G---------------------------|-------------|-------------13--|----15----13----|
D---13-12-13-12-13-12-13-12-|-13-12-------|-11h12-13-15-----|-15----15----15-|
A---------------------------|-------15-13-|-----------------|----------------|
E---------------------------|-------------|-----------------|----------------|
1st stanza:
F * D#
F
( 4x ) * A# F
E---|-------------|-------------|------|
B---|-------------|-------------|------|
G---|-------------|-------------|------|
D---|-13-12-13-12-|-15-14-15-14-|------|
A---|-------------|-------------|------|
E---|-------------|-------------|------|
Lead solo:
D#
A#
F
E-------------------------|-------------|----------|----------|----------|
B-------------------------|-------------|----------|----------|----------|
G-------------------------|-------------|----------|-13----15-|----------|
D-13-12-13-12-13-12-13-12-|-13-12-------|-11h12-15-|----15----|-15-13-15-|
A-------------------------|-------15-13-|----------|----------|----------|
E-------------------------|-------------|----------|----------|----------|
Hot Chocolate guitarrist Harvey
D#
A#
F
E-------------------------|----------------|----------|----------|----------|
B-------------------------|----------------|----------|----------|----------|
G-------------------------|----------------|----------|-15----13-|----13----|
D-13-12-13-12-13-12-13-12-|-13-12----------|-11h13-15-|----15----|-15----15-|
A-------------------------|-------15-13\20-|----------|----------|----------|
E-------------------------|----------------|----------|----------|----------|
D#
A#
F
E-----------------|-----------|---------|---------|--------|
B-----------------|-----------|---------|---------|--------|
G-8-7-8-7-8-7-8-7-|-8-7-------|-------8-|-10----8-|--------|
D-----------------|-----10-8\-|-8-h10---|----10---|-10-8---|
A-----------------|-----------|---------|---------|------8-|
E-----------------|-----------|---------|---------|--------|
D#
A#
F
E-----------------|-----------|---------|---------|---------|
B-----------------|-----------|---------|-11----9-|---------|
G-8-7-8-7-8-7-8-7-|-8-7-8-10\-|-------8-|----10---|-10-8-10-|
D-----------------|-----------|-8-h10---|---------|---------|
A-----------------|-----------|---------|---------|---------|
E-----------------|-----------|---------|---------|---------|
72
Potdevin - Cool Riffs and Hot Lead Guitar Licks - www.lepotdevin.com
Superstition
Do Ya Think I´m Sexy
Intro:
*
E-----------|----------------|
B-----------|----------------|
G-----------|----------------|
D-----------|--------5-------|
A-----5-7---|--7-5-7---5-5-7-|
E-5h7-----0-|----------------|
Intro: bass triplet gallop
*
E-----------------------------|
B-----------------------------|
G-----------------------------|
D-----------------------------|
A-------------------8---8-8-8-|
E-10--10-10-10----------------|
Steve Woder, 197-, (Stevie Wonder) Orig chords ˜,
Rod Stewart, 1978, (---) Orig chords ˜,
Main riff:
E-------------------|
B-------------------|
G-------------------|
D---------5---------|
A---7-5-7---5-5-5-7-|
E-0-----------------|
*
E----------------------------------------------|
B----------------------------------------------|
G----------------------------------------------|
D-------------------7--7-7---------------------|
A-8---8-8-10--10-10---------8--8-8-------------|
E------------------------------------10--10-10-|
* Fill in:
*
E--------------|-----------------|
B--------------|-----------------|
G--------------|-----------------|
D--------------|-------5---------|
A--------------|-7-5-7---5-5-5-7-|
E-7-5-3-5--3-0-|-----------------|
Lead solo section triplets
One For You, One For Me
LaBionda, 1978, (--) Orig chords ˜, orig played in A#
Main Riff:
A
D
E-------------------------|-------------------------|
B-2-----2------2------2---|-3-----3------3------3---|
G-----2------2------2-----|-----2------2------2-----|
D---2------2------2-----2-|---4------4------4-----4-|
A-------------------------|-------------------------|
E-------------------------|-------------------------|
E----------------------------------------------|
B----------------------------------------------|
G----------------------------------------------|
D----------------------------------------------|
A-----------7-7-7-8-8-8------------------------|
E--10-10-10-------------10-10--8--8-8-8--8-8-8-|
G
E------------------------|
B------------------------|
G------------------------|
D------------------------|
A------------------------|
E-3-5-6-6--6-6-6--6-6-6--|
Violin section
*
E-----5-8-5-|-6-5-6-5----------------------|
B---6-------|---------6---6--8-6-8-6-------|
G-7---------|-----------7------------7-5-7-|
D-----------|------------------------------|
A-----------|------------------------------|
E-----------|------------------------------|
A
D
E-------------------------|-------------------------|
B-------------------------|-------------------------|
G-6-----6------6------6---|-7-----7------7------7---|
D-----7------7------7-----|-----7------7------7-----|
A---7------7------7-----7-|---9------9------9-----9-|
E-------------------------|-------------------------|
1st verse:
*
E---0---2-------------|
B---------2-0---------|
G-------------2-4---2-|
D-2---------------4---|
A---------------------|
E---------------------|
Thriller
Michael Jackson, 1982, (--) Orig chords ˜,
Intro:
*
E------------------|-9--7----7--6--4--|
B------------------|-9--7----7--6--5--|
G-8---9---11---12--|------------------|
D------------------|------------------|
A------------------|------------------|
E------------------|------------------|
bass riff - repeat
E-------------|
B-------------|
G-------------|
D-2-----2-4---|
A---4-4-----4-|
E-------------|
Potdevin - Cool Riffs and Hot Lead Guitar Licks - www.lepotdevin.com
Try whistling this..
73
My Sharona
Money For Nothing
1st stanza:
G
C Bb C Bb
E---|--------------|---------|
B---|--------------|---------|
G---|-----0-0----0-|---------|
D---|--------------|---------|
A---|--------------|-3-1-3-1-|
E-3-|-3-3------3---|---------|
G
C
G
Bb
C
G
E------------|---------------|-------|----------------|
B----------6-|---------------|-------|----------------|
G--7-7-5-7-5-|-7-5-5-3-3-0-0-|-0-3-0-|-3/5--5\3--0--7-|
D--5-5-5-5---|-5-5-5-3-3-0-0-|-0-3-0-|-3/5--5\3--0----|
A------------|---------------|-------|----------------|
E------------|---------------|-------|----------------|
Dire Straits, 1985, (Knopfler-Sting) Orig chords ˜,
The Knack, 1977, (---) Orig chords ˜,
2nd stanza:
G
Bb
C
D# E#
E-----------|-----------------|------------|
B-----------|-----------------|------------|
G-----0---0-|-----------------|------------|
D-----------|-----------------|------------|
A-----------|---------1-1-1...|-3-3-6-6-8\-|
E-3-3---3---|-3-3-3...--------|------------|
3rd stanza:
G C
D#
E# D# E# D
E-----------|-----|-----|--------||---------|
B-----------|-----|-----|--------||---------|
G-----0---0-|-----|-----|--------||---------|
D-----------|-----|-----|--------||---------|
A-----------|-3-3-|-6-6-|-8-6-8\-||-5-5-5-5-|
E-3-3---3---|-----|-----|--------||---------|
G
C
G
F
G
E------|------|----------|------|-----|-----|----------------|
B------|------|------6---|------|-----|-----|----------------|
G-7--7-|-5-h7-|-5-h7-5-7-|-5-h7-|-3-0-|-0-0-|-0-3-0----------|
D-5--5-|-5----|-5------5-|-5----|-3-0-|-0-0-|-0-3-0--3/5--5--|
A------|------|----------|------|-----|-----|--------3/5--5--|
E------|------|----------|------|-----|-----|----------------|
Main chords:
G
C G
Bb C G
G
C G
F G
Chorus:
Eb Bb Eb F G C D E - G
Main lead solo:
C B
A
B C
E----------------------|
B----------------------|
G----------------------|
D----------------------|
A----------------------|
E-8--7-7--5-5--5-5--7--|
Dire Straits - Knopfler
Wicket Games
Chris Issac, 199x, (---) Orig chords ˜,
Bm
A
E
Bm
A
E
E------|------|---------------------|
B------|------|---------------------|
G-4/11-|-11\4-|-4/11---9-7-6-4--2-1-|
D------|------|---------------------|
A------|------|---------------------|
E------|------|---------------------|
Police - Andy Summers
De Do Do Do, De Da Da Da
Police, 198-, (Sting) Orig chords
˜,
Intro:
D D
A
A
E--2--2--|---------------|---------------|
B--3--3--|------------2--|------------2--|
G--2--2--|--4-4-4-4---2--|--4-4-4-4---2--|
D--0--0--|--2-2-2-2---2--|--2-2-2-2---2--|
A--------|------------0--|------------0--|
E--------|---------------|---------------|
E
D D
E---------------|-----------|--2--2--|
B------------0--|-----------|--3--3--|
G--2-2-2-2---1--|--2-2-2-2--|--2--2--|
D--4-4-4-4---2--|--4-4-4-4--|--0--0--|
A------------2--|-----------|--------|
E---------------|-----------|--------|
1st verse: (muting strings)
B7
E D
E------------------|
B------------------|
G----4---4-----4---|
D--2---2-----2-----|
A------------------|
E------------------|
74
E
D
E
D-D
Bm
A
E
E--2--2-----0-----0-----0------0--------|
B--3----3-----2-----2-----2----0--------|
G--4------4-----2-----2-----2--1--1-2-4-|
D--4---------------------------2--------|
A--2---------------------------2--------|
E--2---------------------------0--------|
Bad To The Bone
George Thorogood,
1989, (---) Orig chords ˜,
Intro:
G
C
(Bb) G
E-------------------|-----|
B-------------------|--5--|
G--------5-----3----|--5--|
D--5--5--5--5--3--5-|--5--|
A--5--5-----5-----5-|-----|
E-------------------|-----|
G
C
(Bb) G
E-------------------|--3--|
B-------------------|--3--|
G--------5-----3----|--3--|
D--5--5--5--5--3--5-|-----|
A--5--5-----5-----5-|-----|
Potdevin - Cool Riffs and Hot Lead Guitar Licks - www.lepotdevin.com
Don´t Cry
Come As You Are
Intro:
In
*
E---------|---------|---------|-------|
B---------|---------|---------|-------|
G---------|-0---0---|---------|-0-----|
D-0-0-1-2-|---2---2-|-2-2-1-0-|---0-0-|
A---------|---------|---------|-------|
E---------|---------|---------|-------|
Guns & Roses, 1992, (---) Orig chords ˜,
Nirvana, 1991, (---) Orig chords ˜,
Am
Dm
G
E----|---------0------|---------1-------|---------3-------|
B----|-------1---1----|-------3---3-----|-----------0-----|
G----|-----2------2---|-----2-------2---|-------0-----0---|
D----|---2----------2-|---0-----------0-|-----0---------0-|
A----|-0--------------|-0---------------|---2-------------|
E-3--|----------------|-----------------|-3---------------|
Intro ending
C
Am
G
Am
E-------|-------|-------| |---------|----------|
B-------|-------|-------| |---------|----------|
G-----0-|-----0-|-------| |-------0-|----------|
D---2---|---0---|-------| |-----0---|-------2--|
A-3-----|-2-----|-3-2-0-| |---2-----|-------0--|
E-------|-------|-------| |-3-------|-2-3-4----|
Chorus Chords:
F G Am - F G Am - F G C - F G Am
One
EMF, 1992, (--) Orig chords ˜,
Metallica, 1992, (--) Orig chords ˜,
Intro riff:
Bm
Gmaj7
E---------|-----------|---------|---||-----------|
B---7-----|---7-------|---7-----|-8-||-----------|
G-------7-|--------7--|-------7-|---||-----------|
D-9---9---|-----------|-9---9---|---||---7---9-9-|
A---------|-9----9----|---------|---||-9---7-----|
E---------|-----------|---------|---||-----------|
Intro:
*
E----------------|
B-------------4--|
G-----4---6------|
D-6-----6--------|
A----------------|
E----------------|
Metallica Kirk Hammett &
James Hetfield
Chorus riff:
*
E-------------------|
B-------------------|
G---4---4---4-5-6-6-|
D-6---6---6---------|
A-------------------|
E-------------------|
*
E--------------------|
B--------------------|
G--6-4---4---4-------|
D------6---6---7-6-6-|
A--------------------|
E--------------------|
1979
Smashing Pumpkins, 1991,
(---) Orig chords ˜,
Nirvana - Kurt Cobain - guitar
Gun´s & Roses - Slash
Unbelievable
Radiohead - Owen
Creep
Ice Eyes Baby
G *
E--3----------3----------|
B--3--3---3-----3---3----|
G--4----4---4-----4---4--|
D--5---------------------|
A--5---------------------|
E--3---------------------|
intro: repeat
E-----------------|
B-----------------|
G-----------------|
D---0-0-0-0-0-0---|
A-3-------------0-|
E-----------------|
Radiohead, 199x, (---) Orig chords ˜,
Vanilla Ice, 1991, (---) Orig chords ˜,
*
E-------------------------|
B-------------------------|
G-7-7-7-7-7-7-7-8---------|
D-----------------8-8-8-8-|
A-------------------------|
E-------------------------|
B
E--7----------7----------|
B--7--7---7-----7---7----|
G--8----8---8-----8---8--|
D--9---------------------|
A--9---------------------|
E--7---------------------|
2nd part
E---------------|---------------|
B---------------|---------------|
G---------------|---------------|
D---0-----------|-------0-0-0-0-|
A-3---3---------|---0-3---------|
E-------3-3-3-3-|-3-------------|
*
E---------------------|
B---------------------|
G---------------------|
D-6-6-6-6--6-6-6-6--6-|
A---------------------|
E---------------------|
C
E--8-----------8---------|
B--8---8---8-----8---8---|
G--9-----9---9-----9---9-|
D--10--------------------|
A--10--------------------|
E--8---------------------|
*
E---------------|---------------|
B---------------|---------------|
G---------------|---------------|
D---0-3-5-5-5-5-|-3-5-3-0-0-0-0-|
A-3-------------|---------------|
E---------------|---------------|
*
E--------------------|
B--------------------|
G--------------------|
D--------------------|
A-8-8-8-8--8-6-6-6-6-|
E--------------------|
D#
E--6----------6----------|
B--8--8---8-----8---8----|
G--8----8---8-----8---8--|
D--8---------------------|
A--6---------------------|
E--6---------------------|
*
E---------------|
B---------------|
G---------------|
D---0-----------|
A-3---3---------|
E-------3-3-3-3-|
Potdevin - Cool Riffs and Hot Lead Guitar Licks - www.lepotdevin.com
75
Diana
Oh Carol
Intro:
( x 2 )
*
E-------|---------------------|-------|
B-10/12-|-12-12-12-12----10---|-12-10-|
G-------|------------12----12-|-------|
D-------|---------------------|-------|
A-------|---------------------|-------|
E-------|---------------------|-------|
Intro:
*
E-14-----------------------|----------------|
B-----16-17-16-14-16-14----|-16-14----16-14-|
G-----------------------16-|-------16-------|
D--------------------------|----------------|
A--------------------------|----------------|
E--------------------------|----------------|
Paul Anka, 1957, (Paul Anka) Orig chords ˜,
1st stanza:
( x 2 )
*
*
E-------|-----------|-------|-----------|
B-------|-----------|-------|-----------|
G-4-4-4-|-4--4--4-4-|-5-5-5-|-5-5-7-5---|
D-------|-----------|-------|---------7-|
A-------|-----------|-------|-----------|
E-------|-----------|-------|-----------|
*
E---------|-------|-----------------|
B---------|-5-5-5-|-5-5-5-5-5-7-7-7-|
G-7-7-7-7-|-------|-----------------|
D---------|-------|-----------------|
A---------|-------|-----------------|
E---------|-------|-----------------|
Chorus:
*
E--------|--------|-------|
B-7/8--8-|-5--5---|-------|
G--------|------7-|-------|
D--------|--------|---7-5-|
A--------|--------|-7-----|
E--------|--------|-------|
2nd stanza
*
E---------|---------|---------|---------|
B-5-5-5-5-|-4-4-4-4-|---------|---------|
G---------|---------|-7-7-7-7-|-7-7-7-7-|
D---------|---------|---------|---------|
A---------|---------|---------|---------|
E---------|---------|---------|---------|
Neil Sedaka, 1957, (Neil Sedaka, Howard Greenfield) Orig chords ˜,
*
E----------------|-14-14----------------------|
B-14----------14-|-------17-17-16-16-14-14----|
G----16-15-16----|-------------------------16-|
D----------------|----------------------------|
A----------------|----------------------------|
E----------------|----------------------------|
1st stanza: ( x 2 )
*
E-2-----|---------------|-----------|
B---4-4-|-4-5-4-2-4-2---|-4-2---4-2-|
G-------|-------------4-|-----4-----|
D-------|---------------|-----------|
A-------|---------------|-----------|
E-------|---------------|-----------|
1st x
2nd x
*
E-----------| |----------|
B-2-------2-| |-2-----2--|
G---4-3-4---| |---4-3--4-|
D-----------| |----------|
A-----------| |----------|
E-----------| |----------|
2nd stanza: ( x 2 )
*
E---------|---------|-----|-------------|---|
B-7-9-9-7-|-7-9-9-7-|-9-7-|-7-7-9-7-----|---|
G---------|---------|-----|---------9-9-|-8-|
D---------|---------|-----|-------------|---|
A---------|---------|-----|-------------|---|
E---------|---------|-----|-------------|---|
1st x
2nd x
*
E-------|-------|-----|-----|-----------|
B-5-5-5-|-4-4-4-|-----|-----|-----------|
G-------|-------|-7-7-|-7-7-|-7-7-7-7-7-|
D-------|-------|-----|-----|-----------|
A-------|-------|-----|-----|-----------|
E-------|-------|-----|-----|-----------|
*
E-----------|
B-7-----7---|
G---9-8---9-|
D-----------|
A-----------|
E-----------|
Outro:
*
E-----|-----------|-----|-------|
B-5---|-----5-7-5-|-5---|-------|
G---7-|-4-7-------|---7-|-------|
D-----|-----------|-----|---7-5-|
A-----|-----------|-----|-7-----|
E-----|-----------|-----|-------|
Fill in:
*
E-----14----14----14----|---11---------------|
B---15---15----15----15-|--12----12---14-----|
G-14--------------------|-11----13---15-----|
D-----------------------|------14---16-----|
A-----------------------|----------------|
E-----------------------|-------------|
76
|-----------|
|-----------|
|-9-8-6-8-9-|
|-----------|
|-----------|
|-----------|
|-------------|
|---7-7-7-7---|
|-9---------8-|
|-------------|
|-------------|
|-------------|
Potdevin - Cool Riffs and Hot Lead Guitar Licks - www.lepotdevin.com
All I Have To Do Is Dream
Put Your Head On My Shoulder
*
Intro
Gmaj7 Em
C
D
G
C
G
E------14--14-12-|-------|------12-|-12---13----|
B-15-----15------|-16-15-|-12-15---|---13----15-|
G----------------|-------|---------|------------|
D----------------|-------|---------|------------|
A----------------|-------|---------|------------|
E----------------|-------|---------|------------|
Everly Brothers, 1958, (---) Orig chords ˜,
Intro:
(x2)
*
E
C#m
A
B E
E---|--------------|-----------|
B---|--------------|-14-14-12--|
G---|-13-11--------|-----------|
D---|------14---11-|-----------|
A---|---------14---|-----------|
E-0-|--------------|-----------|
1st stanza ( x 2 )
E
C#m A
B
E
C#m A
B
E------------|----------|------------|-------------|
B-10---------|-10-10-12-|-10---------|-10-10-10-12-|
G---13-13-13-|----------|---13-13-13-|-------------|
D------------|----------|------------|-------------|
A------------|----------|------------|-------------|
E------------|----------|------------|-------------|
E
C#m
A
B
E-----------------|---------------|
B-10--------14----|---------------|
G---13-11-13---13-|------------11-|
D-----------------|-14-14-14-14---|
A-----------------|---------------|
E-----------------|---------------|
1st x
E
C#m
A
B E
E----------------|----------|
B----------------|-14-14-12-|
G-11-13-11-------|----------|
D---------14--11-|----------|
A-----------14---|----------|
E----------------|----------|
2nd x
E
A
E E7
|-------------------|
|-------------------|
|-11-13-11----------|
|----------14-14-14-|
|-------------------|
|-------------------|
2nd stanza:
A
G#m
F#m
B
E E7
E----------------|----------------|----------|----------|
B-14-14-14-14-14-|-12-12-12-12-12-|-10-10-10-|-12-10----|
G----------------|----------------|----------|-------13-|
D----------------|----------------|----------|----------|
A----------------|----------------|----------|----------|
E----------------|----------------|----------|----------|
A
G#m
F#m
B
E----------------|-11----|----------|----------|-------|
B-14-14-14-14-14-|----12-|-12-14-14-|-14-14-12-|-11-12-|
G----------------|-------|----------|----------|-------|
D----------------|-------|----------|----------|-------|
A----------------|-------|----------|----------|-------|
E----------------|-------|----------|----------|-------|
Paul Anka, 1957, (Paul Anka) Orig chords ˜,
1st stanza:
( x 2 )
Em C
D
G Em C
D
G
E---------------|-----------|-----|-----------|
B-----------7-5-|-----------|-----|-----------|
G-4-5-7-4-7-----|-5-7-5-4---|-4b--|-5-7-5-4---|
D---------------|---------7-|-----|---------7-|
A---------------|-----------|---7-|-----------|
E---------------|-----------|-----|-----------|
1st x
Em C
E-----|
B-----|
G-4b--|
D-----|
A---7-|
E-----|
D
G Cmaj7 Gmaj7
|-------|-------|
|-------|-------|
|---4---|-----4-|
|-7---7-|-5-7---|
|-------|-------|
|-------|-------|
2nd x
D
G C G G7
E---------------|
B---------------|
G---4-----------|
D-7---7-5-4-7-5-|
A---------------|
E---------------|
Chorus:
Am
Am7
G
Am
Am7
G
E---------|-----|-----|-----|-----|-----|
B---------|-----|-----|-----|-----|-----|
G---------|---4-|---4-|-----|-----|---4-|
D-7-7---7-|-5---|-7---|-5-7-|-7-7-|-5---|
A---------|-----|-----|-----|-----|-----|
E---------|-----|-----|-----|-----|-----|
A
D
A
D
E-----|-----|-------|-----|-----|-----------|
B-----|-----|-------|-5---|---5-|-5-5---5-7-|
G-4-6-|-7-6-|-6-7-7-|---7-|-7---|-----7-----|
D-----|-----|-------|-----|-----|-----------|
A-----|-----|-------|-----|-----|-----------|
E-----|-----|-------|-----|-----|-----------|
Fill in:
D
E-------------------------2-|
B-------------------3-3-3---|
G-------------2-2-2---------|
D-0-0-0-4-4-4---------------|
A---------------------------|
E---------------------------|
One semi tone up:
Fm C# - D#
G# Fm
C#
- D#
G# Fm
C#
Outro:
D#
G# Fm
C#
E---------|-------|----15----15-13-|
B---------|-------|-16----16-------|
G---5-----|-------|----------------|
D-8---8-5-|-8-8-6-|----------------|
A---------|-------|----------------|
E---------|-------|----------------|
D#
G#
E-------------|--8--9--11--15--13--|
B-17-14-17-16-|--8--9--11--15--13--|
G-------------|----------------13--|
D-------------|--------------------|
A-------------|--------------------|
E-------------|--------------------|
Potdevin - Cool Riffs and Hot Lead Guitar Licks - www.lepotdevin.com
77
Where The Boys Are
Too Many Rules
Intro:
E-----|------------------------|
B-----|------------------------|
G--7--|-7-7-7-9-9-9-|-11-11-11-|
D--9--|------------------------|
A-----|------------------------|
E-----|------------------------|
1st stanza:
*
E---------------|-------|----------|------------|
B-10-8----------|-------|----------|------------|
G-----10-10-9-7-|---7---|------7---|-10-10-10---|
D---------------|-10-10-|-10-10-10-|---------10-|
A---------------|-------|----------|------------|
E---------------|-------|----------|------------|
Connie Francis, 1959, (---) Orig chords ˜,
Connie Francis, 1961, (---) Orig chords ˜,
1st stanza: ( x 2 )
*
E-----5-7b---|---5---|-----|---------|-----5---|
B-7/8------7-|-5---7-|-5---|-----8-7-|-5-----8-|
G------------|-------|---7-|-4/5-----|---7-----|
D------------|-------|-----|---------|---------|
A------------|-------|-----|---------|---------|
E------------|-------|-----|---------|---------|
*
E-----------------|----------|---------------|-----|
B---10-8----------|----------|---------------|-8---|
G-------10-10-9-7-|------7---|---------------|--10-|
D-10--------------|-10-10-10-|-10-10-10-10-9-|-----|
A-----------------|----------|---------------|-----|
E-----------------|----------|---------------|-----|
1st x
*
E-----|-------|-------|
B-8-7-|-7-7-5-|---5-7-|
G-----|-------|-8-----|
D-----|-------|-------|
A-----|-------|-------|
E-----|-------|-------|
Chorus:
*
E-----------|---------|------------|-----|-----------|
B-10-10-8---|-------8-|-11-11-10-8-|---8-|-10-10-8---|
G--------10-|-9-9-10--|------------|-10--|--------10-|
D-----------|---------|------------|-----|-----------|
A-----------|---------|------------|-----|-----------|
E-----------|---------|------------|-----|-----------|
2nd x
|---5-7b-|-7-5-----|-5---|
|-8------|-----8-7-|---8-|
|--------|---------|-----|
|--------|---------|-----|
|--------|---------|-----|
|--------|---------|-----|
2nd stanza
A
E-------|---5-7-|-------|-------|---------|
B-------|-8-----|-8-5---|-5-----|---------|
G-7-7-7-|-------|-----7-|-----7-|---4-5-7-|
D-------|-------|-------|-------|-7-------|
A-------|-------|-------|-------|---------|
E-------|-------|-------|-------|---------|
*
E-----------------|---------------|-----------------|
B---10-10-10-10-8-|---------------|------------8----|
G-----------------|-10-7-7-7-9-10-|-9-9-9-9-10---10-|
D-10--------------|---------------|-----------------|
A-----------------|---------------|-----------------|
E-----------------|---------------|-----------------|
A
E---------|---5-7-|-------|---------|---5b-|
B---------|-8-----|-8-5---|-5-5-5-7-|-8----|
G-7-7-7-7-|-------|-----7-|---------|------|
D---------|-------|-------|---------|------|
A---------|-------|-------|---------|------|
E---------|-------|-------|---------|------|
1st stanza: one semitone up
*
E----------------|-------|----------|------------|
B-11-9-----------|-------|----------|------------|
G-----11-11-10-8-|---8---|------8---|-11-11-11---|
D----------------|-11-11-|-11-11-11-|---------11-|
A----------------|-------|----------|------------|
E----------------|-------|----------|------------|...
3rd stanza: ( x )
*
E-----5-7b---|-----|-5---|-----|---------|---------|
B-7/8------7-|-7-5-|---7-|-5---|-----5---|---5-7---|
G------------|-----|-----|---7-|-5-7---5-|-7-----7-|
D------------|-----|-----|-----|---------|---------|
A------------|-----|-----|-----|---------|---------|
E------------|-----|-----|-----|---------|---------|
1st stanza:
one more semitone up
*
E-----------------|-------|----------|------------|
B-12-10-----------|-------|----------|------------|
G------12-12-11-9-|---9---|------9---|-12-12-12---|
D-----------------|-12-12-|-12-12-12-|---------12-|
A-----------------|-------|----------|------------|
E-----------------|-------|----------|------------|...
*
E---5-7---|-7-5--5----|----------------|
B-8-----8-|-----8---8-|----------------|
G---------|-----------|----------------|
D---------|-----------|----------------|
A---------|-----------|----------------|
E---------|-----------|----------------|
4th stanza
*
E-----6-8b---|-----|-6---|-----|---------|---------|
B-8/9------8-|-8-6-|---8-|-6---|-----6---|---6-8---|
G------------|-----|-----|---8-|-6-8---6-|-8-----8-|
D------------|-----|-----|-----|---------|---------|
A------------|-----|-----|-----|---------|---------|
E------------|-----|-----|-----|---------|---------|
*
E---6-8---|-8-6---|-6-|---|
B-9-----9-|-----9-|---|-9-|
G---------|-------|---|---|
D---------|-------|---|---|
A---------|-------|---|---|
E---------|-------|---|---|
Outro:
|-6--8--------------|
|-6--8--9--6--------|
|------10--6--6---8-|
|-------------6--10-|
|-------------------|
|-------------------|
Whistle your favorite tunes.
78
Potdevin - Cool Riffs and Hot Lead Guitar Licks - www.lepotdevin.com
Someone Else´s Boy
Frankie
Intro:
*
Oh, wow wow wow...
E---8-6-----------|---8-6-----|
B-6-----8-6---9-6-|-6-----8-6-|
G-----------8-----|-----------|
D-----------------|-----------|
A-----------------|-----------|
E-----------------|-----------|
Intro:
D#
Ah ah ah ah ah ah....
E------------|---------|---|--------|-------|--------|
B------------|---------|---|----6---|-------|----8-6-|
G------------|-----8-7-|---|-5-7--8-|-7-8-5-|-7-8----|
D--------0-1-|-8-10----|-8-|--------|-------|--------|
A-1-1-1-3----|---------|---|--------|-------|--------|
E------------|---------|---|--------|-------|--------|
Connie Francis, 1958, (---) Orig chords ˜,
Connie Francis, 1959, (---) Orig chords ˜,
1st stanza ( x 2 )
*
E-----------|---6-------|-----------|---6--------|
B-------9-6-|-9---8-6---|-------9-6-|-9---8-6----|
G-8-5-8-----|---------8-|-8-5-8-----|----------8-|
D-----------|-----------|-----------|------------|
A-----------|-----------|-----------|------------|
E-----------|-----------|-----------|------------|
1st x
2nd x
*
E-----------|-------------| |-------| |-----|---------|
B---------6-|-6-------6---| |-------| |-----|---------|
G-8-8-8-8---|---6-6-8---8-| |-8-8-5-| |-5---|---5-----|
D-----------|-------------| |-------| |---6-|-8---8-6-|
A-----------|-------------| |-------| |-----|---------|
E-----------|-------------| |-------| |-----|---------|
1st stanza: ( x 2 )
*
E----------|-----------|----------|-------6----|
B-8---8-6--|-------8-6-|-8---8-6--|------6-8-6-|
G----8---8-|-5-7-8-----|----8---8-|-5-7-8------|
D---8------|-----------|---8------|------------|
A----------|-----------|----------|------------|
E----------|-----------|----------|------------|
1st x
2nd x
*
E-6-6-6-6b--|-8b-6------| |------| |-----|---|------|
B---------8-|-----9-8-6-| |--6-8-| |--6--|-6-|-8-6--|
G-----------|-----------| |-8----| |-8-8-|---|----8-|
D-----------|-----------| |------| |-----|---|------|
A-----------|-----------| |------| |-----|---|------|
E-----------|-----------| |------| |-----|---|------|
2nd stanza
*
E-------|-------6-----|-----|-----------|
B-9-6-6-|-6-8-9-------|-9-6-|-9-8-6-8---|
G-------|---------8-8-|-----|---------8-|
D-------|-------------|-----|-----------|
A-------|-------------|-----|-----------|
E-------|-------------|-----|-----------|
2nd stanza
*
E------|--6-7-6-|-------|----6--|-------|--------|
B--9-9-|-9------|-9-8-8-|-8-9-9-|-8-6-6-|--6-8-6-|
G-8----|--------|-------|-------|-------|-5---8--|
D------|--------|-------|-------|-------|--------|
A------|--------|-------|-------|-------|--------|
E------|--------|-------|-------|-------|--------|
*
E-----|-------6-----|---------|-----|-----|-8-6-----|
B-8-6-|-6-8-9-------|---6-6-6-|-6-8-|-9-8-|-----8-6-|
G-----|---------8-8-|-8-------|-----|-----|---------|
D-----|-------------|---------|-----|-----|---------|
A-----|-------------|---------|-----|-----|---------|
E-----|-------------|---------|-----|-----|---------|
*
E-----------------|-----6-|-7-|
B---6--6-6--6-6-6-|-8-6---|---|
G-5---------------|-------|---|
D-----------------|-------|---|
A-----------------|-------|---|
E-----------------|-------|---|
Edy, Edy
Angelica Maria, 1963, (Campbell, Smith, - Manzanero) Orig chords ˜,
Intro:
* ( x 3 ) *
E-5-5-----|-5----------------|
B-----7---|---7-8-5-7---5----|
G-------7-|-----------7--6-7-|
D---------|------------------|
A---------|------------------|
E---------|------------------|
Main riff:
*
E---------5-7-5-------|-------|-------|-------|
B-------7-------7---5-|-------|-------|-7---5-|
G-7-7-7-----------7---|-7-7-7-|-7-7-7-|---7---|
D---------------------|-------|-------|-------|
A---------------------|-------|-------|-------|
E---------------------|-------|-------|-------|
3rd stanza:
one semitone up
*
E-------------|--------7----|-----------------|
B-9-9--9-9-7--|-----7-9-9-7-|-6-9--9-9--9-7---|
G-----------9-|-6-9---------|---------------9-|
D-------------|-------------|-----------------|
A-------------|-------------|-----------------|
E-------------|-------------|-----------------|
*
E--------7----|-7-7-7-7b--|-9b-7-------|--------|
B-----7-9-9-7-|---------9-|-----10-9-6-|---7----|
G-6-9---------|-----------|------------|-9----9-|
D-------------|-----------|------------|--------|
A-------------|-----------|------------|--------|
E-------------|-----------|------------|--------|
Guitar outro:
*
E---|-----------|-------|-----------|
B---|-------7---|-------|-------9-7-|
G---|---6-8---9-|-8-9-6-|-6-8-9-----|
D-9-|-9---------|-------|-----------|
A---|-----------|-------|-----------|
E---|-----------|-------|-----------|
*
whispering
*
*
E---------5-7-5-------|---5-----------|----5---------|
B-------7-------7---5-|-7---7-8-5-7---|-5----7-8-5---|
G-7-7-7-----------7---|-------------7-|---7--------7-|
D---------------------|---------------|--------------|
A---------------------|---------------|--------------|
E---------------------|---------------|--------------|
Potdevin - Cool Riffs and Hot Lead Guitar Licks - www.lepotdevin.com
79
I Will Follow Him
Little Peggy March, 1963, (Plante, Stole, Altman, Gimbel) Orig chords ˜,
Intro - chorus:
C
Am
E-----|------|------|----------|-----|------|------|
B-----|------|------|----------|-----|------|------|
G-----|------|------|----------|-----|------|------|
D-----|------|------|----------|-----|------|------|
A-3-3-|--3-3-|--3-3-|--3-2-0---|-0-0-|--0-0-|--0-0-|
E-----|-3----|-3----|-3------3-|-----|-0----|-0----|
C
Am
E--------|-----|------|------|-------------|------|-------|
B--------|-1-1-|--1-1-|--1-1-|--1-0--------|------|-------|
G--------|-----|-0----|-0----|-0---2-0-2-2-|--2-2-|---2-2-|
D--------|-----|------|------|-------------|-2----|-2-2-2-|
A--0-0-2-|-----|------|------|-------------|------|-------|
E-0-3----|-----|------|------|-------------|------|-------|
1st stanza:
( x 2 )
C
Am
F
G
E-----------|-------------------|---5-5-5-5---5---|
B-----------|-----------5-8-5-8-|-8---------5---8-|
G-----5-7-5-|-----5---5---------|-----------------|
D-5-7-------|-5-7---7-----------|-----------------|
A-----------|-------------------|-----------------|
E-----------|-------------------|-----------------|
1st x
2nd x
F
G
C
C
E---5-5-5-5-------| |-------| |-------------|
B-8---------8-6-8-| |-5---5-| |-8-5---5-----|
G-----------------| |---7---| |-----7---7-5-|
D-----------------| |-------| |-------------|
A-----------------| |-------| |-------------|
E-----------------| |-------| |-------------|
Its My Party
Leslie Gore, 1963, (Gluck, Gold, Weiner) Orig chords ˜,
Intro - chorus:
*
E-------------|-----------------------|
B-10-12-12-10-|-10-10-10-h12-12-12-10-|
G-------------|-----------------------|
D-------------|-----------------------|
A-------------|-----------------------|
E-------------|-----------------------|
*
E-----------|---------------|
B-10--------|-----9-9-12-10-|
G---9----11-|-9-9-----------|
D-----11----|---------------|
A-----------|---------------|
E-----------|---------------|
Chorus:
( x 2 )
C
Am
E---------|---------|---------|------------|--------|
B---13-13-|---13-13-|---13-13-|---13-12-10-|--10-10-|
G-12------|-12------|-12------|-12---------|-9------|
D---------|---------|---------|------------|--------|
A---------|---------|---------|------------|--------|
E---------|---------|---------|------------|--------|
1st stanza:
*
E-------------------------|-----------------|
B-------------------------|-----------------|
G-9-9-9-9----9-12-9-------|-9-9-9-9----9-11-|
D---------11--------11----|---------11------|
A----------------------12-|-----------------|
E-------------------------|-----------------|
C
E--------|--------|------------------|
B--10-10-|--10-10-|--10--10-12-13-13-|
G-9------|-9------|-9--12------------|
D--------|--------|------------------|
A--------|--------|------------------|
E--------|--------|------------------|
*
E---------------------|----------------|
B----------10---------|--------10------|
G-10-10-12----9-------|-----11----11-9-|
D---------------11----|-9-9------------|
A------------------12-|----------------|
E---------------------|----------------|
2st stanza:
( x 2 )
C
Am
F
G
E-----------|-------------------|---5-5-5-5---5---|
B-----------|-----------5-8-5-8-|-8-5-5-5-5-5---8-|
G-----5-7-5-|-----5---5---------|-----------------|
D-5-7-------|-5-7---7-----------|-----------------|
A-----------|-------------------|-----------------|
E-----------|-------------------|-----------------|
F
G
C
G
C
E---5-5-5-5---5-8-|-8-10-7---8-|-----|-8-10-7---8-|
B-8---------6-----|--------8---|-----|--------8---|
G-----------------|------------|-----|------------|
D-----------------|------------|-----|------------|
A-----------------|------------|-----|------------|
E-----------------|------------|-----|------------|
High pitch rythm guitar
C
Am F G F G C
/ // /
E--8---------5--1--3--1--3--8--|
B--8---------5--1--3--1--3--8--|
G------------------------------|
D------------------------------|
A------------------------------|
E------------------------------|
80
Potdevin - Cool Riffs and Hot Lead Guitar Licks - www.lepotdevin.com
Torn Between Two Lovers
Mary McGregor, 1976, (---) Orig chords ˜,
Intro:
E-3-3-3-3-5-5-|-------5-3-|----------------------|
B-------------|-6-6-6-----|-4--4-4--4-4-4--3-----|
4G------------|-----------|------------------5-3-|
D-------------|-----------|----------------------|
A-------------|-----------|----------------------|
E-------------|-----------|----------------------|
1st stanza:
*
E--------|----------|-----------------|
B------8-|-8-8--8-8-|-8-8-------------|
G-9-10---|----------|-----10-8-7-8-10-|
D--------|----------|-----------------|
A--------|----------|-----------------|
E--------|----------|-----------------|
*
E-----------------|----------|
B-----------------|----------|
G----7-8--8-8-7-8-|-7-8-10-7-|
D-10--------------|----------|
A-----------------|----------|
E-----------------|----------|
Chorus :
A
E---------------|---------------|
B-8-8-8-8-10-10-|-------------8-|
G---------------|-10-10-10-10---|
D---------------|---------------|
A---------------|---------------|
E---------------|---------------|
*
E-------------|---------------|
B--------8----|---------------|
G-7-8-10---10-|-8-7----7-8-10-|
D-------------|-----10--------|
A-------------|---------------|
E-------------|---------------||
Grandma whistling
cheerfully
Potdevin - Cool Riffs and Hot Lead Guitar Licks - www.lepotdevin.com
81
Sea Of Love
Moon River
Intro:
*
E---|-----|-----|---------|---|-------|---------|
B---|-----|-----|---------|---|-------|---------|
G---|---4-|-4-5-|-5-4-3-2-|---|-2-4-5-|-5-4-2---|
D-5-|-5---|-----|---------|-5-|-------|-------5-|
A---|-----|-----|---------|---|-------|---------|
E---|-----|-----|---------|---|-------|---------|
1st stanza:
*
E-------|-----------|------------|-----|
B-------|-----------|------------|-----|
G---8-6-|-5---------|--5---------|-----|
D-6-----|---8-6---6-|----8-6-----|-----|
A-------|-------9---|--------9-6-|---6-|
E-------|-----------|-9----------|-9---|
Twilights, 1959, (---) Orig chords ˜,
1st stanza:
G
B
Em
A
E-------|--------|---------|-------------|
B-------|-4b-----|---------|-------------|
G-4-4-4-|----4-4-|-2-0-2-0-|-0-4-2-0-2---|
D-------|--------|---------|-----------2-|
A-------|--------|---------|-------------|
E-------|--------|---------|-------------|
Andy Williams, 1959, (---) Orig chords ˜,
*
E-----|-----|-----|-----|-------------|-------|-----|
B-----|-----|-----|-----|-------------|-------|-----|
G-----|-----|-----|-----|---------6-5-|---5---|-----|
D-----|-6---|-----|-6---|-------6-----|-8---8-|-6-8-|
A-8---|---8-|-6---|---8-|-6---8-------|-------|-----|
E---9-|-----|---9-|-----|---9---------|-------|-----|
2nd stanza:
*
E-------|-----------|------------|-----|
B-------|-----------|------------|-----|
G---8-6-|-5---------|--5---------|-----|
D-6-----|---8-6---6-|----8-6-----|-----|
A-------|-------9---|--------9-6-|---6-|
E-------|-----------|-9----------|-9---|
G
A
C
G D G
E---0---------0-|-------|-------|
B-----3-3-0-3---|---0---|-------|
G---------------|-2---2-|-----0-|
D-2-------------|-------|-0-2---|
A---------------|-------|-------|
E---------------|-------|-------|
Fill in:
*
E-------|---------|---------|
B-----1-|-1-------|---------|
G-2-4---|---4-2-0-|-0-------|
D-------|---------|---4-2-0-|
A-------|---------|---------|
E-------|---------|---------|
*
E-------|-----|-------|-----------|------------|
B-------|-----|-------|-----------|------------|
G-------|---6-|-8-6---|-5---------|--5---------|
D-------|-6---|-----6-|---8-6---6-|----8-6---6-|
A-8---8-|-----|-------|-------9---|--------9---|
E---9---|-----|-------|-----------|-9----------|
*
E-------|-----|
B-------|-----|
G-------|-----|
D-------|-----|
A---9-6-|-8---|
E-9-----|---9-|
Chorus:
*
E---|------|---|------|---|-----|-----|
B---|------|---|------|---|-----|-----|
G-7-|-9----|-7-|-9----|---|---7-|-7-7-|
D---|---10-|---|---10-|-9-|-9---|-----|
A---|------|---|------|---|-----|-----|
E---|------|---|------|---|-----|-----|
2nd stanza
*
E-----------|--------|-----------|
B-----------|--------|-----------|
G-----------|-8b-----|-----------|
D-9--9-9--9-|----9-9-|-7----7----|
A-----------|--------|---10---10-|
E-----------|--------|-----------|
*
E---------------|---------------|-------|---------|
B---------------|---------------|-------|---------|
G---------------|---9-7-7---7-9-|-------|---------|
D----9-7----7---|---------9-----|-7-9-7-|---------|
A-10-----10---7-|-7-------------|-------|----7-10-|
E---------------|---------------|-------|-10------|
Fill in:
*
E--------|-----------|-----------|
B--------|-----------|-----------|
G--------|-----------|-----------|
D-7-9-10-|-10-9-7----|-----------|
A--------|--------10-|-10-9-7----|
E--------|-----------|--------10-|
Outro:
*
E--------|----------|
B--------|--------8-|
G--------|----7-9---|
D-7-9-10-|-10-------|
A--------|----------|
E--------|----------|
82
Potdevin - Cool Riffs and Hot Lead Guitar Licks - www.lepotdevin.com
Unchained Melody
Rightous Brothers, 1964, (Alex North, Hy Zaret 1959) Orig chords ˜,
1st stanza:
A
E--------|-------|-----|---------|-----|-------|
B--------|---5---|-----|-----5---|-----|-------|
G-5--7-5-|-7---5-|-5---|-4-7---5-|-7-5-|-------|
D--------|-------|---5-|---------|-----|-----5-|
A--------|-------|-----|---------|-----|-7-8---|
E--------|-------|-----|---------|-----|-------|
A
E-----|-----|-------|-----|---------|-----|-----|
B-----|-----|---5---|-----|---5-----|-----|---8-|
G---5-|-7-5-|-7---5-|-5---|-4---7-5-|-7-5-|-5---|
D-5---|-----|-------|---5-|---------|-----|-----|
A-----|-----|-------|-----|---------|-----|-----|
E-----|-----|-------|-----|---------|-----|-----|
*
E-7--5-7-5---|---------|-----|-----|-----|
B----------8-|-6-8-6-5-|-----|-----|-----|
G------------|---------|-5---|-7-5-|-----|
D------------|---------|---5-|-----|-5---|
A------------|---------|-----|-----|---7-|
E------------|---------|-----|-----|-----|
*
E-------|-----|------------|-------|
B-------|-----|----5---5-8-|-5-----|
G-5-4---|-----|-7----7-----|---7-5-|
D-----7-|-4---|------------|-------|
A-------|---5-|------------|-------|
E-------|-----|------------|-------|
2nd stanza:
*
E---------|------|------|---------|--------|-5------|
B---------|------|------|---------|----5-8-|--5-----|
G-----5-4-|-5-4--|------|-----5-7-|-7-5----|----7-5-|
D--5-7----|----7-|--7-5-|--5-7----|--------|--------|
A-8-------|------|-8----|-8-------|--------|--------|
E---------|------|------|---------|--------|--------|
*
E-----------|-------|-------|-----------|-----------|
B-----------|-------|-------|-----------|-----5-----|
G-------5-4-|-5-4---|-------|-------5-7-|-7-5---7-5-|
D---5-7-----|-----7-|---7-5-|---5-7-----|-----------|
A-8---------|-------|-8-----|-8---------|-----------|
E-----------|-------|-------|-----------|-----------|
1st stanza:
*
E---------|--------|-------|-5---|--------|-------|------|
B---------|---5b---|---5---|---8-|-5-5b---|-5-----|------|
G-5--7b-5-|-7----5-|-7---7-|-----|------5-|---7-5-|------|
D---------|--------|-------|-----|--------|-------|----5-|
A---------|--------|-------|-----|--------|-------|-7-8--|
E---------|--------|-------|-----|--------|-------|------|
*
E----------|--------|-------|-------------|-----|-----|
B---5b-----|-5b-----|---5---|---------5---|-----|---8-|
G-5----7-5-|----7-5-|-7---5-|-5---4-7---5-|-7-5-|-5---|
D----------|--------|-------|---5---------|-----|-----|
A----------|--------|-------|-------------|-----|-----|
E----------|--------|-------|-------------|-----|-----|
Outro:
*
E-5-------12-|-------|----------------|---------------|
B---8-6-8----|-13----|----10----10----|---------------|
G------------|----12-|-12----12----12-|-9-------------|
D------------|-------|----------------|---12-10-12-10-|
A------------|-------|----------------|---------------|
E------------|-------|----------------|---------------|
The art of whisling
*
E--------|-------------|----|-----------|----------|
B--------|-------------|----|-----------|----------|
G--------|-------------|----|-9----9-12-|-9--------|
D-10-----|-10-9--------|-12-|---10------|----12-10-|
A---10---|-----12------|----|-----------|----------|
E-----12-|-------13-10-|----|-----------|----------|
Potdevin - Cool Riffs and Hot Lead Guitar Licks - www.lepotdevin.com
83
Crying
Only The Lonely
1st stanza:
D
E---------|-------|-------|---------|
B---------|-------|-------|-2b------|
G-----2-4-|---2-4-|---2-4-|-----2---|
D-4-4-----|-4-----|-4-----|-------4-|
A---------|-------|-------|---------|
E---------|-------|-------|---------|
Intro:
A
E-----------|-----------|--------------|
B-----------|-----------|--------------|
G-----------|-----------|--------------|
D---5-7-----|---5-7-----|---5-7-5------|
A-8---------|-8-----5-5-|-8-------8-7-7|
E-------8-8-|-----------|--------------|
Roy Orbison, 1961, (Roy Orbison, Joe Melson) Orig chords ˜,
Roy Orbison, 1960, (Roy Orbison, Joe Melson) Orig chords ˜,
A
E-------------|-----------|-------|---------|
B-3-2-3-5-3-3-|-2-3-5-3-3-|-2-3-5-|-3-------|
G-------------|-----------|-------|---4-----|
D-------------|-----------|-------|-----5-2-|
A-------------|-----------|-------|---------|
E-------------|-----------|-------|---------|
A
*
( x2 )
*
E-------------|---------|-----|-------------|---2----|
B-------------|-----2---|-----|-2-3---------|---2--2-|
G-4-4-4-2-4-2-|-2-4---4-|-2-4-|-----2-4---2-|-2------|
D-------------|---------|-----|---------4---|--------|
A-------------|---------|-----|-------------|--------|
E-------------|---------|-----|-------------|--------|
A
E-----|-------|---------|-------|-----------|-----|
B-----|-------|---------|-------|-----------|-----|
G-2---|-------|---------|-------|-----------|-----|
D---5-|-5-5-4-|-2-2-2---|-------|-----2-2---|-2---|
A-----|-------|-------5-|-5-5-4-|-4-5-----5-|---5-|
E-----|-------|---------|-------|-----------|-----|
A
E-----|----------|---------|-------|-------|-------|-----------|
B-----|----------|---------|-------|-------|-------|-----------|
G-----|----------|-------2-|-2-2---|-----2-|-------|-----------|
D-2---|-4--5-4-2-|---------|-------|-------|-------|-----2-2---|
A---5-|----------|-5-4-5---|-----5-|-5-5---|-4-4-4-|-4-5-----5-|
E-----|----------|---------|-------|-------|-------|-----------|
*
E-------|-----------|-----------|
B-------|-----------|-----------|
G-------|-----------|-----------|
D-5-----|-----5-5---|-----5-5---|
A---8-7-|-7-8-----8-|-7-8-----8-|
E-------|-----------|-----------|
1st stanza: ( x 2 )
A
E----------------|-------------|----------|
B-13-10----------|-------10-10-|-11-10----|
G-------12-12-10-|-10-12-------|-------12-|
D----------------|-------------|----------|
A----------------|-------------|----------|
E----------------|-------------|----------|
*
to 2nd
x
E----------------|-------10-10-|-------|
B-11-13-11-10----|----11-------|-13-10-|
G-------------12-|-12----------|-------|
D----------------|-------------|-------|
A----------------|-------------|-------|
E----------------|-------------|-------|
*
E----------------|-------------|
B----------10----|-10-11-10-13-|
G-10-12-10-------|-------------|
D-------------10-|-------------|
A----------------|-------------|
E----------------|-------------|
2nd stanza:
D
E---------|---------|-------|---------|
B---------|---------|-------|-2b------|
G-----2-4-|-----2-4-|---2-4-|-----2---|
D-4-4-----|-4-4-----|-4-----|-------4-|
A---------|---------|-------|---------|
E---------|---------|-------|---------|
*
E----------------|----------------|
B-11-10----11-11-|-11-11-10----12-|
G-------12-------|----------12----|
D----------------|----------------|
A----------------|----------------|
E----------------|----------------|
Whistling birds
A
E-------------|-----------|-------|-------2-|-3-2---|
B-3-2-3-5-3-3-|-2-3-5-3-3-|-3-5-3-|-3---3---|-----5-|
G-------------|-----------|-------|---4-----|-------|
D-------------|-----------|-------|---------|-------|
A-------------|-----------|-------|---------|-------|
E-------------|-----------|-------|---------|-------|
*
E-------------------|-------------|
B-13-13-10----------|-10----------|
G----------12-12-10-|----12-10----|
D-------------------|-------------|
A-------------------|----------13-|
E-------------------|-------------|
*
*
( x 2 )
*
E-----5-|-----|-----5-|-----|-10----7-------|-------|
B-3-3---|-3-3-|-2-3---|-2-2-|----10---7--10-|---7---|
G-------|-----|-------|-----|---------------|-6---6-|
D-------|-----|-------|-----|---------------|-------|
A-------|-----|-------|-----|---------------|-------|
E-------|-----|-------|-----|---------------|-------|
*
E-----|---------------|
B-----|---------------|
G-9-9-|-9-10-12-12-10-|
D-----|---------------|
A-----|---------------|
E-----|---------------|
*
E---|-------|-----|---------|---------|-----|-----|
B---|---7---|-----|---------|---------|-----|-----|
G-7-|-7---6-|---7-|-7-6-7-6-|-7-9-9-7-|-9-7-|-9-7-|
D---|-------|-9---|---------|---------|-----|-----|
A---|-------|-----|---------|---------|-----|-----|
E---|-------|-----|---------|---------|-----|-----|
2nd x
*
E----------------|---10--11-|-10-11-10-13-13-|
B-10-11-10-13-13-|-13--13---|----------------|
G----------------|----------|----------------|
D----------------|----------|----------------|
A----------------|----------|----------------|
E----------------|----------|----------------|
*
E----------|-----|---|------|-------|-------|
B-7--8-7---|---7-|---|-10---|-8--10-|-10-10-|
G--------9-|-7---|-7-|----7-|-------|-------|
D----------|-----|---|------|-------|-------|
A----------|-----|---|------|-------|-------|
E----------|-----|---|------|-------|-------|
84
*
E-13-10-13-15-|-20-17-15-|-17-15----|
B-------------|----------|-------18-|
G-------------|----------|----------|
D-------------|----------|----------|
A-------------|----------|----------|
E-------------|----------|----------|
è
Potdevin - Cool Riffs and Hot Lead Guitar Licks - www.lepotdevin.com
Leah
In Dreams
1st stanza: ( x 2 )
*
*
E-----------------------------|
B-----------------------------|
G-----------------------------|
D---6--6-6-6--6-7--7-7-7--9-6-|
A-7---------------------------|
E-----------------------------|
*
E--------------------------|---------|---------|----------|
B--------------------------|---------|---------|----------|
G---9-9-9-9-9----------9-9-|----9-10-|---------|----------|
D-------------12-10-12-----|-12------|-12-10-9-|-10-12-10-|
A-12-----------------------|---------|---------|----------|
E--------------------------|---------|---------|----------|
Roy Orbison, 1962, (Roy Kelton Orbison) Orig chords ˜,
Roy Orbison, 1963, (Roy Kelton Orbison) Orig chords ˜,
Intro:
Intro:
*
( x 2 )
*
*
E--------------|------|------------|-------|-------| E--------------------------|------------------------|
B-9-7-10---7h9-|----7-|------------|-------|-------| B--------------------------|------------------------|
G--------9-----|------|----6-------|-------|-------| G--------------------------|----------------------9-|
D--------------|-9-9--|-9-9--7-7-9-|-6-6---|-------| D-10-10-10-10-9----9-10-10-|-12-12-12-12-12-10-12---|
A--------------|------|------------|-----9-|-9-7-7-| A---------------12---------|------------------------|
E--------------|------|------------|-------|-------| E--------------------------|------------------------|
*
E---------------------------|--------|
B---------------7-----------|--------|
G---6--6-6-6--6---9-8-6-----|--------|
D-----------------------9-6-|--------|
A-7-------------------------|-10-9-7-|
E---------------------------|--------|
1st stanza: ( x 2 )
*
E-----------|------------|-----------------|----------|
B-----------|------------|-----------------|----------|
G-12-10-9-9-|-12-10-9----|-10-10-9-9-------|-9-9----9-|
D-----------|---------12-|-----------12-12-|-----12---|
A-----------|------------|-----------------|----------|
E-----------|------------|-----------------|----------|
2nd stanza: ( x 2 )
*
E------------------------------|
B------------------------------|
G------------------------------|
D---7--7-7-7--7-8--8-8-8--10-7-|
A-8----------------------------|
E------------------------------|
2nd stanza: ( x )
*
E-------|------|-------|-------|-----------|
B-------|---10-|-------|----10-|-13---13---|
G-12-12-|-9----|-12----|-------|----9----9-|
D-------|------|----12-|-12----|-----------|
A-------|------|-------|-------|-----------|
E-------|------|-------|-------|-----------|
*
E-----------------------------|---------|
B---------------8-------------|---------|
G---7--7-7-7--7---10-9-7------|---------|
D------------------------10-7-|---------|
A-8---------------------------|-11-10-8-|
E-----------------------------|---------|
*
E-------|-------|-10-10----12-10----------|
B-13-13-|-13-13-|-------13-------13-10----|
G-------|-------|----------------------12-|
D-------|-------|-------------------------|
A-------|-------|-------------------------|
E-------|-------|-------------------------|
Outro:
*
( x 2 )
*
E----------------|---------|---------------|------|
B-10-8-11---8h10-|-------8-|---------------|------|
G--------10------|---------|------7--------|------|
D----------------|-10-10---|-10-10--8-8-10-|-7----|
A----------------|---------|---------------|---10-|
E----------------|---------|---------------|------|
*
E----------10-12-|----12-|-10-13-|-12-12-|
B-10-12-13-------|-13----|-------|-------|
G----------------|-------|-------|-------|
D----------------|-------|-------|-------|
A----------------|-------|-------|-------|
E----------------|-------|-------|-------|
*
E----10-12-|-10-13-|-12-12-|
B-13-------|-------|-------|
G------------------|-------|
D------------------|-------|
A------------------|-------|
E------------------|-------|
*
E--------|------|----------|
B--------|------|----11-10-|
G--------|------|----------|
D--------|-9-10-|-10-------|
A-10-8-8-|------|----------|
E--------|------|----------|
*
E-------------|-----------|----------|
B-------10----|-----------|----------|
G-12-12----12-|-9-12-10-9-|-----9----|
D-------------|-----------|--12---12-|
A-------------|-----------|----------|
E-------------|-----------|----------|
*
E-------------|---------|---------|
B-------10----|---------|---------|
G-12-12----12-|----10-9-|----10-9-|
D-------------|-12------|-12------|
A-------------|---------|---------|
E-------------|---------|---------|
*
( x 2 )
*
*
E-----------|----------|-------------|---------------|
E-------------|-------------|------|---------------|
B-----------|----10----|-13-12-10----|---------------|
B-15-17-15----|-11-10-------|------|---------------|
G--------12-|-12-------|-------------|----10-9-------|
G----------17-|-------12----|-10-9-|-9-10-12-12-10-|
D-10-10-----|-------12-|----------12-|-12------12-10-|
D-------------|----------12-|------|---------------|
A-----------|----------|-------------|---------------|
A-------------|-------------|------|---------------|
E-----------|----------|-------------|---------------|
E-------------|-------------|------|---------------|
Potdevin - Cool Riffs and Hot Lead Guitar Licks - www.lepotdevin.com
85
Roman Guitar
Tony Mottola, 1960, (---) Orig chords ˜,
Intro 1st guitar - muted
Dm
C
E----------|-7---------|---------|-5-------|
B----------|---10------|---------|---5-----|
G-7-9-10-7-|------10-7-|-5-7-9-5-|-----5---|
D----------|-----------|---------|-------7-|
A----------|-----------|---------|---------|
E----------|-----------|---------|---------|
B7
Am
E-----------|-------|-----|---------|-----0-|-------|
B---------5-|-------|-----|---0-1-0-|-1-3---|-1-0---|
G-4-5-7-4---|-----1-|-2-1-|-2-------|-------|-----2-|
D-----------|-2-4---|-----|---------|-------|-------|
A-----------|-------|-----|---------|-------|-------|
E-----------|-------|-----|---------|-------|-------|
Intro 2nd guitar
Dm
C
E---------|---------|---------|---------|
B---------|-0-------|---------|---------|
G---------|---2-----|---------|-2-------|
D-0-2-3-0-|-----3-0-|---0-2---|---2-0---|
A---------|---------|-3-----3-|-------3-|
E---------|---------|---------|---------|
B7
A
E-----------|---------|--------------|
B-----------|---------|--------------|
G-----------|---------|-9/14---------|
D-----0---2-|---------|--------------|
A-2-3---2---|-------0-|--------------|
E-----------|-0-2-4---|-------12\5-5-|
1st stanza
*
E-------------|----------------|-------------|---------------|
B----12-12/13-|-12-13-12-------|-------------|---------------|
G-14----------|----------12/14-|-------10/12-|-10-12-10------|
D-------------|----------------|-14-15-------|---------12/14-|
A-------------|----------------|-------------|---------------|
E-------------|----------------|-------------|---------------|
Tony Mottola 1 st guitar andDon Arnone 2nd guitar
Scale
*
E-----|-8-7-|------|-----|--------|
B-----|-----|-10-8-|-7---|--------|
G-----|-----|------|---9-|-7------|
D-----|-----|------|-----|---10-9-|
A-----|-----|------|-----|--------|
E-----|-----|------|-----|--------|
*
Fill
E--------------|-------4-------|
B--------------|-----5---7-5---|
G-7-9-7--------|---6---------6-|
D-------10-9-7-|-6-------------|
A--------------|---------------|
E--------------|---------------|
2nd Stanza
A
E-------------6-|-6-|-6/8-6-----------|-----|
B-------6-8/9---|---|-------9-8-6-8/9-|-6---|
G-5-6-8---------|---|-----------------|---8-|
D---------------|---|-----------------|-----|
A---------------|---|-----------------|-----|
E---------------|---|-----------------|-----|
*
E-----------------|-----|---------|-------|
B-------6-9-6-6/8-|-----|---------|-9\6---|
G-5-6-8-----------|-8-6-|---5-6-8-|-----8-|
D-----------------|-----|-8-------|-------|
*
A-----------------|-----|---------|-------|
E---------|---------|---------|---------|---------|-----------| E-----------------|-----|---------|-------|
B-9-10-12-|-10-12-9-|---------|---------|---------|-----------|
G---------|---------|-9-10-12-|-10-12-9-|-------9-|----9------| *
D---------|---------|---------|---------|-10-12---|-12---8/10-| E-------------6-|-6-|-6-8-6---------|-----|
A---------|---------|---------|---------|---------|-----------| B-------6-8/9---|---|-------9-8p6-9-|-6---|
E---------|---------|---------|---------|---------|-----------| G-5-6-8---------|---|---------------|---8-|
Scale
*
E-------|---------|---------|-4-5-4-5-|-7-8-|
B-------|---------|---5-4-5-|---------|-----|
G-------|-4-5-4-5-|-7-------|---------|-----|
D-7-6-7-|---------|---------|---------|-----|
A-------|---------|---------|---------|-----|
E-------|---------|---------|---------|-----|
*
E---------------------|------------------------------|
B---------------------|------------------------------|
G----7-7/9-7----7/9-7-|-7--7/9--9/10--10/14--13--7/9-|
D-10---------10-------|------------------------------|
A---------------------|------------------------------|
E---------------------|------------------------------|
*
E---------------------|
B-10-12-13-12-10------|
G----------------13\8-|
D---------------------|
A---------------------|
E---------------------|
86
D---------------|---|---------------|-----|
A---------------|---|---------------|-----|
E---------------|---|---------------|-----|
*
E---------------|-----|-6-6-6---------|-------|
B-------6-9-6-8-|-----|-------9-9-8-9-|-------|
G-5-6-8---------|-8-6-|---------------|-------|
D---------------|-----|---------------|-------|
A---------------|-----|---------------|-------|
E---------------|-----|---------------|-------|
Fill
E-------------------|-----------------|
B-------8-6---------|-----------------|
G---5-8-----6/8-6-5-|-------1---------|
D-6-----------------|-----1---4-2-1---|
A-------------------|---3-----------4-|
E-------------------|-4---------------|
Outro scale
E A A
E---------------------------0-1-3-4-5-0--0--5-|
B-----------------------1-3-----------0--2--5-|
G-----------------0-2-4---------------1--2--6-|
D-----------0-2-3---------------------2--2--7-|
A-0---0-2-3---------------------------2--0--7-|
E---4---------------------------------0--0--5-|
Potdevin - Cool Riffs and Hot Lead Guitar Licks - www.lepotdevin.com
Cara de Payaso
Pepe Tulu, 1965, (Barbosa, Reis) Orig chords ˜,
Intro
A#
E-----------------|-------------------------|-------|
B-----------------|-------------------------|-------|
G-----12-11-------|----------------------14-|-------|
D-----------10-12-|----------12-14-16-12----|-13-13-|
A-----------------|-12-13-15----------------|-------|
E-----------------|-------------------------|-------|
Saxo verse
E------------------|-------------------|------------------|----------------------|
B------------------|-------------------|------------------|---------12-10--------|
G-12-12-12-12-12-9-|-11-11-11-11-11----|-11-11-11-11-11-9-|-9-11-12-------11-9---|
D------------------|----------------12-|------------------|-------------------12-|
A------------------|-------------------|------------------|----------------------|
E------------------|-------------------|------------------|----------------------|
*
E------------------|-------------------|------------------|---------------------10-|
B------------------|-------------------|------------------|---------12-10----------|
G-12-12-12-12-12-9-|-11-11-11-11-11----|-11-11-11-11-11-9-|-9-11-12-------12-11----|
D------------------|----------------12-|------------------|------------------------|
A------------------|-------------------|------------------|------------------------|
E------------------|-------------------|------------------|------------------------|
*
( 2 x )
*
E-10-10-10-10----|-10-------|----------|---------|
B-------------13-|----13-12-|-10-------|-12------|
G----------------|----------|----12-11-|----11-9-|
D----------------|----------|----------|---------|
A----------------|----------|----------|---------|
E----------------|----------|----------|---------|
*
E----------------|----------|----------|-----------|
B-12-12-12-12-10-|-12-10----|----------|-----------|
G----------------|-------13-|-11-------|-13b-------|
D----------------|----------|----14-13-|-----13-11-|
A----------------|----------|----------|-----------|
E----------------|----------|----------|-----------|
*
E----------------|----------|------------|-------10\-|
B-10-10-10-10-12-|-10-------|---------10-|---10--10\-|
G----------------|----12-11-|-9-11-12----|-9---------|
D----------------|----------|------------|-----------|
A----------------|----------|------------|-----------|
E----------------|----------|------------|-----------|
Guitar solo *
E------------------|-------------------|------------------|---------------------10-|
B------------------|-------------------|------------------|---------12-10----------|
G-12-12-12-12-12-9-|-11-11-11-11-11----|-11-11-11-11-11-9-|-9-11-12-------12-11----|
D------------------|----------------12-|------------------|------------------------|
A------------------|-------------------|------------------|------------------------|
E------------------|-------------------|------------------|------------------------|
*
E-10----10----------|-------|-10---------------|
B----13----13-12-10-|-------|----12-10---------|
G-------------------|-12-11-|----------12-11-9-|
D-------------------|-------|------------------|
A-------------------|-------|------------------|
E-------------------|-------|------------------|
*
E------------------|----------------|----------|-------|
B------------------|----------------|-12-10----|-------|
G-12-12-12-12-12-9-|-11-11-11-11-11-|-------12-|-11-12-|
D------------------|----------------|----------|-------|
A------------------|----------------|----------|-------|
E------------------|----------------|----------|-------|
Whistling National Champion
Potdevin - Cool Riffs and Hot Lead Guitar Licks - www.lepotdevin.com
87
88
Potdevin - Cool Riffs and Hot Lead Guitar Licks - www.lepotdevin.com
Sleep Walk
Santo & Johnny, 1959, (Farina) Orig chords in C# or capo 1,
Intro:
Fill in
C
Am
F
G
C Am Fm
G
E-----------------5--5--5---5---------------------|-3/5/12\8-|--------------------|
B--5--5--5---5----5--5--5---5---------------------|----------|--------------------|
G--5--5--5---5-------------------3--3--3--3--3/5--|---slide--|--------2-2--2-2/4--|
D--------------------------------4--4--4--4--4/6--|----------|--------3-3--3-3/5--|
A-------------------------------------------------|----------|--------------------|
E-------------------------------------------------|----------|--------------------|
1st stanza
( 2x )
( * whamy bar )
C Am Fm
C Am Fm
C
E--8-----|----------------|--8----|----------------|
B--8--8--|-6--8--9---8--6-|--8--8-|-6--8--9---8--6-|
G--9--9--|-7--9--10--9--7-|--9--9-|-7--9--10--9--7-|
D--*--*--|----------------|--*--*-|----------------|
A--------|----------------|-------|----------------|
E--------|----------------|-------|----------------|
1st time
Fill in
Am F
G
C
Am
Fm
G C
E----------------|----------|-------||-------12----|------------|
B-8----8---------|-----5--5-|-5-5-5-||----10----13-|------------|
G-9--9---9-------|-5-5-4--4-|-------||-12----------|-2-2--2-2/4-|
D-----------10-7-|----------|-------||-------------|-3-3--3-3/5-|
A----------------|----------|-------||-------------|------------|
E----------------|----------|-------||-------------|------------|
2nd time
Am F
G
C
F
C
E----------------|----------|-------||-------------|
B-8----8---------|-----5--5-|-5-5---||-------------|
G-9--9---9-------|-5-5-4--4-|-----5-||-2-2--2-2-9--|
D-----------10-7-|----------|-------||-3-3--3-3-10-|
A----------------|----------|-------|--------------|
E----------------|----------|-------||-------------|
2nd stanza
Fm
C
Am
C
E----------|-12-12-10--------|-12-10-----3--3--|-3/5-----3-|
B----10-10-|----------13-----|-------13--5--5--|-----3/5---|
G----------|-------------13--|-----------------|-----------|
D-10-------|-----------------|-----------------|-----------|
A----------|-----------------|-----------------|-----------|
E----------|-----------------|-----------------|-----------|
Santo & Johnny (Farina Brothers)
Fm
G
Bb
G
C
E----------|-12-10-----------|-12-10-----3--3--|--3--6--6--|--6--3-|-----|---------|
B----10-10-|--------13-------|-------13--5--5--|--5--8--8--|--8--5-|-----|---------|
G----------|-----------13-13-|-----------------|-----------|-------|-----|---------|
D-10-------|-----------------|-----------------|-----------|-------|-----|---------|
A----------|-----------------|-----------------|-----------|-------|-----|---0-2-3-|
E----------|-----------------|-----------------|-----------|-------|-3-3-|-3-------|
Outro: 1st stanza
( 2x )
( * whamy bar )
C Am Fm
C Am Fm
C
E--8-----|----------------|--8----|----------------|
B--8--8--|-6--8--9---8--6-|--8--8-|-6--8--9---8--6-|
G--9--9--|-7--9--10--9--7-|--9--9-|-7--9--10--9--7-|
D--*--*--|----------------|--*--*-|----------------|
A--------|----------------|-------|----------------|
E--------|----------------|-------|----------------|
Fill in
Am F - silence
G G# A
E-------------|-----------------|-3-5-12-8-|-3--4--5-|
B---8---------|-----5--5--4--3--|----------|-3--4--5-|
G-9---9-------|-5-5-4--4--3--2--|----------|-4--5--6-|
D--------10-7-|-----------------|----------|-5--6--7-|
A-------------|-----------------|----------|-5--6--7-|
E-------------|-----------------|----------|-3--4--5-|
Potdevin - Cool Riffs and Hot Lead Guitar Licks - www.lepotdevin.com
89
Stardust
Shadows, 1967, (Hoagy, Carmichael) Orig chords ˜,
Intro:
E
A
G#
E---|-0-4-0-2---0-----|-----|---------0---------|
B---|---------4---2-4-|-2-0-|-----------4-0-----|
G---|-----------------|-----|-2-1-0-1-------1---|
D---|-----------------|-----|-----------------3-|
A---|-----------------|-----|-------------------|
E-0-|-----------------|-----|-------------------|
F#
B Bb A E
E---|--------------|---0-4---|---------------------|
B---|----2-----2-0-|-2-----4-|-----2-----2-0-------|
G---|--2-----2-----|---------|---0-----0-----3-2-1-|
D---|4-----4-------|---------|-1-----1-------------|
A---|--------------|---------|---------------------|
E-2-|--------------|---------|---------------------|
1st stanza:
bend 7
*
E-----------|---------|-----4-4-|----------------|
B-4-5-6-6/7-|-5-------|---------|-(8)\7b-5-------|
G-----------|---6-----|---6-----|----------6-----|
D-----------|-----7-4-|-7-------|------------7-4-|
A-----------|---------|---------|----------------|
E-----------|---------|---------|----------------|
A
E-------|---4-------|---|-----------------|
B-5---5-|-4---4-----|---|---5-------------|
G---4---|-------4---|---|-6---6---4-------|
D-------|---------6-|---|-------7---6-7-4-|
A-------|-----------|---|-----------------|
E-------|-----------|---|-----------------|
*
E-----------|-------------------|---------------|
B-----------|-------------------|-9-9-7-5-------|
G-----4-4-4-|-----4-----4---6-6-|---------6-----|
D-4-6-------|-4-6---4-6---6-----|-----------6-8-|
A-----------|-------------------|---------------|
E-----------|-------------------|---------------|
*
E---------|--------------|---------------|
B-4-------|--------------|-----7---------|
G---------|-5/6---6--4-4-|---6-----6-4-4-|
D---6-5-4-|-----4--------|-4-----4-------|
A---------|--------------|---------------|
E---------|--------------|---------------|
2nd stanza
*
E-----------|---------|-----5-5-|-----------------|
B-4-5-6-6/7-|-5-------|---------|-7b(8\7)-5-------|
G-----------|---6-----|---6-----|-----------6-----|
D-----------|-----7-4-|-7-------|-------------7-4-|
A-----------|---------|---------|-----------------|
E-----------|---------|---------|-----------------|
A
E-------|---4-------|---|-----------------|
B-5---5-|-4---4-----|---|---5-------------|
G---4---|-------4---|---|-6---6---4-------|
D-------|---------6-|---|-------7---6-7-4-|
A-------|-----------|---|-----------------|
E-------|-----------|---|-----------------|
3rd Stanza
E
E---|-12-13-14-14/15-13----------|-------17-17-|
B---|-------------------15-------|----15-------|
G---|----------------------15-12-|-15----------|
D---|----------------------------|-------------|
A---|----------------------------|-------------|
E---|----------------------------|-------------|
*
E-15r13-------------|-13----13-|-12-17-12-------|
B-------15----------|----13----|----------13----|
G----------15-12-12-|----------|-------------14-|
D-------------------|----------|----------------|
A-------------------|----------|----------------|
E-------------------|----------|----------------|
*
E----13-------------------|----------------|
B-15----15----13----------|-------13-12----|
G----------15----14-15-12-|-14-12-------15-|
D-------------------------|----------------|
A-------------------------|----------------|
E-------------------------|----------------|
*
E-------------13-17-12-|-13-15-13----------|
B----------13----------|----------15----15-|
G----12-14-------------|-------------15----|
D-15-------------------|-------------------|
A----------------------|-------------------|
E----------------------|-------------------|
*
E----------------------------|
B-13-15----------------------|
G--------15-17--14-15--------|
D---------------------17--15-|
A----------------------------|
E----------------------------|
Outro:
F
E---5--1-3--0-1----0----------|---|
B-6--------------3----3-1-----|---|
G-------------------------3-2-|---|
D-----------------------------|---|
A-----------------------------|---|
E-----------------------------|---|
E
E-----------|-----------4---|---------------|-------------------|
B-----------|---------5---4-|-5---7-5-------|-------------------|
G-----4-3---|-------4-------|---------6---6-|-4-6----4----------|
D-6-4-----7-|---4-6---------|-----------7---|------7----6-7-4---|
A-----------|-7-------------|---------------|-----------------7-|
E-----------|---------------|---------------|-------------------|
90
Potdevin - Cool Riffs and Hot Lead Guitar Licks - www.lepotdevin.com
Misty
T, 19--, (--) Orig chords ˜,
1 *
Fill in
E-5-----|---------|-7-7-7-5-7-5-------|---------5---|-------5----|
B---7---|---------|-7-----------7-----|-----------8-|-7--8--5----|
G-----6-|-----4-6-|---------------7-4-|-----4-7-----|-7--9-----7-|
D-------|-4-7-----|-------------------|-4-5---------|----------7-|
A-------|---------|-------------------|-------------|------------|
E-------|---------|-------------------|-------------|------------|
*
Fill in
E---------|---------5-|------5-10-|-5-7-5-|-------|
B-5-7-8---|-------5---|----7------|-------|-7-6-5-|
G-------4-|-7-6-7-----|--7--------|-------|-------|
D---------|-----------|-7---------|-------|-------|
A---------|-----------|-----------|-------|-------|
E---------|-----------|-----------|-------|-------|
2 *
E--5--2-----|-2---|-7----7--5-7-5--------|---------5---|
B--5--2--2--|--2--|--7--7---------7------|-----------8-|
G--------2--|---2-|-----------------7-4--|-----4-7-----|
D-----------|-----|----------------------|-4-5---------|
A-----------|-----|----------------------|-------------|
E-----------|-----|----------------------|-------------|
*
Fill in
E--------------|---------|-----------|-10-7------------------|
B--7--8--10----|-5-7-8---|-------5---|------10-7-------------|
G--7--9--11--7-|-------4-|-7-6-7---7-|-----------9-7-------7-|
D------------7-|---------|-----------|---------------9-7-9---|
A--------------|---------|-----------|-----------------------|
E--------------|---------|-----------|-----------------------|
3 *
E---------5-7-8--8--7--8--|-8-7-8/10--8h10-7-|-------|
B---5-7-8-----8--8--7--8--|------------------|-------|
G-7-----------------------|------------------|-------|
D-------------------------|------------------|-------|
A-------------------------|------------------|-------|
E-------------------------|------------------|-------|
*
Fill in
E------------7--9-9-7-9-|-9-7-9-12-9-7----|--------------------------|
B-----7-8-10------------|--------------10-|---10---10---10---10---10-|
G-7-9-------------------|-----------------|--------------------------|
D-----------------------|-----------------|-7----7----7----7----7----|
A-----------------------|-----------------|--------------------------|
E-----------------------|-----------------|--------------------------|
2 *
Fill in
E--5--2-------|-2-----|---5--7----7--5-7-5--------|---------5---|
B--5--2----2--|--2----|--5----7--7---------7------|-----------8-|
G---------2---|---2---|-5--------------------7-4--|-----4-7-----|
D--------2----|----2--|---------------------------|-4-5---------|
A-------------|-------|---------------------------|-------------|
E-------------|-------|---------------------------|-------------|
*
Fill in
E--------------|---------|-----------|-10-7------------------|-------|
B--7--8--10----|-5-7-8---|-------5---|------10-7-------------|-7-F#--|
G--7--9--11--7-|-------4-|-7-6-7---7-|-----------9-7-------7-|-6-C#--|
D------------7-|---------|-----------|---------------9-7-9---|-7-A--|
A--------------|---------|-----------|-----------------------|-5-D---|
E--------------|---------|-----------|-----------------------|-------|
Whistling his way through
Potdevin - Cool Riffs and Hot Lead Guitar Licks - www.lepotdevin.com
91
Same Old Line
Fausto Papetti, 1965, (---) Orig chords ˜,
Guitar and bass accompaniment (picking very near the bridge or muting strings)
Am
C
Am
F
E---|-----------|-----------|-----------|-----------|-----------|
B---|-----------|-----------|-----------|-----------|-----------|
G---|-----------|-----------|---0---0---|---0---0---|-----------|
D---|---2---2---|---2---2---|-2---2-----|-2---2-----|---2---2---|
A-0-|-3---3---0-|-3---3-----|---------3-|---------0-|-3---3-----|
E---|-----------|---------3-|-----------|-----------|---------1-|
F
E
E-----------|-----------|
B-----------|-----------|
G-----------|-----------|
D-----------|---------2-|
A-0-3-0-3---|-0-3-0-3---|
E---------1-|-----------|
Intro:
C
E---------------------|-------9/10-|----10-------|
B-12/13---12-13--9/10-|-12-13------|-13----11/12-|
G---------------------|------------|-------------|
D---------------------|------------|-------------|
A---------------------|------------|-------------|
E---------------------|------------|-------------|
C
E-------------|-------9/10-|----10-10/12-|
B-10-12-12/13-|-12-13------|-13----------|
G-------------|------------|-------------|
D-------------|------------|-------------|
A-------------|------------|-------------|
E-------------|------------|-------------|
1st stanza
Am
E---------|-------|---------|-----|-------|
B---------|-------|---------|-----|-------|
G---4-5/7-|-5-4---|---4-5-4-|-----|-------|
D-7-------|-----7-|-7-------|-7\5-|-------|
A---------|-------|---------|-----|-7-5-7-|
E---------|-------|---------|-----|-------|
Am
E---------|-----------|-------|---|-----------|
B---------|-----------|-------|---|-----------|
G---------|-----------|-------|---|-----------|
D---------|-----------|-----7-|-5-|-7-5-7-5---|
A-7-5-7-3-|-5-7-5-7-3-|-5-7---|---|---------7-|
E---------|-----------|-------|---|-----------|
Bridge
Am
F
E-------------|-------------|-------------|-------------|
B-------------|-------------|-------------|-------------|
G---4-5-5-4---|---4-5-5-4---|---4-5-5-4---|---4-5-5-4---|
D-7---------7-|-7---------7-|-7---------7-|-7---------7-|
A-------------|-------------|-------------|-------------|
E-------------|-------------|-------------|-------------|
Am
E---|---------|-----|-------|-------------|
B---|---------|-----|-------|-------------|
G---|-----4-5-|-4---|-4-5-7-|---4-5-7-5-4-|
D-5-|-5-7-----|---7-|-------|-7-----------|
A---|---------|-----|-------|-------------|
E---|---------|-----|-------|-------------|
92
Potdevin - Cool Riffs and Hot Lead Guitar Licks - www.lepotdevin.com
Theme From «A Summer Place»
Ventures, 1969, (Max Steiner) Orig chords ˜,
Intro:
( 2x )
*
E-8---8---8---8---8---8---|-6--6--6--6--6--6--|
B-10--10--10--10--10--10--|-8--8--8--8--8--8--|
G-------------------------|-------------------|
D-------------------------|-------------------|
A-------------------------|-------------------|
E-------------------------|-------------------|
*
( x2 )
*
E---|---------|-----------|-----|-------|-----|
B---|---------|-----------|-----|-------|-----|
G---|---------|-----------|-----|-------|-----|
D---|---------|-------5/7-|-----|---5/7-|-----|
A---|-5-8-7---|-5-8-7-----|-7\5-|-7-----|-7\5-|
E-8-|-------8-|-----------|-----|-------|-----|
1st
|-----|
|-----|
|-----|
|---5-|
|-7---|
|-----|
2nd
|---------|
|---------|
|---------|
|---5-----|
|-7---7/8-|
|---------|
1st stanza
*
E---|-------|-----|-----------|-------|-5/3-3-|
B-6-|-5---5-|-3---|-----------|-----3-|-------|
G---|---5---|---5-|-----5-3-2-|-3-5---|-------|
D---|-------|-----|---3-------|-------|-------|
A---|-------|-----|-5---------|-------|-------|
E---|-------|-----|-----------|-------|-------|
2nd stanza
*
E-------------|---1-0---|---1-0-5-|-0---|-0-3-5-|-0---|
B---------3-1-|-3-----1-|-3-------|---3-|-------|---3-|
G-------0-----|---------|---------|-----|-------|-----|
D---0-2-------|---------|---------|-----|-------|-----|
A-3-----------|---------|---------|-----|-------|-----|
E-------------|---------|---------|-----|-------|-----|
3rd stanza
*
E-0-3-1-|-0-3-1-|-0-3-|-1-1-1-1-1-1-1-1-1-1-1-1-3-4/5-|
B-------|-------|-----|-------------------------------|
G-------|-------|-----|-------------------------------|
D-------|-------|-----|-------------------------------|
A-------|-------|-----|-------------------------------|
E-------|-------|-----|-------------------------------|
*
E-7/10-9\5-|-7/10-9/14-|-------|----12-14-|-------|
B----------|-----------|-14\12-|-14-------|-14\12-|
G----------|-----------|-------|----------|-------|
D----------|-----------|-------|----------|-------|
A----------|-----------|-------|----------|-------|
E----------|-----------|-------|----------|-------|
*
E----12----|-------------|----------14-|-------|----12-14-|-------|
B-14-------|-12/15-14----|-12/15-14----|-14-12-|-14-------|-14\12-|
G-------14-|----------14-|-------------|-------|----------|-------|
D----------|-------------|-------------|-------|----------|-------|
A----------|-------------|-------------|-------|----------|-------|
E----------|-------------|-------------|-------|----------|-------|
Outro:
*
E----12-------|----12-------|---------|---------|---------|----12-------|
B-14----14/15-|-14----14/15-|---------|---------|---------|-14----14/15-|
G-------------|-------------|-6-9-6/7-|---------|-6-9-6/7-|-------------|
D-------------|-------------|---------|---------|---------|-------------|
A-------------|-------------|---------|-4-7-4/5-|---------|-------------|
E-------------|-------------|---------|---------|---------|-------------|
Potdevin - Cool Riffs and Hot Lead Guitar Licks - www.lepotdevin.com
93
Spooky, Traces, Stormy
Ventures, 1969, (Harry Middle Brooks, Mike Shapiro) Orig chords ˜,
Spooky
Intro:
( 4x )
F
Bb
E-----------------------|---------|
B-----------------------|---------|
G-----------------------|---------|
D-----------------------|-1-3-1---|
A--------------0-1-1--1-|-------3-|
E-1-1--0-1-1-4----------|---------|
F
Bb
F Bb
E------------------|---------------|---------|
B------------------|---------------|---------|
G-7/10-10-10-10-10-|---------------|---------|
D------------------|---6-8/9-8p6h8-|-6-8-6---|
A------------------|-8-------------|-------8-|
E------------------|---------------|---------|
Jerry McGee
lead guitar
*
E--------------------|------------|---------|---|
B--------------------|------------|---------|---|
G----10-10-10-10-10p-|------------|---------|---|
D-10-----------------|---6-8/10-8-|-6h8-6---|-6-|
A--------------------|-8----------|-------8-|---|
E--------------------|------------|---------|---|
*
E-----------------|---------------|-----------|---------|-------|
B-----------------|---------------|-----------|---------|-------|
G----10-9-10-9h10-|---------------|-----------|---------|-------|
D-10--------------|---6-8/9-8-6---|---6h7-8-8-|-6-8h9-8-|-8-6---|
A-----------------|-8-----------8-|-8---------|---------|-----8-|
E-----------------|---------------|-----------|---------|-------|
*
E--------------|-----------|---------|
B--------------|-----------|---------|
G-8h10-8-10-10-|-----------|---------|
D--------------|---6-8-9-8-|-6-8-6---|
A--------------|-8---------|-------8-|
E--------------|-----------|---------|
2nd part
*
E-13--13--13--13-|------------------|----------|
B-13--13--13--13-|------------------|----------|
G----------------|----13-15--16-16b-|-15-13----|
D----------------|-15---------------|-------15-|
A----------------|------------------|----------|
E----------------|------------------|----------|
*
E--------13-12-13-|----------|----------------|-------|----------|
B-----13----------|----------|----------------|-------|----------|
G-16b-------------|----13-15-|-16-16-16\15-13-|-15-13-|-15-13----|
D-----------------|-15-------|----------------|-------|-------15-|
A-----------------|----------|----------------|-------|----------|
E-----------------|----------|----------------|-------|----------|
*
E----13-11-13-12b-|----------------------|----------|----------|----------------------|
B-13--------------|----------------------|----------|----------|----------------------|
G-----------------|----13-15/17-15-13----|-------13-|-13h15-15-|-13-16-15-13-15-13----|
D-----------------|-15----------------15-|-13h15----|----------|-------------------15-|
A-----------------|----------------------|----------|----------|----------------------|
E-----------------|----------------------|----------|----------|----------------------|
*
E----11-13-|----------------|-------------|----------|
B-13-------|----13----------|-------------|----------|
G5---------|-15----15-13----|-16-15-13----|-15-13----|
D----------|-------------15-|----------15-|-------15-|
A----------|----------------|-------------|----------|
E----------|----------------|-------------|----------|
94
Potdevin - Cool Riffs and Hot Lead Guitar Licks - www.lepotdevin.com
Traces (B. Bule, J. Cobb, E.Gordy)
*
E-------------|-------|-----|-------|-------------|-------|-----|-------|
B---------3---|-------|-----|-------|-------------|-------|-----|-------|
G-2-3-5-5---5-|-5-3-2-|-----|-----2-|---2-3-3-5-3-|-3-2---|-----|-------|
D-------------|-------|-5-4-|-4-5---|-5-----------|-----5-|-3-2-|-2-3-5-|
A-------------|-------|-----|-------|-------------|-------|-----|-------|
E-------------|-------|-----|-------|-------------|-------|-----|-------|
*
E------------|-----------|-----|-------|-----|-----------|
B---3-3-5-6--|-6p5-3-5-6-|-6/8-|-6\5-5-|-5---|-----------|
G-2----------|-----------|-----|-------|---5-|-5-3-2-2\0-|
D------------|-----------|-----|-------|-----|-----------|
A------------|-----------|-----|-------|-----|-----------|
E------------|-----------|-----|-------|-----|-----------|
*
E---------|-------------|---------|-------------|-------|---------|-------------|--------|
B-6-6-6-6-|-6h8p6-5-----|-6-6-6-6-|-6h8p6-5-----|-5-6---|-6h8p6-5-|-------------|--------|
G---------|---------7-5-|---------|---------7-5-|-----7-|---------|-5-5---5-5h7-|--------|
D---------|-------------|---------|-------------|-------|---------|-----7-------|-3-3--5-|
A---------|-------------|---------|-------------|-------|---------|-------------|--------|
E---------|-------------|---------|-------------|-------|---------|-------------|--------|
Saxo
*
E-------------|---------|-----|--------|-----------|-------|-----|-------|
B-------3h4---|---------|-----|--------|-----------|-------|-----|-------|
G-3-4-6-----6-|-5/6-4-3-|-----|--------|---3-4-6-4-|-4-3---|-----|-------|
D-------------|---------|-6-5-|-5-6-8\-|-6---------|-----6-|-4-3-|-3-4-6-|
A-------------|---------|-----|--------|-----------|-------|-----|-------|
E-------------|---------|-----|--------|-----------|-------|-----|-------|
Guitar
*
E|-----------|-----------|-------|---------|-----|-------|-------|
B|---4-4-6-7-|-7p6-4-6-7-|-7h9-9-|-7\6-6---|-----|-------|-------|
G|-3---------|-----------|-------|-------6-|-6\4-|-3-3\1-|-------|
D|-----------|-----------|-------|---------|-----|-------|-8\4-4-|
A|-----------|-----------|-------|---------|-----|-------|-------|
E|-----------|-----------|-------|---------|-----|-------|-------|
Stormy
(B. Bule, J. Cobb)
*
E-------------|---------|------8--------|-------|-------------|----------|
B-8h10-8------|---------|-8h10---8------|-------|-8h10-8------|----------|
G--------10-9-|----7-10-|----------10-9-|-------|--------10-9-|-9-7----7-|
D-------------|-10------|---------------|-10----|-------------|-----10---|
A-------------|---------|---------------|----10-|-------------|----------|
E-------------|---------|---------------|-------|-------------|----------|
Humming Birds Trio
Potdevin - Cool Riffs and Hot Lead Guitar Licks - www.lepotdevin.com
95
Blowing In The Wind
Instumental, 1965, (Bob Dylan) Orig chords ˜,
Intro:
F
G
C
F
G
C
E---------|-------|-----------|---------|-----|---------|
B-6-6-5-3-|-----3-|-5-6-5-3---|-----6-6-|-5-3-|-3-------|
G---------|---4---|---------5-|-4-5-----|-----|---5-4-5-|
D---------|-5-----|-----------|---------|-----|---------|
A---------|-------|-----------|---------|-----|---------|
E---------|-------|-----------|---------|-----|---------|
1st stanza
G
C
F
C
F
G
E---------------|----------|-------|-------|-------|-----------|
B---------------|----------|-------|-------|-------|-----------|
G---------------|-0-0--0-2-|-3-2-0-|-------|-----0-|-0-2-0---0-|
D---------0-2-3-|----------|-------|-2-0---|-2-3---|-------3---|
A---0-2-3-------|----------|-------|-----3-|-------|-----------|
E-3-------------|----------|-------|-------|-------|-----------|
G
C
F
C
F
G
E---------------|----------|-------|-------|-------|------------|
B---------------|----------|-------|-------|-------|------------|
G---------------|-0-0--0-2-|-3-2-0-|-------|-----0-|-0----------|
D---------0-2-3-|----------|-------|-2-0---|-2-3---|---3--2-2-0-|
A---0-2-3-------|----------|-------|-----3-|-------|------------|
E-3-------------|----------|-------|-------|-------|------------|
G
C
F
C
F
G
E---------------|----------|-------|-------|-------|-----------|
B---------------|----------|-------|-------|-------|-----------|
G---------------|-0-0--0-2-|-3-2-0-|-------|-----0-|-0-2-0---0-|
D---------0-2-3-|----------|-------|-2-0---|-2-3---|-------3---|
A---0-2-3-------|----------|-------|-----3-|-------|-----------|
E-3-------------|----------|-------|-------|-------|-----------|
Chorus:
F
G
C
F
G
C
E-----------|-------|-----------|---------|-----|---------|
B-----------|-------|-----------|---------|-----|---------|
G-----------|-------|-----------|---------|-----|---------|
D-2-3-3-2-0-|-------|-2-3-2-0---|-----3-3-|-2-0-|-0-------|
A-----------|---0-2-|---------3-|-2-3-----|-----|---3-2-3-|
E-----------|-3-----|-----------|---------|-----|---------|
Whistle like the wind
Arperggio: ( x 3 )
C
F
C
C
E-----0------0------|-----1------1------|-----0------0--------0-|
B---1------1------1-|---1------1------1-|---1------1------1---1-|
G-0------0------0---|-2------2------2---|-0------0------0-----0-|
D-------------------|-------------------|---------------------2-|
A-------------------|-------------------|---------------------3-|
E-------------------|-------------------|-----------------------|
C
F
G
E-----0------0------|-----1------1------|--1--|
B---1------1------1-|---1------1------1-|--0--|
G-0------0------0---|-2------2------2---|--0--|
D-------------------|-------------------|--0--|
A-------------------|-------------------|--2--|
E-------------------|-------------------|--3--|
Chorus:
F
G
C
C
F
G
C
E--1-------1--|----0--|--------0-|----1--|----1--|-------0--|
B--1-------0--|----1--|--------1-|----1--|----0--|-------1--|
G--2-------0--|----0--|--------0-|----2--|----0--|-------0--|
D--3--3-2--0--|-0--2--|-3-2-0--2-|-2--3--|-2--0--|-0-----2--|
A--3-------2--|----3--|--------3-|----3--|----2--|---3-2-3--|
E--1-------3--|----0--|--------0-|----1--|----3--|-------0--|
96
Potdevin - Cool Riffs and Hot Lead Guitar Licks - www.lepotdevin.com
2nd Stanza
G
C
F
C
F
G
E--------------------------|-----------|---------|--------|-------------|-------------|
B--------------------------|-8-8--8-10-|-11-10-8-|--------|-----------8-|-8-10-8----8-|
G-------------------7-9-10-|-----------|---------|-9-7----|---------9---|--------10---|
D------------7-9-10--------|-----------|---------|-----10-|-10-9-10-----|-------------|
A---------10---------------|-----------|---------|--------|-------------|-------------|
E--------------------------|-----------|---------|--------|-------------|-------------|
G
C
F
C
F
G
E--7--8--10--8--7--5--3--1-|-----------|---------|--------|-------------|-----------------|
B--7--8--10--8--7--5--3--1-|-8--8-8-10-|-11-10-8-|--------|-----------8-|-8-8-10-8--------|
G--------------------------|-----------|---------|-9-7----|---------9---|----------10-9-7-|
D--------------------------|-----------|---------|-----10-|-10-9-10-----|-----------------|
A--------------------------|-----------|---------|--------|-------------|-----------------|
E--------------------------|-----------|---------|--------|-------------|-----------------|
G
C
F
C
F
G
E--------------------------|-----------|--8------|--------|-------------|-------------|
B-----------------8--------|---------8-|10--10-8-|--------|-----------8-|-8-10-8----8-|
G-------------8/9---9-7----|--8/9-10---|---------|-9-7----|---------9---|--------10---|
D-----------------------10-|-----------|---------|-----10-|-10-9-10-----|-------------|
A--------------------------|-----------|---------|--------|-------------|-------------|
E--------------------------|-----------|---------|--------|-------------|-------------|
Chorus: ( x 2 )
F
G
C
F
G
C
E-----------|-------|-----------|---------|-----|---------|
B-----------|-------|-----------|---------|-----|---------|
G-----------|-------|-----------|---------|-----|---------|
D-2-3-3-2-0-|-------|-2-3-2-0---|-----3-3-|-2-0-|-0-------|
A-----------|---0-2-|---------3-|-2-3-----|-----|---3-2-3-|
E-----------|-3-----|-----------|---------|-----|---------|
Outro
C
G
E------|---------1-1-|
B------|-------1-----|
G------|-----0-------|
D------|---2---------|
A--3-2-|-3-----------|
Potdevin - Cool Riffs and Hot Lead Guitar Licks - www.lepotdevin.com
97
Fever
Downtown
Intro:
*
E-----------|-------|--------------|-------|
B-----------|-------|--------------|-------|
G-----------|-------|--------------|-------|
D-----------|-------|--------------|-------|
A---3---3---|-------|------3---3---|-------|
E-5---5---5-|-0-4-5-|-0--5---5---5-|-0-4-5-|
1st stanza:
*
E---------|---------------|-------------|-----|
B---------|---------------|---7-----9---|-----|
G---------|-------6-9-6---|-8---8-9-----|-9---|
D-9-9-9-9-|-9-9-9-------9-|-----------9-|---9-|
A---------|---------------|-------------|-----|
E---------|---------------|-------------|-----|
Peggy Lee, 1960, (Cooley, Landa) Orig chords ˜,
Petula Clark, 1965, (---) Orig chords ˜,
1st stanza ( x 2 )
*
* 2nd x *
E-----------------|--------|---------------|
B-----------------|--------|---------------|
G-7-5-7-5-7---5-7-|--------|-7-5-7-5-7-----|
D-----------7-----|-7-7-7--|-----------7-7-|
A-----------------|--------|---------------|
E-----------------|--------|---------------|
*
E----------|----------|---------------|
B---10-9-9-|-7-10-9-9-|-7---7---------|
G----------|----------|---9---9-8-6-9-|
D-9--------|----------|---------------|
A----------|----------|---------------|
E----------|----------|---------------|
Chorus:
*
E-----------|---------|----------------|-5--5-|
B-----------|---------|----------------|-5--5-|
G-------5---|-8-5-7-5-|-7-5-7-5-7-5----|------|
D-7-7-7---7-|---------|------------7-7-|------|
A-----------|---------|----------------|------|
E-----------|---------|----------------|------|
*
E---------|---------------|--------------------|
B---------|---------------|-----------7---7-7--|
G-8-------|-6-8--6-8--6-8-|-6-8-6-8-9---9------|
D---9-9-9-|---------------|--------------------|
A---------|---------------|--------------------|
E---------|---------------|--------------------|
*
E---------|----------------|
B---------|----------------|
G-7-5-7-5-|-7-5-7-5-7-5----|
D---------|------------7-7-|
A---------|----------------|
E---------|----------------|
3rd stanza:
*
E-------------|-----------|-5-----|-----------|
B-------------|-----------|-------|-----------|
G-7-5-7---5-7-|-8-8-7-5---|---8-8-|-8-8-7-5---|
D-------7-----|---------7-|-------|---------7-|
A-------------|-----------|-------|-----------|
E-------------|-----------|-------|-----------|
*
*Chorus
E---------------------|----------|
B---------------------|----------|
G-----7-5-7-5-7-5-----|-------5--|
D-7-7-------------7-7-|-7-7-7--7-|
A---------------------|----------|
E---------------------|----------|
4th stanza:
A
E---------|---------|---------------|
B---------|---------|---------------|
G-5-------|-------5-|-5-------------|
D---7-7-5-|-7-5-7---|---7-7-5-7-5-7-|
A---------|---------|---------------|
E---------|---------|---------------|
Mammas & The Pappas, 1967, (---) Orig chords ˜,
1st stanza
*
E----------------|---------------------|
B----------------|-------------5-------|
G-5-4-5-4---5--4-|-5-4-5-4---6---6-4---|
D---------7------|---------7---------7-|
A----------------|---------------------|
E----------------|---------------------|
*
E-------------------|---------------|
B-------------------|---------------|
G-7-5-7-5---7-5---5-|-----5-7-8-8-7-|
D---------7-----7---|-5-7-----------|
A-------------------|---------------|
E-------------------|---------------|
2nd stanza
E-5---5-------------|-5---5-----|
B---7---7-5---5-----|---7---7-5-|
G-----------6-------|-----------|
D---------------4-6-|-----------|
A-------------------|-----------|
E-------------------|-----------|
A
E---------|---------|-----------------|
B---------|---------|-----------------|
G-5-------|-------5-|-7-5-7-5-7-5-----|
D---7-7-5-|-7-5-7---|-------------7-7-|
A---------|---------|-----------------|
E---------|---------|-----------------|
One semitone up:
*
E-----------|-------|-----------|-------------|
B-----------|-------|-----------|-------------|
G-----------|-------|-----------|-8-6-8---6-8-|
D-----------|-------|-3---------|-------8-----|
A---4---4---|-------|---6-4-3---|-------------|
E-6---6---6-|-1-5-6-|---------6-|-------------|
98
Dream A Little Dream
*
E-5---5-------------||-5---5----------|
B---7---7-5---5-----||---7-------9-\8-|
G-----------6-------||-------6\5------|
D---------------4-6-||----------------|
A-------------------||----------------|
E-------------------||----------------|
Variation
E-5---5-------------||-5---5-------------|
B---7---7-5---5-----||---7-------9-----8-|
G-----------6-------||-------6\5---6\5---|
D---------------4-6-||-------------------|
A-------------------||-------------------|
E-------------------||-------------------|
Potdevin - Cool Riffs and Hot Lead Guitar Licks - www.lepotdevin.com
Strangers In The Night
Something Stupid
Intro:
*
E-------------|--------------|----------------|
B----8-8----8-|----8-10-8----|----------------|
G-10-----10---|-10--------10-|-9-10-10-9-10---|
D-------------|--------------|----------------|
A-------------|--------------|----------------|
E-------------|--------------|----------------|
Intro:
*
E----------7-7-----------|-7-------------------|
B-----9-10-----10-10-9-7-|---10-10-9-7---------|
G-9-9--------------------|---------------6-8-9-|
D------------------------|-------------9-------|
A------------------------|---------------------|
E------------------------|---------------------|
Frank Sinatra, 1966, (---) Orig chords ˜,
1st stanza:
*
E-----------|-----------|-----------|-----------|
B-----------|-----------|-----------|-----------|
G-----------|-----2-----|-----------|-----------|
D-3-5-5-3-5-|-3-5---5-3-|-2-3-3-2-3-|-2-3-5-3-2-|
A-----------|-----------|-----------|-----------|
E-----------|-----------|-----------|-----------|
*
E-----------|-------------|
B-----------|-------------|
G-----------|-----------3-|
D---3-3---3-|---2-3-2-----|
A-5-----5---|-5-------5---|
E-----------|-------------|
2nd stanza:
*
E-----------|---------|-----------|-----------|
B-----------|---------|-----------|-----------|
G---2-2---2-|---2-3---|-----------|-----2-----|
D-5-----5---|-5-----5-|-3-5-5-3-5-|-3-5---5-3-|
A-----------|---------|-----------|-----------|
E-----------|---------|-----------|-----------|
*
E-----------|-------------|
B-----------|-------------|
G-----------|-----------5-|
D-2-3-3-2-3-|-2-3-5-3-2---|
A-----------|-------------|
E-----------|-------------|
3rd stanza:
*
( x 2 )
*
*
E-----------|---------------|-----------|-----------|
B-----------|---------------|-----------|-----------|
G-5-3-3-2-2-|-3-3-5-5-3-3-2-|-3-2-2-----|-3-2-2-----|
D-----------|---------------|-------5-5-|-------5-5-|
A-----------|---------------|-----------|-----------|
E-----------|---------------|-----------|-----------|
*
E---------------------------------|
B---------------------------------|
G-3-2-2-----------2---------------|
D-------5-5-3-2-3---5-5-3-3-2---2-|
A-----------------------------5---|
E---------------------------------|
Frank & Nancy Sinatra, 1967, (---) Orig chords ˜,
1st stanza:
*
E--------------------------------------------|
B--------------------------------------------|
G-----------6-6-6-6--8-8-8-8--9-9-8---6--9-8-|
D-6-9-9-9-9-------------------------9--------|
A--------------------------------------------|
E--------------------------------------------|
*
E---------------------------------------------|
B---------------------------------------------|
G-----------6-6-6-6--8-8-8-8--9-9-8---6-6-8-6-|
D-6-9-9-9-9-------------------------9---------|
A---------------------------------------------|
E---------------------------------------------|
*
E----------------------------7---------------|
B-----------7-7-7-7--9-9-9-9---10-9-10-9-7-7-|
G---9-9-9-9----------------------------------|
D-9------------------------------------------|
A--------------------------------------------|
E--------------------------------------------|
Chorus:
*
E---------|---------|---------|---------|-------|
B---------|---------|---------|---------|-9-7---|
G-6-9-9-9-|-6-8-8-8-|-6-9-9-9-|-6-8-8-8-|-----9-|
D---------|---------|---------|---------|-------|
A---------|---------|---------|---------|-------|
E---------|---------|---------|---------|-------|
2nd stanza:
*
E------------------------------7---------------|
B-------------7-7-7-7--9-9-9-9---10-9-10-9-7-7-|
G-----9-9-9-9----------------------------------|
D-9-9------------------------------------------|
A----------------------------------------------|
E----------------------------------------------|
*
E---------------------------------9-9-9-9-11-9------|
B----7-7-7-7--9-9-9-9--11-11-11-11------------12-12-|
G-6-6-----------------------------------------------|
D---------------------------------------------------|
A---------------------------------------------------|
E---------------------------------------------------|
4th stanza:
*
E-----------|-----------|-----------|-----------|
B-----------|-----------|-----------|-----------|
G-----------|-----2-----|-----------|-----------|
D-3-5-5-3-5-|-3-5---5-3-|-2-3-3-2-3-|-2-3-5-3-2-|
A-----------|-----------|-----------|-----------|
E-----------|-----------|-----------|-----------|
*
E-----------|-------------|
B-----------|-------------|
G-----------|-------------|
D---2-2---2-|-2-3-5-3-2-3-|
A-5-----5---|-------------|
E-----------|-------------|
Potdevin - Cool Riffs and Hot Lead Guitar Licks - www.lepotdevin.com
99
When A Man Loves A Woman
Percy Sledge, 1966, (Calvin Lewis, Andrew Wright) Orig chords
˜,
Intro:
*
E-1-----------1---|
B---4-2-1-2-4---4-|
G-----------------|
D-----------------|
A-----------------|
E-----------------|
1st stanza: ( x 4 )
*
E------------|-----------|----------------|
B-11-11-11-9-|-9----9-11-|----------------|
G------------|---10------|-10-8----8------|
D------------|-----------|------11---8-11-|
A------------|-----------|----------------|
E------------|-----------|----------------|
*
E-----------|------------|
B-----------|------------|
G-10-8----8-|------------|
D------11---|----8-11-11-|
A-----------|-11---------|
E-----------|------------|
2nd stanza: ( x 3 )
*
*
E-------------|------------|
B-------11-11-|-11-11-11-9-|
G-11-11-------|------------|
D-------------|------------|
A-------------|------------|
E-------------|------------|
*
E--------------------8------|
B-11-11-|-11-11-|-11---11-9-|
G---------------------------|
D---------------------------|
A---------------------------|
E---------------------------|
I Don´t Know How To Love Him
Yvonne Elliman, 1973, (---) Orig chords ˜,
Intro:
*
E--------------------|-------------|
B-19--20-19-17-19----|----------17-|
G-----------------19-|-16-18-19----|
D--------------------|-------------|
A--------------------|-------------|
E--------------------|-------------|
1st stanza: ( x 2 )
*
E---------------7----|---------------|-------|
B-7---7-8-7-------10-|-8-7---7-8-7---|-------|
G-----------9-7------|-----9-------9-|-6-----|
D--------------------|---------------|---9-7-|
A--------------------|---------------|-------|
E--------------------|---------------|-------|
*
E---------|--------|-----|-------|-----|-------------|
B-7-7-----|-7-8-10-|-10--|----10-|-10--|---8-7-------|
G-----9---|--------|---7-|-9-7---|---7-|-7-----9-7-9-|
D-------7-|--------|-----|-------|-----|-------------|
A---------|--------|-----|-------|-----|-------------|
E---------|--------|-----|-------|-----|-------------|
* 2nd x * Chorus
E---------|-----------|-----------|-----------|
B---------|-----------|---------7-|-7-7---7-8-|
G-7-6-7-7-|-7-7---7-9-|-9-9-6-9---|-----7-----|
D---------|-----9-----|-----------|-----------|
A---------|-----------|-----------|-----------|
E---------|-----------|-----------|-----------|
*
E---------|-----------8-8-7------|-------|-----|
B-8-8---8-|-10--10-10-------8-10-|-8-7---|-----|
G-----9---|----------------------|-----7-|-9-9-|
D---------|----------------------|-------|-----|
A---------|----------------------|-------|-----|
E---------|----------------------|-------|-----|
Outro:
*
E---------|---------|--------------|
B---------|-7-------|--------------|
G-7-7-7-7-|---9-7-7-|-7-7-9p7h9--7-|
D---------|---------|--------------|
A---------|---------|--------------|
E---------|---------|--------------|
Humming is fun too !
100
Potdevin - Cool Riffs and Hot Lead Guitar Licks - www.lepotdevin.com
Killing Me Softly
Saving All My Love For You
Intro:
*
E------------------|--------------|--------------------|
B-9-9-9------------|-8-8-8--------|-------------9-8----|
G-------10----8----|-------8------|----------10-----10-|
D----------10---11-|---------8-10-|-10-10-10-----------|
A------------------|--------------|--------------------|
E------------------|--------------|--------------------|
1st stanza
*
( x 2 )
*
E------|---------|-------|-------|
B-10-9-|-------7-|-------|-------|
G------|-9-6-9---|-6-6-6-|-------|
D------|---------|-------|-7---7-|
A------|---------|-------|---9---|
E------|---------|-------|-------|
Roberta Flack, 1973, (Charles Fox, Norman Gimbel) Orig chords ˜,
Whitney Houston, 1985, (Gerald Goffin, Michael Masser) Orig chords ˜,
*
E--------------|--------|--------------|---------|
B-11-11-11-9-8-|---8----|-------9------|---------|
G--------------|-8---10-|-10-10---10-8-|----8----|
D--------------|--------|--------------|-10---11-|
A--------------|--------|--------------|---------|
E--------------|--------|--------------|---------|
*
( x2 )
*
E-------|-------|-------|-----|----9-|----9-7-|
B-------|-7-----|-------|---7-|-10---|-10-----|
G-----6-|---6---|-----7-|-9---|------|--------|
D-7-9---|-----9-|-7-9---|-----|------|--------|
A-------|-------|-------|-----|------|--------|
E-------|-------|-------|-----|------|--------|
*
E---------------|--------|
B---------------|--------|
G---------------|--------|
D-11-11-10-10-8-|-8-8-10-|
A---------------|--------|
E---------------|--------|
*
E----7-9-9-7-7----|------|
B-10-----------10-|-7-10-|
G-----------------|------|
D-----------------|------|
A-----------------|------|
E-----------------|------|
1st stanza:
*
E---------------|-------------|---------------|
B-------6-------|-6-----------|-------6---6-8-|
G-5-6-8---8---8-|---8-6-5-6---|-5-6-8---8-----|
D-----------8---|-----------6-|---------------|
A---------------|-------------|---------------|
E---------------|-------------|---------------|
2nd stanza
*
E---------|---------------|---------------|-----|
B---------|---------------|-------7---7---|-9-9-|
G-6-6-7-6-|---------------|-9-9-9---9---6-|-----|
D---------|-6-7---7---7-9-|---------------|-----|
A---------|-----9---9-----|---------------|-----|
E---------|---------------|---------------|-----|
*
E-------------|---------------|---------------|
B-8-9-8-6---6-|-9-6-----------|-------5-5-6-8-|
G---------8---|-----6-5---5-6-|-8-8-8---------|
D-------------|---------8-----|---------------|
A-------------|---------------|---------------|
E-------------|---------------|---------------|
*
E--------|------------------|---7-7-7-7-7-7-12-|
B-9-10-9-|-7--------------9-|-9----------------|
G--------|---10-8-10-8-10---|------------------|
D--------|------------------|------------------|
A--------|------------------|------------------|
E--------|------------------|------------------|
*
E---------------|-------------|---------------|
B-9-9-9-6-------|-8-8-8-------|-------6-9-8-6-|
G---------5-8-6-|-------8---5-|-5-5-5---------|
D---------------|---------8---|---------------|
A---------------|-------------|---------------|
E---------------|-------------|---------------|
1st stanza: all
So I´m saving all..*
( x 2 )
*
E|---| |----7-9-9-7-7----|------7-9-9-7-7----|---12-|
B|---| |-10-----------10-|-7-10-----------10-|-7----|
G|---| |-----------------|-------------------|------|
D|---| |-----------------|-------------------|------|
A|---| |-----------------|-------------------|------|
E|---| |-----------------|-------------------|------|
*
E-6-6-6-----|-------|-----------|-------|
B-------9-8-|---8-6-|-6-6-8-6---|-------|
G-----------|-8-----|---------8-|-5-8-6-|
D-----------|-------|-----------|-------|
A-----------|-------|-----------|-------|
E-----------|-------|-----------|-------|
*
E-----------|-------|
B-----------|-------|
G-6-6-5-5---|-----5-|
D---------8-|-8-8---|
A-----------|-------|
E-----------|-------|
No other woman..
E------------|---9-|-7-7-|----7-|
B-10-------7-|-7---|-----|-10---|
G----9-6-9---|-----|-----|------|
D------------|-----|-----|------|
A------------|-----|-----|------|
E------------|-----|-----|------|
Cos tonight...
*
( x 2 )
*
E----7-9-|-9----7-|----7-9-7----9-7----9-7-----|
B-10-----|---10---|-10-------10-----10-----10--|
G--------|--------|----------------------------|
D--------|--------|----------------------------|
A--------|--------|----------------------------|
E--------|--------|----------------------------|
Outro:
So I´m saving... *
( x 2 )
*
E----7-9-9-7-7----|------7-9-9-7-7----|---12-|
B-10-----------10-|-7-10-----------10-|-7----|
G-----------------|-------------------|------|
D-----------------|-------------------|------|
A-----------------|-------------------|------|
E-----------------|-------------------|------||
Singing a la la la la...laugh !
Potdevin - Cool Riffs and Hot Lead Guitar Licks - www.lepotdevin.com
101
Sunny
Bridge Over Trouble Water
1st part
*
( 2x )
*
E-----|---------------------|
B-----|-5-3-----------------|
G-4-4-|-----4-2---------2-4-|
D-----|---------5-5-2-5-----|
A-----|---------------------|
E-----|---------------------|
1st stanza:
*
E-----------|-------|---------|-----|-------------|---|
B-----------|-------|---------|-4---|-------------|-4-|
G-----------|---3---|-5-6-5-3-|---5-|-5-5-3-------|---|
D-6-6-5-3---|-6---5-|---------|-----|-------5-3---|---|
A---------6-|-------|---------|-----|-----------6-|---|
E-----------|-------|---------|-----|-------------|---|
Bobby Hebb, 1967, (---) Orig chords ˜
Simon & Garfunkel, 1969, (Paul Simon) Orig chords ˜,
*
E-------------|-----------|-----------|
B-------------|-----------|-----------|
G-4-2-4-2-----|-2---4-2---|-2---4-2---|
D---------5-5-|---5-----5-|---5-----5-|
A-------------|-----------|-----------|
E-------------|-----------|-----------|
*
E---------|----------------|---3-----|-----|
B---------|----------------|-----6-4-|-6-6-|
G---------|-3--3-----------|---------|-----|
D-5-3---3-|------5-3---3h5-|-5-------|-----|
A-----6---|----------6-----|---------|-----|
E---------|----------------|---------|-----|
*
E-------------|----------------|---------|
B-----3-------|----------------|---------|
G-2-----4-2---|-2----4-4-4-4-2-|---2-----|
D---5-------5-|---5------------|-5---5-2-|
A-------------|----------------|---------|
E-------------|----------------|---------|
Chorus
*
E-3------------------|-------3---|
B---6-4--3-----------|---4-6---4-|
G----------5-5-3---3-|-5---------|
D----------------5---|-----------|
A--------------------|-----------|
E--------------------|-----------|
2nd part...
E-----|---------------------|
B-----|-6-4-----------------|
G-5-5-|-----5-3---------3-5-|
D-----|---------6-6-3-6-----|
A-----|---------------------|
E-----|---------------------|
3rd part...
E-----|---------------------|
B-----|-7-5-----------------|
G-6-6-|-----6-4---------4-6-|
D-----|---------7-7-4-7-----|
A-----|---------------------|
E-----|---------------------|
4th part...
E-----|---------------------|
B-----|-8-6-----------------|
G-7-7-|-----7-5---------5-7-|
D-----|---------8-8-5-8-----|
A-----|---------------------|
E-----|---------------------|
102
Potdevin - Cool Riffs and Hot Lead Guitar Licks - www.lepotdevin.com
Love Me, Please Love Me
Mavie
Michel Polnareff, 1969, (---) Orig chords ˜,
Intro:
G D Em Dm C Dm
-
G Em
C D G -
Franck Pourcel, 1968, (---) Orig chords ˜,
C
G
1st stanza:
G
D
Em
Dm C
Dm
E-------|-------------|-------12-|-19-17-15-|
B-12-12-|-12-12/13-12-|-12-12----|----------|
G-------|-------------|----------|----------|
D-------|-------------|----------|----------|
A-------|-------------|----------|----------|
E-------|-------------|----------|----------|
G
Em
C
E-11-13-11-10----|-----10-12-|----------------|
B-------------12-|--12-------|-12-10----10-12-|
G----------------|-----------|-------12-------|
D----------------|-----------|----------------|
A----------------|-----------|----------------|
E----------------|-----------|----------------|
D
G E------------------------|
B----10---------12-12----|
G-12----12-9----------12-|
D------------12----------|
A------------------------|
E------------------------|
C
G
2nd stanza:
Cmaj7
D
C
E----------|-------------|----------------|
B-12-12-12-|-12-12-12-10-|-10----10-12-10-|
G----------|-------------|----12----------|
D----------|-------------|----------------|
A----------|-------------|----------------|
E----------|-------------|----------------|
Intro:
*
E-------------|----------|-------|----------|
B-------------|----15-17-|-15-17-|-15-------|
G-17-17-17-17-|-17-------|-------|----17-16-|
D-------------|----------|-------|----------|
A-------------|----------|-------|----------|
E-------------|----------|-------|----------|
*
E-----------|-17-15-|----15-|
B-----------|-------|-15----|
G-14--16-17-|-------|-------|
D-----------|-------|-------|
A-----------|-------|-------|
E-----------|-------|-------|
*
E-------|--------------|------------|---------------|
B-------|--------------|------------|---------------|
G-9-7-9-|-9-9-9-7------|-9-7--------|---------------|
D-------|---------10-9-|-----10-9-7-|-7-7-7---------|
A-------|--------------|------------|-------10-8-10-|
E-------|--------------|------------|---------------|
*
( x 2 )
*
E-------|---------------|
B-------|---------------|
G-------|---------------|
D-------|------7--------|
A-10----|----8---8------|
E----10-|-10-------10-8-|
G Cma7
D
E-------------|------|-------------|-------|
B-------------|------|-12-12-12-12-|-12-10-|
G-12-12-12-11-|-9----|-------------|-------|
D-------------|---12-|-------------|-------|
A-------------|------|-------------|-------|
E-------------|------|-------------|-------|
C
Em
Am
E----------------|-----------|-------|
B-10----10-12-10-|-----------|-12-10-|
G----12----------|-9/12-12-9-|-------|
D----------------|-----------|-------|
A----------------|-----------|-------|
E----------------|-----------|-------|
Dm
G
E-------------|----------|
B-10-10/11-11-|-11-11/12-|
G-------------|----------|
D-------------|----------|
A-------------|----------|
E-------------|----------|
Solo:
G
D
Em Dm
C Dm
G
E-----|------------|-------|-7------|------------|
B-----|------------|-------|---10-8-|------------|
G-----|------------|-----9-|--------|-8-10-8-7---|
D-9-9-|-9-9-9/10-9-|-9-9---|--------|----------9-|
A-----|------------|-------|--------|------------|
E-----|------------|-------|--------|------------|
Em
C
D
G
C
G
E-------|-------------|---------------|---------|
B-------|-------------|---------------|---------|
G---7-9-|-------------|---------------|---------|
D-9-----|-9-7-----7-9-|----7----------|-7-7-----|
A-------|------10-----|-10---10--7----|-----10--|
Potdevin - Cool Riffs and Hot Lead Guitar Licks - www.lepotdevin.com
103
Ballade Pour Adeline
Richard Clayderman, 197--, (Paul De Senneville) Orig chords ˜,
Intro:
*
E-------------|-------------|-------------|------------|------------|-------------|
B----13-12-13-|----13-12-13-|----12-11-12-|---12-11-12-|---12-11-12-|----12-11-12-|
G-------------|-------------|-------------|------------|------------|-------------|
D-14----------|-14----------|-12----------|-12---------|-12---------|-12----------|
A-------------|-------------|-------------|------------|------------|-------------|
E-------------|-------------|-------------|------------|------------|-------------|
*
E------------|-----------|------------|------------|----------|----------|
B----10-9-10-|---10-9-10-|----10-9-10-|----10-9-10-|----8-7-8-|----8-7-8-|
G------------|-----------|------------|------------|----------|----------|
D-12---------|-12--------|-10---------|-10---------|-10-------|-10-------|
A------------|-----------|------------|------------|----------|----------|
E------------|-----------|------------|------------|----------|----------|
Section 2 *
E------------|-------------|------------|-------10-11-|
B------------|-10-12-13-10-|---------10-|-12-13-------|
G----9-11-12-|-------------|-9-11-13----|-------------|
D-12---------|-------------|------------|-------------|
A------------|-------------|------------|-------------|
E------------|-------------|------------|-------------|
Serction 3 *
E-12-20-19-20-|---20-19-20-|----19-18-19-|----19-18-19-|----19-18-19-|----19-18-19-|
B-------------|------------|-------------|-------------|-------------|-------------|
G-------------|-21---------|-19----------|-19----------|-19----------|-19----------|
D-------------|------------|-------------|-------------|-------------|-------------|
A-------------|------------|-------------|-------------|-------------|-------------|
E-------------|------------|-------------|-------------|-------------|-------------|
*
E----17-16-17-|----17-16-17-|----17-16-17-|----17-16-17-|----15-14-15-|----15-14-15-|
B-------------|-------------|-------------|-------------|-------------|-------------|
G-19----------|-19----------|-17----------|-17----------|-17----------|-17----------|
D-------------|-------------|-------------|-------------|-------------|-------------|
A-------------|-------------|-------------|-------------|-------------|-------------|
E-------------|-------------|-------------|-------------|-------------|-------------|
Section 2 *
E------------|-------------|------------|-------10----|
B------------|-10-12-13-10-|---------10-|-12-13----12-|
G----9-11-12-|-------------|-9-11-13----|-------------|
D-12---------|-------------|------------|-------------|
A------------|-------------|------------|-------------|
E------------|-------------|------------|-------------|
Section 4
*
E----12-12-|----13-13-|-13-10--------------------|
B-10-------|-10-------|-------12-9---------------|
G----------|----------|------------10------------|
D----------|----------|---------------12-9-------|
A----------|----------|--------------------11-12-|
E----------|----------|--------------------------|
Outro: *
E----------------|---------------|
B----13-12-13----|----10-9-10----|
G----------------|---------------|
D-14----------14-|-11---------11-|
A----------------|---------------|
E----------------|---------------|
104
Potdevin - Cool Riffs and Hot Lead Guitar Licks - www.lepotdevin.com
Je T´aime
Jane Birkin & Serge Gainsbourg, 1969, (--) Orig chords ˜,
Intro:
Bass riff:
E-------|---------------|----------|------------------|
B-------|---------------|----------|------------------|
G-------|---------------|----------|------------------|
D-------|---------------|----------|------------------|
A-------|---8-8--8-8--8-|-10-10-10-|-10--8-8--8-8--8--|
E-8-8-8-|-8-------------|----------|------------------|
*
E-------|---------------------|
B-------|---------------------|
G-------|---------------------|
D-------|---------------------|
A-------|--8-8--8-8--8--10\3--|
E-8-8-8-|-8-------------------|
Organ riff *
E-----------------|------------|---------------||-------------|
B-----------------|------------|---------------||-------10-12-|
G-9-10-9-10/12-12-|-10-9-------|-10-9-10/12-12-||-12-10-------|
D-----------------|------12-12-|---------------||-------------|
A-----------------|------------|---------------||-------------|
E-----------------|------------|---------------||-------------|
1st voice:
*
E-------|-------|---|----------|------------|----------|---------------|
B-----6-|-5-----|---|----------|--5---------|----------|---------------|
G-5-7---|---7-5-|-5-|-5-4------|-----7-5--5-|-5-4------|---------5--7\-|
D-------|-------|---|-----7--7-|-5----------|-----7--7-|-5-7---7-------|
A-------|-------|---|----------|------------|----------|---------------|
E-------|-------|---|----------|------------|----------|---------------|
2nd voice *
E----10-13-|-12-10--------|---------------|----12-10--------|
B-13-------|-------13--13-|-13-12-10---10-|----------13--13-|
G----------|--------------|---------------|-12--------------|
D----------|--------------|---------------|-----------------|
A----------|--------------|---------------|-----------------|
E----------|--------------|---------------|-----------------|
*
E--------------|-------|--------10\-|
B-13-12-10--10-|----10-|-10-13------|
G--------------|-12----|------------|
D--------------|-------|------------|
A--------------|-------|------------|
E--------------|-------|------------|
Potdevin - Cool Riffs and Hot Lead Guitar Licks - www.lepotdevin.com
105
The Way To San Jose
Georgy Girl
1st stanza:
( x 2 )
*
E-------------------------|------------------|
B-----------10------------|------------------|
G-9----9-12---------------|----------9-------|
D---12--------12-12-10-12-|-12-10-12---10-12-|
A-------------------------|------------------|
E-------------------------|------------------|
1st stanza: ( x 2 )
*
E--------------|------------|----------|
B------9-------|------------|----------|
G---11---11-11-|------8-9-8-|----------|
D-9------------|-9-11-------|-9-11-----|
A--------------|------------|------9-9-|
E--------------|------------|----------|
1st x
*
E---------------------------------|---------|
B--------------9------------------|-------9-|
G------8-9-8-----11-9-8-8---------|-11-11---|
D-9-11-------9------------11-9-11-|---------|
A---------------------------------|---------|
E---------------------------------|---------|
2nd x
*
E------------------------------------|
B--------------9--9-10-9-------------|
G------8-9-8-------------9-11--11-11-|
D-9-11-------9-----------------------|
A------------------------------------|
E------------------------------------|
2nd stanza:
*
E--------------------------------------|
B-9-11-12-11------------9--------------|
G------------11-11-8-11---11-11------8-|
D-------------------------------9-11---|
A--------------------------------------|
E--------------------------------------|
*
E-----------------------|-----------|
B------8-9---------9-11-|-9----9----|
G-8-10-----8-10-11------|---11---11-|
D-----------------------|-----------|
A-----------------------|-----------|
E-----------------------|-----------|
Dionne Warwik, 1968, (---) Orig chords ˜,
Seekers, 1966, (Jim Dale, Tom Springfield) Orig chords ˜,
*
E----------------------------|
B----------------------------|
G----------------------------|
D----------------------------|
A-10-10--10-10--10-10--10-10-|
E----------------------------|
2nd stanza:
*
E------------------------|--------------------------|
B-12-10---------------10-|-12-10---------10---------|
G-------12-11-9-11-12----|-------12-11-9----11----9-|
D------------------------|---------------------12---|
A------------------------|--------------------------|
E------------------------|--------------------------|
*
E-------------------------|-------------------------|
B----------------10-13-12-|------13-10-12---10------|
G-9-9-9-9-9-9-12----------|-9-12---------12---10-12-|
D-------------------------|-------------------------|
A-------------------------|-------------------------|
E-------------------------|-------------------------|
*
E-----------|-----------|-----------|-----------|
B-----------|-----------|-----------|-----------|
G-9-10-9-12-|-9-10-9-12-|-9-10-9-12-|-9-10-9----|
D-----------|-----------|-----------|--------12-|
A-----------|-----------|-----------|-----------|
E-----------|-----------|-----------|-----------|
Happy Together
Turtles, 1966, (Gary Bonner, Alan L. Gordon) Orig chords ˜,
Intro:
A
E-5-4-2--2-0-2-|
B--------------|
G--------------|
D--------------|
A--------------|
E--------------|
1st stanza:
A
E-------------|-----|-----------|-------|---------|
B-------------|-----|-----------|-------|---------|
G-------------|-----|-6-4-------|-------|---------|
D---4-6-7-6-7-|-6-7-|-----7-6-4-|-6-4-6-|-4---4-6-|
A-4-----------|-----|-----------|-------|---7-----|
E-------------|-----|-----------|-------|---------|
A
E-----------------|---------|-------------|
B-----------------|---------|-------------|
G-4---------------|---------|-----------6-|
D---7-6-4---4---4-|-------4-|-4-4-6-4-3---|
A---------7---7---|-7-5-7---|-------------|
E-----------------|---------|-------------|
Chorus:
A
E-2--------------------------|
B--2---------4-5-4-2---2-4-5-|
G---3----1-4---------3-------|
D----4--2--------------------|
A----------------------------|
E----------------------------|
106
Potdevin - Cool Riffs and Hot Lead Guitar Licks - www.lepotdevin.com
Massachusets
San Francisco
Bee Gees, 1967,
Scott McKenzie, 1967, (---) Orig chords ˜,
(B.R. & M. Gibb) Orig chords ˜,
1st stanza: ( x 2 )
*
E----------------------|---------------------------|
B----------------------|---------------------------|
G-------7h9--9-7-7-----|----------7h9--9-7-9-7-----|
D------------------9-7-|-----------------------9-7-|
A-10-10----------------|-10-10-10------------------|
E----------------------|---------------------------|
Intro: ( x 2 )
*
E-------------------------|
B-------------10-12-10-12-|
G--------9-12-------------|
D-12--12------------------|
A-------------------------|
E-------------------------|
*
E--------------------------|-----------------------|
B--------------------------|-----------------------|
G-------7------------------|-----------9-7-9-7-----|
D---------9--7-------------|-------7-9---------9-7-|
A-10-10--------10-10--7----|-10-10-----------------|
E-----------------------10-|-----------------------|
1st stanza: ( x 2 )
*
E----------------------|
B----------------------|
G----------------------|
D--------4-6---4-4-----|
A-4--4-6-----6-----6-4-|
E----------------------|
2nd stanza: ( x 2 )
*
E----------------|----------------|------|
B----------------|----------------|------|
G-10-10-10-9-9-7-|-10-10-10-9-9-7-|------|
D----------------|----------------|-10-9-|
A----------------|----------------|------|
E----------------|----------------|------|
2nd stanza:
*
E--------------------------|
B------------7--7-6--6-6-4-|
G-3-4-6--3-6---------------|
D--------------------------|
A--------------------------|
E--------------------------|
*
E-------------|
B-------------|
G-------------|
D-9-10-9-10-9-|
A-------------|
E-------------|
*
E------------------------|
B------------------------|
G-4-3-------3-4--4-3-----|
D-----6-4------------6-4-|
A------------------------|
* 2nd time *
|-----------|---------------------|
|-----------|------8--------------|
|-7-9-7-9-7-|--------9--9-7-7-----|
|-----------|-9---------------9-7-|
|-----------|---10----------------|
|-----------|---------------------||
Outro:
*
E-------------------|------------------------|
B-------------------|------------------------|
G-------------------|------------------------|
D-------------------|----9-11--9-------------|
A-7-7-7-7-7-7-7-7-9-|-12---------12-12-10----|
E-------------------|---------------------12-|
Humming is fun !
*
E-----------------------------|
B-----------------------------|
G------9------11-9-11-9-------|
D----9---11-------------11----|
A-12-----------------------12-|
E-----------------------------|
Light My Fire
Doors, 1967, (Doors) Orig chords ˜,
1st stanza: ( x 4 )
*
E-----------------|
B-----------------|
G---4-3-4---4-3---|
D-6-------6-----6-|
A-----------------|
E-----------------|
Chorus
*
( x 2 )
*
*
E---------------|
B---------------|
G---------------|
D-5-5-5-5-4-4---|
A-------------5-|
E---------------|
|---------------|
|---------------|
|---------------|
|-5-5-5-5-4-4---|
|-------------7-|
|---------------|
Potdevin - Cool Riffs and Hot Lead Guitar Licks - www.lepotdevin.com
107
There´s A Kind Of Hush
Raindrops
1st stanza: ( x 2 )
*
E------------|----------------|-------------|
B------------|-7-5------------|-7-5---------|
G------------|-----7-6-4--4-5-|-----7-5-4-4-|
D-4-5-7--7-7-|----------------|-------------|
A------------|----------------|-------------|
E------------|----------------|-------------|
1st stanza: ( x 2 )
*
E-----------------|--------------------------|
B-----------------|------------------------5-|
G-----------------|--5-5-5-7-5---------------|
D-7-7-7-8-7-5---7-|------------8-7-7-8-5-----|
A-------------8---|-8--------------------8---|
E-----------------|--------------------------|
Carpenters, 1978, (---1966) Orig chords ˜,
*
E---------|-----------|
B---------|-------5---|
G---4-7-6-|---6-7-----|
D-5-------|-7-------7-|
A---------|-----------|
E---------|-----------|
B.J. Thomas, 1968, (---) Orig chords ˜,
1st time
|-----------|
|---8-7-8-5-|
|-----------|
|-7---------|
|-----------|
|-----------|
*
E--------------|-----------------|---------|
B---------5----|-----------------|---------|
G-7-5--------7-|-5-5-----5-----5-|-5-----5-|
D-----7--------|-----7-8---8-7---|---7-8---|
A-------8------|-----------------|---------|
E--------------|-----------------|---------|
2nd stanza: ( x 2 )
*
E-----------------------------------------|
B-----------5-----5-7-----7-7-5-----------|
G-7-7-4-4-7---4-4-----4-4-------4-4-------|
D-----------------------------------7-5-7-|
A-----------------------------------------|
E-----------------------------------------|
1st x
*
E-----------|
B-----------|
G---4-------|
D-7---7-5-7-|
A-----------|
E-----------|
*
E---------|
B---------|
G---------|
D-----5-7-|
A-8-8-----|
E---------|
2nd stanza:
A
E-----|---------------|---------|---------|
B-----|---------------|---------|---------|
G-5---|---------------|-----7-5-|---7-5-5-|
D---5-|-7-8-7-5---7-5-|-7-8-----|-7-------|
A-----|---------8-----|---------|---------|
E-----|---------------|---------|---------|
2nd x
|-------------|
|---8-7-8-7-5-|
|-------------|
|-7-----------|
|-------------|
|-------------|
A
E-------------------|-----|-----|
B---5---------------|-----|-----|
G-----7-5-----------|-----|-----|
D-7-------7-5---7-5-|---5-|---5-|
A-------------8-----|-8---|-8---|
E-------------------|-----|-----|
Daniel
Elton John, 1978, (Elton John,
Bernard J.P. Taupin) Orig chords ˜,
Intro:
*
E-------12----------------|-13-12-------------|-15-13-12-------|
B-13-13----15-13-12-12----|-------15-13-13-12-|----------15-13-|
G----------------------14-|-------------------|----------------|
D-------------------------|-------------------|----------------|
A-------------------------|-------------------|----------------|
E-------------------------|-------------------|----------------|
1st stanza ( x 2 )
*
E-----------------------------|-------------------|
B-----------------------------|-------------------|
G-----------------------------|----------7--------|
D-10-10-10-10-10--10-10-9-7---|-9-9-9-10---9-7----|
A---------------------------8-|----------------10-|
E-----------------------------|-------------------|
*
E-----------------|------|-----------------------|
B-----------------|------|-----------------------|
G-9-10-9-8-9-8----|-7----|-----------------------|
D--------------10-|---10-|-10-10-10-9-9-9-7----7-|
A-----------------|------|------------------10---|
E-----------------|------|-----------------------|
*
E---------------|-----------------------|
B---------------|-----------------------|
G------7-9------|----------10-9----7----|
D-9-10-----10-7-|---------------10---10-|
A---------------|-10-10-10--------------|
E---------------|-----------------------|
|--------|
|--------|
|-9-7----|
|-----10-|
|--------|
|--------|
Chorus
*
E-------------|------|-----------|---------------|
B-------------|------|-----------|---------------|
G------7------|------|-9----7----|-9-7-------7---|
D-7-10---10-7-|-7-10-|---10---10-|-----10-10---7-|
A-------------|------|-----------|---------------|
E-------------|------|-----------|---------------|
*
E----------------|-------------|---------------|
B----------------|-------------|---------------|
G------9----7----|-9-7---------|---9-9-7-------|
D-7-10---10---10-|-----10-10-7-|-7-------10-10-|
A----------------|-------------|---------------|
E----------------|-------------|---------------|
*
E-8----------|------------------------|
B---9--------|------------------------|
G-----10---9-|-9-9-9-10-9-7----7------|
D--------7---|--------------10---10-9-|
A------------|------------------------|
E------------|------------------------|
Lead solo:
Chorus:
1st stanza:
108
Outro:
Potdevin - Cool Riffs and Hot Lead Guitar Licks - www.lepotdevin.com
Claire
Song Song Blue
Intro:
*
E-9-7----|-------|-------|-----------|
B-----10-|-7-----|-------|-----7-9-9-|
G--------|---7---|-6-9-9-|-6-9-------|
D--------|-----9-|-------|-----------|
A--------|-------|-------|-----------|
E--------|-------|-------|-----------|
Intro:
*
( x 4 )
*
E----------------|------------|
B-5-8--5-6-5-----|-5-8------6-|
G------------7-5-|------5-7---|
D----------------|------------|
A----------------|------------|
E----------------|------------|
Gilbert O´Sullivan, 1973, (---) Orig chords ˜,
Neil Diamond, 1972, (---) Orig chords ˜,
1st Stanza: ( x 2 )
*
E--------------------|-----------------|
B----------2-2-------|-----------2-----|
G-2----2-4-----4-2-1-|---1-4-4-4---2---|
D----4---------------|-2-------------4-|
A--------------------|-----------------|
E--------------------|-----------------|
1st stanza:
A
E-------|-------------|-------|-------------|
B-5---8-|-6-5-------8-|-----8-|-6-5---5---8-|
G---5---|-----7-5-7---|-7-----|-----7---5---|
D-------|-------------|---5---|-------------|
A-------|-------------|-------|-------------|
E-------|-------------|-------|-------------|
*
E-----------------------|
B-----------------------|
G-----------------1-2-4-|
D-2---2-4-4-----4-------|
A---5---------5---------|
E-----------------------|
A
E---------|-6---8-|---6---8-|---5-5-5-----|
B---------|---5---|-5---5---|---------8-6-|
G---------|-------|---------|-------------|
D---------|-------|---------|-7-----------|
A-----2-3-|-------|---------|-------------|
E-3-5-----|-------|---------|-------------|
2nd stanza:
*
E-----|-----------------2---|---------------------|
B---5-|---5-3-2-2-3-5-5---3-|-3-2-------------2-2-|
G-----|---------------------|-----4-2-1-2-4-4-----|
D-2---|-2-------------------|---------------------|
A-----|---------------------|---------------------|
E-----|---------------------|---------------------|
Fill in:
1st x
E----------|
B----------|
G----------|
D-3--2-3-5-|
A----------|
E----------|
* Chorus: ( x 3 )
*
*
E---------|---------------|
B-2-------|-------2-------|
G---4-2-2-|-1-2-4---4-----|
D---------|-----------2-2-|
A---------|---------------|
E---------|---------------|
2nd stanza:
*
E-------------------|-------------|
B-------------6-6-8-|-6-6-6-6-5-5-|
G------4-4-7b-------|-------------|
D-5-5---------------|-------------|
A-------------------|-------------|
E-------------------|-------------|
*
E---------|---------2-----|-----|-----|
B-2-------|-------2---2---|-----|-2---|
G---4-2-2-|-1-2-4-------4-|-2-4-|---4-|
D---------|---------------|-----|-----|
A---------|---------------|-----|-----|
E---------|---------------|-----|-----|
Fill in:
1st x
E-----------|
B-5-5-5-----|
G-------7-7-|
D-----------|
A-----------|
E-----------|
2nd x
|-----------|
|-6-5-3-1---|
|---------0-|
|-----------|
|-----------|
|-----------|
2nd x
|-------|
|-------|
|-------|
|-------|
|-----2-|
|-3-5---|
3rd stanza:
*
E--------------------|------------------------|
B----------2-2-3-5-2-|------------------------|
G-2----2-4-----------|-2-1------------2-------|
D----4---------------|-----2--------2---4-----|
A--------------------|-------4----4-------5-2-|
E--------------------|---------5--------------|
*
E-------------|-------------------|
B-------------|-----2-------2-3-5-|
G---1-4-1-----|---2---4-2-4-------|
D-4-------2---|-2-----------------|
A-----------4-|-------------------|
E-------------|-------------------|
*
E-----------------2---|---------------------|
B---5-3-2-2-3-5-5---3-|-3-2-------------2-2-|
G-2-------------------|-----4-2-1-2-4-4-----|
D---------------------|---------------------|
A---------------------|---------------------|
E---------------------|---------------------|
è
Outro:
*
( x 3 )
*
E----|----------9----|----------9------|
B-10-|----10-12---10-|----10-12---12---|
G----|-11------------|-11------------9-|
D----|---------------|-----------------|
A----|---------------|-----------------|
E----|---------------|-----------------|
chorus:
Potdevin - Cool Riffs and Hot Lead Guitar Licks - www.lepotdevin.com
109
Everything I Own
Without You
Intro: ( x 2 )
A
E-0--0--|---------------||------|
B-2--2--|-3-2-0---0-2---||------|
G-2--2--|-------2-----2-||------|
D-2--2--|---------------||------|
A-----------------------||-12\--|
E-----------------------||------|
Intro:
*
E-14-14-12-12-|-14-14-12-12--|
B-------------|--------------|
G-------------|--------------|
D-------------|--------------|
A-------------|--------------|
E-------------|--------------|
Bread, 1972, (---) Orig chords ˜,
Harry Nillson, 1971, (---) Orig chords ˜,
1st stanza: ( x 2 )
2nd stanza (x2)
*
E---------------------------------|-----------------|
B-------7-9-----------------------|-----------------|
G-9-9-9-----9----6--------6-------|-7-7-6-----------|
D--------------9---7--9-7---9-7-9-|-------9-7-7---9-|
A---------------------------------|-------------9---|
E---------------------------------|-----------------|
A
E-----------------------|-------------------------|
B-----------------------|-------------------------|
G-----------------------|-------------6-6-9-9-6-6-|
D-6-9-9-7-7-6-6-------6-|-6-6-----6-6-------------|
A---------------9-9-7---|-----9-7-----------------|
E-----------------------|-------------------------|
Chorus ( x 3 )
*
*
E--------------------|---------|--------|
B--------------------|---------|--------|
G-7-7-7-7-6------7---|---------|--------|
D-----------7------9-|-9-9-9-7-|--------|
A-------------10-----|---------|-9----7-|
E--------------------|---------|---10---|
1st x
*
E---------|
B---------|
G-6-9-----|
D-----9-6-|
A---------|
E---------|
1st stanza:
*
E---------------------------------|
B-------7-9-----------------------|
G-9-9-9-----9----6--------6-------|
D--------------9---7--9-7---9-7-9-|
A---------------------------------|
E---------------------------------|
3nd stanza (x2)
*
E--------------------------|-------|----------|
B-----------7-9-10-9-7-----|-------|----------|
G-9-9-9-9-9------------9-6-|---6---|--------6-|
D--------------------------|-9---9-|-7-7-7----|
A--------------------------|-------|----------|
E--------------------------|-------|----------|
2nd stanza: ( x 2 )
*
E-----------------|
B-----------------|
G-7-7-6-----------|
D-------9-7-7---9-|
A-------------9---|
E-----------------|
-
1st stanza: ( x 2 )
E-----------------|-----------------|
B-----------------|-----------------|
G-----6-6-6-------|-----6-6-6-------|
D-6-9-------9-9-6-|-6-9-------9-9-6-|
A-----------------|-----------------|
E-----------------|-----------------|
Chorus:
4th stanza:
*
E-------------|-----------|------------------|
B-------------|-----------|-----------7-10-7-|
G-----6-6-7-6-|---6-6-7-6-|---6-6-7-6--------|
D-7-9---------|-7---------|-7----------------|
A-------------|-----------|------------------|
E-------------|-----------|------------------|
2nd x
|-------------|
|-------------|
|-9-6---------|
|-----6-9-----|
|-------------|
|-------------|
Chorus
*
E-------------------------|----------------|
B-------------------------|----------------|
G-------------------------|----------------|
D---6-|-------------------|-6-7--6-7-6---7-|
A-9---|-7-9-7-7---7-9-7---|------------9---|
E---------------9-------9-|----------------|
*
E-----|-------------------|------|-------------|
B-9-9-|---7---------7-----|-9-10-|-9-10-9-7-10-|
G-----|-9---9-9-6-9---9-6-|------|-------------|
D-----|-------------------|------|-------------|
A-----|-------------------|------|-------------|
E-----|-------------------|------|-------------|
If
Bread, 1972, (---) Orig chords ˜,
Intro chords:
*
E-------------|--------------|---------------------|
B-------------|--------------|---------------------|
G---6-7-7-9-7-|----6-7-7-9-7-|---6-7-7-9-7-6-------|
D-9-----------|-9------------|-9-------------9-7-9-|
A-------------|--------------|---------------------|
E-------------|--------------|---------------------|
A Amaj7
A D Dm A Dm E
A
Amaj7
A
D
E------0--|-0-0-0--0-|---------0-|-0------2--|
B-2-3--2--|--------2-|--3-2-3--2-|---3-2--3--|
G------2--|--------1-|---------2-|--------2--|
D------2--|--------2-|---------2-|--------0--|
A---------|----------|-----------|-----------|
E---------|----------|-----------|-----------|
Dm
A
E
E----1---------0--|---------0--0--|
B----3--3-2----2--|------------0--|
G-2--2------2--2--|-----0-2----1--|
D----0---------2--|-2-3--------2--|
A--------------0--|------------2--|
E-----------------|---------------|
110
Amaj7
Potdevin - Cool Riffs and Hot Lead Guitar Licks - www.lepotdevin.com
As Tears Go By
Rolling Stones / Marian Faithful / Nancy Sinatra, 1965,
(Mick Jagger, Keith Richard) Orig chords ˜,
Words
Bee Gees, 1968, (B.R. & M. Gibb) Orig chords ˜,
1st stanza ( x 2 )
*
E---|-------------|-------------|-----|
B---|-------------|-------------|-----|
G-5-|-5-6-5-3---5-|-5-6-5-3---3-|---3-|
D---|---------6---|---------6---|-3---|
A---|-------------|-------------|-----|
E---|-------------|-------------|-----|
Intro:
*
E-----|---|---|-----0-0---|---|
B-----|---|-1-|-1-3-----3-|---|
G---0-|-2-|---|-----------|---|
D-4---|---|---|-----------|-5-|
A-----|---|---|-----------|---|
E-----|---|---|-----------|---|
*
E-----|-------------|-------------|-----|
B-----|-------------|-------------|-----|
G-3-3-|-3-5-3-----3-|-3-5-3-------|-----|
D-----|-------6-5---|-------6-5-3-|-----|
A-----|-------------|-------------|-6-6-|
E-----|-------------|-------------|-----|
1st stanza: ( x 2 )
*
E------------------|-------|
B------------------|-------|
G----2-4-2-2-------|-------|
D-5----------2-5-5-|-2-5-4-|
A------------------|-------|
E------------------|-------|
1st time
*
E-----|-----------|---------------|-------|
B-4-4-|-4-5-4-----|-4-4-4-5-4-----|-------|
G-----|-------6-4-|-----------6-4-|-6---6-|
D-----|-----------|---------------|---6---|
A-----|-----------|---------------|-------|
E-----|-----------|---------------|-------|
*
E-----------|-------|-----------|
B-----------|-------|-----------|
G-5-5-5-4-2-|-2---2-|-4-4-2-----|
D-----------|---5---|-------5-2-|
A-----------|-------|-----------|
E-----------|-------|-----------|
*
E-----|-------------|-------------|---------|
B-----|-------------|-------------|---------|
G-6-5-|---6-5-3---5-|-5-6-5-3---3-|---------|
D-----|---------6---|---------6---|-3-6-6-5-|
A-----|-6-----------|-------------|---------|
E-----|-------------|-------------|---------|
*
E-----------|---------|---------|
B-5-5-5-5-5-|---------|---------|
G-----------|-------2-|---2-----|
D-----------|-2-4-5---|-5---5-4-|
A-----------|---------|---------|
E-----------|---------|---------||
2nd time
*
E-----|-----------|-------------|
B-4-4-|-4-5-4-----|-4-5-4-----4-|
G-----|-------6-4-|-------6-4---|
D-----|-----------|-------------|
A-----|-----------|-------------|
E-----|-----------|-------------|
Love Is All Around
Chorus:
A
E---------|--------------|--------------|
B-4-4-----|--------------|--------------|
G-----6-5-|----6-5-3---3-|-3-5-3--------|
D---------|----------6---|--------6-5-6-|
A---------|--6-----------|--------------|
E---------|--------------|--------------|
Troggs, 1966, (R. Presley) Orig chords ˜,
Intro:
D
D G
G A A A G Em D
E---|-----|-----|---------|
B---|-----|-----|---------|
G---|---0-|-0-2-|-2-2-0---|
D-0-|-0---|-----|-------2-|
A---|-----|-----|---------|
E---|-----|-----|---------|
1st stanza: ( x 4 )
D
G
A
D
E---------------|-------------|
B---7-7---------|-8-7-7-------|
G-------9-7-9---|-------9-9-7-|
D-9-----------9-|-------------|
A---------------|-------------|
E---------------|-------------|
Fill in:
|-----------|
|-----------|
|-4-2-------|
|-----4-0-2-|
|-----------|
|-----------|
2nd stanza:
G
Em
G
D
E---------|---------|---------|------------|
B-8-8-8-8-|-8-7-----|-8-8-8-8-|-8-10-------|
G---------|-----9-9-|---------|------9-7-7-|
D---------|---------|---------|------------|
A---------|---------|---------|------------|
E---------|---------|---------|------------|
G
Em
A
n.c.
E---------|---------|---------|------7----|-------|
B-8-8-8-8-|-8-7-----|-----7---|---10---10-|-------|
G---------|-----9-9-|-7-9---9-|-9---------|-------|
D---------|---------|---------|-----------|-------|
A---------|---------|---------|-----------|-0-2-4-|
E---------|---------|---------|-----------|-------|
Potdevin - Cool Riffs and Hot Lead Guitar Licks - www.lepotdevin.com
111
To Sir With Love
My Eyes Adore You
Intro:
Intro:
* ( x 3 )
Ventures, 1967, (Donald Black, Mark London) Orig chords ˜,
Frankie Valli, 1975, (George Noriega, Rosa Robi) Orig chords ˜,
E
A
E----------------|---|---------------|---|
B----------------|---|---------------|---|
G----------------|---|---------------|---|
D----------------|---|--0----------2-|---|
A-2-4-0------2-4-|---|4---2------2---|---|
E-------0--4-----|---|------0--4-----|---|
*
E-10--9-9-7-|
B-----------|
G-----------|
D-----------|
A-----------|
E-----------|
1st stanza:
A
B
D
A
E--------------------|-------------------------|-----|
B--------------------|-------------------------|-----|
G--------------------|-------------------------|-----|
D-4-2----------------|-----1-4--7-6--4-4-6p4-2-|-----|
A-----5-4--2---2h4-2-|-2-2---------------------|-5-4-|
E------------5-------|-------------------------|-----|
2nd stanza:
G#
C#m
G#
C#m
F#
B
F#
E--------------|---------------|----------------------|
B--------------|---------------|----------------------|
G------1-------|------2-1------|-------2-2-1----------|
D-1---1--4-2-2-|-2-1-----4-2-2-|-4--1-4-----4-2-4p2h4-|
A----3---------|---------------|---2------------------|
E---4----------|----4----------|----------------------|
* Chorus:
( x 2 )
*
B
A
B
E
F#
E------------------------------|-----------|--------|
B------------------------------|-----------|--------|
G----------------2-1-----------|-1----1-1--|--------|
D-1-2-4--4-4-1-------4-2-4-1---|---2-4---4-|-4-2----|
A--------------2-------------2-|-----------|----4-2-|
E------------------------------|-----------|--------|
1st stanza
( x 2 )
A
B
D
A
E---------------------|---------5-4---------------|
B-7-5-----------------|-----4-7-----7-7-9p7 5-----|
G-----7-8--4---4h6--4-|-4-4-------------------7-6-|
D------------7--------|---------------------------|
A---------------------|---------------------------|
E---------------------|---------------------------|
2nd stanza:
Chorus :
B
A
B
E
F#
E---------------|-5-4-----------|---4-----4-4--|
B-4-5-7-7-7-4---|-----7-5-7-4---|-----5-7----7-|
G-------------4-|-------------4-|-4------------|
D---------------|---------------|--------------|
A---------------|---------------|--------------|
E---------------|---------------|--------------|
|-------|
|-10--9-|
|-------|
|-------|
|-------|
|-------|
1st stanza:
A
E------------|------------------------------------|
B------------|------------------------------------|
G-6-6--6-6-4-|-4-6--7-6-7-6-7-6-7-6--4-6-6--6-4---|
D------------|----------------------------------7-|
A------------|------------------------------------|
E------------|------------------------------------|
A
E-----|-------------------------------------|
B-----|-------------------------------------|
G---4-|-6-4-6-4-6-4-6-4-6-4-6-4-6-4-6-7-6-4-|
D-7---|-------------------------------------|
A-----|-------------------------------------|
E-----|-------------------------------------|
*
E--------------------|
B------------5-------|
G-6-4--4-6-7---6-4---|
D------------------7-|
A--------------------|
E--------------------|
2nd stanza:
*
E-------------------------------|
B-----------5-------5-5-5-------|
G---------6-----6-7-------7-6---|
D-------7---------------------7-|
A-7-7-7-------------------------|
E-------------------------------|
*
E----------------------------|
B----------------------------|
G-7-6-------7-6----7-6-4---4-|
D-----7---------7--------7---|
A-------7--------------------|
E----------------------------|
Outro:
*
A
E
A
E-----------|----------------|---|---------------|---|
B-----------|----------------|---|---------------|---|
G-----------|----------------|---|---------------|---|
D-4-2-------|----------------|---|--0----------2-|---|
A-----4-2-0-|-2-4-0------2-4-|---|4---2------2---|---|
E-----------|-------0--4-----|---|------0--4-----|---|
112
Potdevin - Cool Riffs and Hot Lead Guitar Licks - www.lepotdevin.com
Can´t Take My Eyes Off Of You
Feelings
Intro:
*
( 2x )
*
E-6-5-|-----------4-----------4-|
B-----|-7-5-4-5-7---7-5-4-5-7---|
G-----|-------------------------|
D-----|-------------------------|
A-----|-------------------------|
E-----|-------------------------|
1st stanza:
*
E-----|---------|-----|---------|-------|-----------|
B-----|---------|-----|---------|-------|-----------|
G-4---|---------|-4---|---------|-4-----|---------4-|
D-----|---4-5---|-----|---4-5---|-------|-4-5-7-4---|
A---7-|-7-----7-|---7-|-7-----7-|---6h7-|-----------|
E-----|---------|-----|---------|-------|-----------|
Frankie Valli, 1966, (---) Orig chords ˜,
Morris Albert, 1978, (---) Orig chords ˜,
1st stanza
E---------------|---------------|---------------|
B---------------|---------------|---------------|
G-4-4-4-6-4---4-|-4-4-4-6-4---4-|-4-4-4-6-4---4-|
D-----------6---|-----------6---|-----------6---|
A---------------|---------------|---------------|
E---------------|---------------|---------------|
*
E-----|---------|-----|---------|-------|-----------|
B-----|---------|-----|---------|-------|-----------|
G-4---|---------|-4---|---------|-4-----|---------4-|
D-----|---4-5---|-----|---4-5---|---4h5-|-4-5-7-4---|
A---7-|-7-----7-|---7-|-7-----7-|-------|-----------|
E-----|---------|-----|---------|-------|-----------|
*
E-------------|---------------|-------------|
B-------------|---------------|-------------|
G-4-4-4---4---|-------4-------|-------------|
D-------7---7-|-7-7-7---7-6-7-|-7-7-7-6-5-6-|
A-------------|---------------|-------------|
E-------------|---------------|-------------|
Chorus:
*
E-----|-----------|-----|-----------------|------------|
B-5---|-5---------|-----|-----------------|------------|
G-----|---7-5-4-5-|-7-7-|-7-5-4---4-5-4-5-|-5-4------4-|
D---5-|-----------|-----|-------7---------|-----7-5-7--|
A-----|-----------|-----|-----------------|------------|
E-----|-----------|-----|-----------------|------------|
*
E-------------|-------------|
B-------------|-------------|
G-------------|-------------|
D-6-6-6-4---4-|-4-4-4-------|
A---------7---|-------7-6-7-|
E-------------|-------------|
Fill in:
(
x )
E-8-9-8-9-8-9--12-11-|
B--------------------|
G--------------------|
D--------------------|
A--------------------|
E--------------------|
Chorus:
E-4-4-4-4---|-------4-4---|-----------|
B-----------|---5-7-----7-|-5-4-5-7---|
G---------6-|-6-----------|---------4-|
D-----------|-------------|-----------|
A-----------|-------------|-----------|
E-----------|-------------|-----------|
*
E---------------|-----------|-------------|
B-------4-7-7-5-|-4---4-5---|-5-5-4-5-4---|
G-4-6-----------|---6-------|-----------6-|
D---------------|---------7-|-------------|
A---------------|-----------|-------------|
E---------------|-----------|-------------|
2nd stanza:
*
(3x)
*
E---------------||-----------------|
B---------------||-----------------|
G-7-7-7-9-7---7-||-7-7-7-7----7----|
D-----------9---||---------10---10-|
A---------------||-----------------|
E---------------||-----------------|
*
E--------------------|-------------------|
B--------------------|-------------------|
G----------7---------|-------------------|
D-10-10-10---10-9-10-|-10-10-10-10-9-7-9-|
A--------------------|-------------------|
E--------------------|-------------------|
*
E-----|-----------|-----------|-----------|
B-5-5-|-5---------|-----------|-----------|
G-----|---7-5-7-7-|-7-5-4-5-5-|---------4-|
D-----|-----------|-----------|-4-4-5-7---|
A-----|-----------|-----------|-----------|
E-----|-----------|-----------|-----------|
2nd stanza:
*
E-----|-------------------|----------------|-----------|
B-----|-------------------|----------------|-----------|
G-4---|-4-------4---------|--4-------4-----|---------4-|
D-----|---7-7-5---7-7-5-7-|----7-7-5---5-7-|-4-4-5-7---|
A---7-|-------------------|-7--------------|-----------|
E-----|-------------------|----------------|-----------|
Chorus:
*
E-----|-----------|-----|-----------------|------------|
B-5---|-5---------|-----|-----------------|------------|
G-----|---7-5-4-5-|-7-7-|-7-5-4---4-5-4-5-|-5-4------4-|
D---5-|-----------|-----|-------7---------|-----7-5-7--|
A-----|-----------|-----|-----------------|------------|
E-----|-----------|-----|-----------------|------------|
2nd stanza:
*
E-----|-------------------|----------------|-----------|
B-----|-------------------|----------------|-----------|
G-4---|-4-------4---------|--4-------4-----|---------4-|
D-----|---7-7-5---7-7-5-7-|----7-7-5---5-7-|-4-4-5-7---|
A---7-|-------------------|-7--------------|-----------|
E-----|-------------------|----------------|-----------|
Chorus ( x 2 )
and fade
*
E-----|-----------|-----------|-----------|
B-5-5-|-5---------|-----------|-----------|
G-----|---7-5-7-7-|-7-5-4-5-5-|---------4-|
D-----|-----------|-----------|-4-4-5-7---|
A-----|-----------|-----------|-----------|
E-----|-----------|-----------|-----------|
*
E----------------|-----------------|
B----------------|-----------------|
G----------------|-----------------|
D-9-9-9-9-7----7-|-7-7-7-7---------|
A-----------10---|---------10-9-10-|
E----------------|-----------------|
Potdevin - Cool Riffs and Hot Lead Guitar Licks - www.lepotdevin.com
113
The Most Beautiful Girl
You´re Beautiful
1st stanza: ( x 2 )
*
E---|-------------------------------|
B---|-------------------------------|
G---|---4-5-4-5-4---4-5-4-5-4---4-5-|
D-5-|-7-----------7-----------7-----|
A---|-------------------------------|
E---|-------------------------------|
Intro:
Charlie Rich, 1973, (Wilson, Sherril, Bourke) Orig chords ˜,
James Blunt, 2004, (---) Orig chords ˜,
D#
A#
D#
G# D#
E---------|-----------|-------|-----|
B---------|---------6-|-------|-----|
G---8-7-8-|---8-7-8---|-8-7-8-|-----|
D-5-------|-6---------|-------|-5-6-|
A---------|-----------|-------|-----|
E---------|-----------|-------|-----|
only 1st time
*
E---------|------------|
B---------|-5----------|
G-----4-5-|--4-4-------|
D---6-----|------7-5-4-|
A-7-------|------------|
E---------|------------|
1st stanza:
D#
A#
D#
G#
E-----------|---------|-----------|---------|
B-----------|---------|-----------|---------|
G---8-7-8---|---8-7-8-|---8-7-8---|---8-7-8-|
D-5-------5-|-6-------|-5-------6-|-5-------|
A-----------|---------|-----------|---------|
E-----------|---------|-----------|---------|
2nd stanza:
*
E-----------|-----------------|---------|---------|
B-----------|---------8-------|---------|---------|
G-----------|-----------7-5---|-5-5-----|---------|
D-5-7-8-8-7-|-5-7-8-8-------8-|-----8-7-|-7-8-7-5-|
A-----------|-----------------|---------|---------|
E-----------|-----------------|---------|---------|
D#
A#
E-----------------|-------------|
B-----------------|-------------|
G---8-7-8-8-7-8---|---8-7-8-7-8-|
D-5-------------5-|-5-----------|
A-----------------|-------------|
E-----------------|-------------|
3rd stanza:
*
E-------------|---------------|-------------------|
B-------------|---------------|-------------------|
G---------5-4-|-----------4---|-------------------|
D-5-5-5-7-----|-7-5-7-5-7-----|-7-7-7-7-5-5-5-4-4-|
A-------------|-------------7-|-------------------|
E-------------|---------------|-------------------|
*
E---------------|-------------------|-------------------|
B---------------|-------------------|-------------------|
G---------------|-4-4-4-4---4-------|-5-5-5-5-4-5-4-----|
D---------------|---------7---7-5-5-|---------------7-7-|
A-7-7-7-7-7-5-5-|-------------------|-------------------|
E---------------|-------------------|-------------------|
*
E---------|-----------|-------------------|
B---------|-----------|-------------------|
G---------|-------4---|-------------------|
D-7-7-7-7-|-5-7-7---7-|-4-4-4-4---4-------|
A---------|-----------|---------7---7-5-5-|
E---------|-----------|-------------------|
D#
G#
A#
E-----------------|-----------|
B-----------------|-----------|
G---8-8-----8-8---|---8-8-7-8-|
D-5-----6-6-----6-|-5---------|
A-----------------|-----------|
E-----------------|-----------|
Chorus:
G#
A# D#
G# A# D# G# A# D# Dm Cm
E---6---|---6---|--6---6---|--6---|----6---|
B----8--|----8--|---8------|---8--|-----8--|
G-8---8-|-8---8-|-8--8---8-|-8--8-|-8-8--8-|
D-------|-------|----------|------|--------|
A-------|-------|----------|------|--------|
E-------|-------|----------|------|--------|
G#
A# D#
G#
A# D#
E---------------|---------------|
B-------8-6-----|-------8-6-----|
G-7-7-8-----7-8-|-7-7-8-----7-8-|
D---------------|---------------|
A---------------|---------------|
E---------------|---------------|
You Are So Beautiful
Joe Cocker, 1999, (---) Orig chords ˜,
1st stanza:
G#
C#
F#
G#
E----------------------|
B----------------------|
G-5-5-5-5-3----------5-|
D-----------6----------|
A------------------6---|
E----------------------|
2nd stanza:
E-------|-----------3---|---3------|
B-----4-|---6-6-6-6-----|----6-----|
G-5-6---|-5-----------5-|-----5----|
D-------|---------------|-6----3-6-|
A-------|---------------|----------|
E-------|---------------|----------|
114
Potdevin - Cool Riffs and Hot Lead Guitar Licks - www.lepotdevin.com
Just The Way You Are
Baby I Love Your Way
1st stanza:
( x 2 )
*
E---2-----|-----------|-----------------|-----------|
B-3---3---|-----3-----|-----------------|-----------|
G-------4-|-4-4---4---|-----2-----------|---2-------|
D---------|---------4-|-4-5---4-------4-|-4---4-2-4-|
A---------|-----------|---------5-5-2---|-----------|
E---------|-----------|-----------------|-----------|
Intro:
*
E--------------------------|------------------|
B--------------------------|------------------|
G-0-0-0-0------------------|------------------|
D---------4-4-4-4--2-2-2-2-|-2-0------------0-|
A--------------------------|-----3---2---0----|
E--------------------------|------------------|
Billy Joel, 1977, (Billy Joel) Orig chords ˜,
1st x
*
E-----------|--------|--------|
B-----------|----2-3-|----2-3-|
G-----------|---2----|-4-4----|
D-4-4-2-2---|--4-----|--------|
A---------5-|-5------|--------|
E-----------|--------|--------|
|--------|
|-5-2----|
|----4-2-|
|--------|
|--------|
|--------|
2nd x
|-2------|
|----2-3-|
|--4-----|
|--------|
|--------|
|--------|
Peter Frampton, 1972, (Peter Frampton) Orig chords ˜,
1st stanza: ( x 2 )
*
E------------|---------|---------|---------|
B------------|---5-7-8-|---------|---------|
G-7-7-7--7-7-|-7-------|-4-------|---7-5-5-|
D------------|---------|---7-7-5-|-5-------|
A------------|---------|---------|---------|
E------------|---------|---------|---------|
2nd stanza:
*
E------------------|-----------------|
B---3-2--------2---|-----------------|
G-4----4-2---2---4-|-----4-2---------|
D----------5-------|-5-5-----5-4-2-4-|
A------------------|-----------------|
E------------------|-----------------|
2nd stanza:
*
E-----|---------|-------|-------|
B-----|-5-5-5-5-|-5-----|-8-5---|
G-5-7-|---------|---7-5-|-----7-|
D-----|---------|-------|-------|
A-----|---------|-------|-------|
E-----|---------|-------|-------|
*
E---|---------------------|-----------------|
B-3-|-3-3-6-5-3-------5-3-|-----3-----------|
G---|-----------5-3-5-----|-3-3---5-3-2---2-|
D---|---------------------|-------------5---|
A---|---------------------|-----------------|
E---|---------------------|-----------------|
Chorus
*
E--------------------------|
B-8-7-7-5-7-8--------------|
G-------------5\4--5-4-----|
D----------------------7-5-|
A--------------------------|
E--------------------------|
Outro:
*
E---------2--------------------------|
B-----2-3---5-3-3---------3----------|
G-4-4-------------3-5---5---5-3-2----|
D---------------------------------5--|
A---------------------------|
E---------------------------|
When I Need You
Albert Hammond, 1977, (Albert Hammond,
Carol Sager) Orig chords ˜,
1st stanza
A
E-------------|------------------------|
B-------------|----------9-9-----------|
G-------10-10-|-10-10-11-----11-10-8-8-|
D-------------|------------------------|
A-11-11-------|------------------------|
E-------------|------------------------|
*
E-------------------------|-----------------------|
B-------------------------|-----------------------|
G---8-10-11-11-10-8-------|-------8-10-10-8-------|
D-------------------11-11-|----11-----------11-10-|
A-------------------------|-----------------------|
E-------------------------|-----------------------|
2nd stanza:
*
E---------------------------|-----------------------|
B---------------------------|-----------------------|
G----------------10-8-------|----------------10-8---|
D-11-10-11-10-11------11-10-|-11-10-11-10-11------9-|
A---------------------------|-----------------------|
E---------------------------|-----------------------|
*
* ( x 3 ) *
E------------------------------|---------|------|
B-------9-9--9-9---------------|---------|------|
G-10-11----------11-10-11-10-8-|-8-11-10-|-8-11-|
D------------------------------|---------|------|
A------------------------------|---------|------|
E------------------------------|---------|------|
Potdevin - Cool Riffs and Hot Lead Guitar Licks - www.lepotdevin.com
115
How Deep Is Your Love
If You Leave Me Now
1st stanza:
Intro:
*
E--------------------|----------------|
B-4-4-2-4-2--4-2-4-4-|-4-4-2-4-2--4-4-|
G--------------------|----------------|
D--------------------|----------------|
A--------------------|----------------|
E--------------------|----------------|
Bee Gees, 1978, (B. R. & M. Gibb) Orig chords ˜,
Chicago, 1976, (Peter Cetera) Orig chords ˜,
*
E------------------------|-------------------------|
B------------------------|-------------------------|
G---------12-12-----12---|-------12-13-13--12-13---|
D-13-13-15-----13-15--13-|-13-15---------15-----15-|
A------------------------|-------------------------|
E------------------------|-------------------------|
*
E-------------------------------|--------------------------|
B---------------------13--------|--------------------------|
G-12-13-15-15-15-12-15--15-12---|------12-13-13-13-15-12---|
D----------------------------13-|-13-15-----------------15-|
A-------------------------------|--------------------------|
E-------------------------------|--------------------------|
1st stanza: ( x 2 )
*
E---------|---------------------|--------------|
B-----4-4-|-----------------4-4-|---11-12-11---|
G----6----|---6-4-6-4-6-4-6-----|-----------13-|
D-4-4-----|-4-------------------|-13-----------|
A---------|---------------------|--------------|
E---------|---------------------|--------------|
*
E---------------------13-----|----------------------------|
B-------13-13-13-15-13--15---|---13-16-13--13-------------|
G-------------------------15-|-15--------15--15-12-15-12--|
D-13-13----------------------|--------------------------15|
A----------------------------|----------------------------|
E----------------------------|----------------------------|
*
E----------------|----------------|
B----11-12-11----|-------11-------|
G-------------13-|-11-13----------|
D-13-------------|----------11-13-|
A----------------|----------------|
E----------------|----------------|
*
E------------------15-|-15-15-15-15-15-|-------------------|
B------------13-16----|----------------|-------------------|
G-------12-15---------|----------------|-------------------|
D-13-15---------------|----------------|-------13-12-------|
A---------------------|----------------|-15-13-------15-13-|
E---------------------|----------------|-------------------|
*
after 2nd time
*
*
E----------------|------------------------|
B----11-12-11----|---------------11-------|
G-------------13-|---------11-13----13-11-|
D-13-------------|-11-11-11---------------|
A----------------|------------------------|
E----------------|------------------------|
Chorus:
*
E------------------------|----------------------|
B------------------------|----------------------|
G------------------------|----------12-13-12----|
D------13-12-----13-12---|-------13----------15-|
A-15-13-----15-13-----15-|-13-15----------------|
E------------------------|----------------------|
*
E--------------------------|-----------|--------------------|
B---------------------13---|---13-14---|---13-14-14-13------|
G-12-13-15-15-15-15-15--15-|-15-----15-|-15-----------15-13-|
D--------------------------|-----------|--------------------|
A--------------------------|-----------|--------------------|
E--------------------------|-----------|--------------------|
*
E----------------------|---------------|
B----------------------|---------------|
G-13-15-16-16-15-13-12-|-12------12----|
D----------------------|---13-15----13-|
A----------------------|---------------|
E----------------------|---------------|
1st stanza:
*
E------------------------|-------------------------|
B------------------------|-------------------------|
G------------------------|-------12-13-13--12-13---|
D------------------------|-13-15---------15-----15-|
A------------------------|-------------------------|
E------------------------|-------------------------|
116
2nd stanza:
( x 2 )
*
E-----------------------------------|
B--------------12-------------------|
G---14-13-11------14----11-13-11----|
D-14---------14------14----------14-|
A-----------------------------------|
E-----------------------------------|
*
E----------------------------|
B-------12-12-12-11----12----|
G-11-11-------------13----11-|
D----------------------------|
A----------------------------|
E----------------------------|
3rd stanza
*
E-----------------------------------|
B-----------------------------------|
G-------11-11-11--11-11-13----------|
D-13-14--------------------13-11----|
A--------------------------------14-|
E-----------------------------------|
*
E----------------------|
B----------------------|
G-------11-------------|
D----14----14-13-13-11-|
A-14-------------------|
E----------------------|
Potdevin - Cool Riffs and Hot Lead Guitar Licks - www.lepotdevin.com
Everytime You Go Away
Paul Young, 1978, (---) Orig chords ˜,
Intro:
*
E--------------|-6-8-8-8---10-8---------|
B--------------|----------------6-6-8-8-|
G-2-3-5--------|------------------------|
D-------2--2-3-|------------------------|
A--------------|------------------------|
E--------------|------------------------|
*
E---------------------------------------|
B-8-10--6-8--4-6--1-3---1---------------|
G---------------------2---0-2---0-------|
D-----------------------------3---1-3---|
A-------------------------------------3-|
E---------------------------------------|
1st stanza: ( x 2 )
E----------------------|-------------------|
B-6---6-6-6-6-6--5-----|-------------------|
G------------------7-5-|-----------5-7-----|
D----------------------|-8-8-8-8-8-----7-5-|
A---8------------------|-------------------|
E----------------------|-------------------|
A
E---|---------|-------|--------------------------|
B-6-|-5-6-8-5-|---6-6-|---6-9-8-6--7-6-7-6-7-6---|
G---|---------|-7-----|-7----------------------5-|
D---|---------|-------|--------------------------|
A---|---------|-------|--------------------------|
E---|---------|-------|--------------------------|
Chorus:
*
E-------------------|-----------------|
B-----6-8-6---------|-----------------|
G---5-------5-------|-------5-7-------|
D-7-----------8-7-8-|-8-8-8-----7-5-5-|
A-------------------|-----------------|
E-------------------|-----------------|
Baby Come Back
Player, 1978, (P. Beckett, J.C.Crowley)
Orig chords ˜,
Intro:
A
E--------------------------|
B--------------------------|
G--------------------------|
D--------------------------|
A-1--1-1----1--------------|
E---------1---1--3--3-3--1-|
*
E------1-3-4-1-----|------1-3-4---------|
B-4--4---------3---|-4--4-------3-4h6-4-|
G----------------4-|--------------------|
D------------------|--------------------|
A------------------|--------------------|
E------------------|--------------------|
1st stanza: ( x 2 )
*
2nd x
E--------------------------------| |---|
B--------------------------------| |---|
G------------------------5-------| |-5-|
D-----5-8-8--5-8-8-8-8-8---8-5-8-| |---|
A-6-6----------------------------| |---|
E--------------------------------| |---|
1st time
2nd time
E-----------------------------| |------------------|
B-----------------------------| |------------------|
G---------------------7-8-7---| |--------7-8-7---5-|
D-5-8-8-8-8---5-8-8-8-------8-| |-5-8-8-8------8---|
A-----------------------------| |------------------|
E-----------------------------| |------------------|
Chorus 1st voice:
*
E-------|---------------|---------|-----------------|
B-8-8-8-|-6-6-6---6-8---|-8-6-6---|-----6-6-8-6-6---|
G-------|-------8-----8-|-------8-|-5-8-----------8-|
D-------|---------------|---------|-----------------|
A-------|---------------|---------|-----------------|
E-------|---------------|---------|-----------------|
2nd voice
*
E-6-6-6-|-6-6-6-3-6-8-6-|-6-4-4-3-|---3-6-6-8-6-6-3-|
B-------|---------------|---------|-----------------|
G-------|---------------|---------|-----------------|
D-------|---------------|---------|-----------------|
A-------|---------------|---------|-----------------|
E-------|---------------|---------|-----------------|
1st and 2nd voice
*
E-6-6-6-|-6-6-6-3-6-8-6-|-6-4-4-3-|-3-6-6-8-6-6-3-|
B-8-8-8-|-6-6-6-4-6-8-4-|-8-6-6-4-|-4-6-6-8-6-6-4-|
G-------|---------------|---------|---------------|
D-------|---------------|---------|---------------|
A-------|---------------|---------|---------------|
E-------|---------------|---------|---------------|
2nd stanza:
*
E-8b--8-6-----|---6---------|-------13-|
B---------8-6-|-8---8-6-8---|-11-------|
G-------------|-------------|----11----|
D-------------|-----------8-|----------|
A-------------|-------------|----------|
E-------------|-------------|----------|
*
E-6-6-6--6-6--6-----|-6-6-6-6--6-8-6-8-6---|
B---------------9-6-|--------------------9-|
G-------------------|----------------------|
D-------------------|----------------------|
A-------------------|----------------------|
E-------------------|----------------------|
*
E-6-6-6-6-6-6-6---6-8-6-|-----------|-11--11--11-13\-|
B---------------9-------|-----------|---13--13-------|
G-----------------------|-8--8--10\-|----------------|
D-----------------------|--10-10----|----------------|
A-----------------------|-----------|----------------|
E-----------------------|-----------|----------------|
Potdevin - Cool Riffs and Hot Lead Guitar Licks - www.lepotdevin.com
117
I Can See Clearly Now
Free Me
Intro:
*
E------------------|---------------|
B------------------|---------------|
G------------------|---------------|
D------------------|---------------|
A-------5--------5-|-0-12-0-12---5-|
E-5-5-5----5-5-5---|-----------5---|
Intro:
*
E-------------|
B-------7-----|
G---6--7--7---|
D-9---------7-|
A-------------|
E-------------|
Johnny Nash, 1972, (Johnny Nash) Orig chords ˜,
Uriah Heep, 1978, (---) Orig chords ˜,
1st stanza: ( x 2 )
*
E---------------------|---------------------|
B-----7-8-7-----7-----|-----7-8-7-----------|
G-7-9-------9-7---7---|-7-9-------9-7-8-7-9-|
D-------------------7-|---------------------|
A---------------------|---------------------|
E---------------------|---------------------|
2nd stanza:
*
E---------------------| |---------------|---------|
B-----7-8-7-----7-----| |---------------|---------|
G-7-9-------9-7---7---| |---------------|---7-9-7-|
D-------------------7-| |-7-7-7-10----9-|-9-------|
A---------------------| |----------10---|---------|
E---------------------| |---------------|---------|
3rd stanza:
*
E----------------------------|
B-10-10-10--10-10-8----8-----|
G-------------------10---7h9-|
D----------------------------|
A----------------------------|
E----------------------------|
Chorus:
*
E--------|----------|-7--7-|----------|-------------|
B-10--10-|----10----|-7--7-|------7---|-------------|
G-11--11-|-11----11-|------|--7-9---9-|-7-7-7-7-7---|
D--------|----------|------|9---------|-----------9-|
A--------|----------|------|----------|-------------|
E--------|----------|------|----------|-------------|
1st stanza:
*
E-intro-|-----------|-------------|-------------------|
B-------|-----------|-------------|-------------------|
G-------|-----------|-------------|-------7-7-7-------|
D-------|---7-7-9-7-|-----7-7-9-7-|-7-7-9-------7-9-7-|
A-------|-9---------|-9-9---------|-------------------|
E-------|-----------|-------------|-------------------|
*
E-----------------------|-----------------|
B-----------------------|-----------------|
G---6-6-6-----6-7-7-6---|---7-7-7-7-7-----|
D-7-------7-9---------9-|-7-----------9-7-|
A-----------------------|-----------------|
E-----------------------|-----------------|
A
E------------------------------------------------|
B-10-10-10--10-10-8----10-10-9-13-14-12-13-12-10-|
G-------------------10---------------------------|
D------------------------------------------------|
A------------------------------------------------|
E------------------------------------------------|
2nd stanza:
*
E-------------|---------|--------------------|
B-------------|---------|--------------------|
G-------------|---6-7-6-|------7-7-7-7-------|
D-------7-9-7-|-7-------|-9-9----------7-9-7-|
A-9-9-9-------|---------|--------------------|
E-------------|---------|--------------------|
*
E-----------------------|-----------------|
B-----------------------|---------7---7---|
G---6-6-6-----6-7-7-6---|---7-7-7---7---9-|
D-7-------7-9---------9-|-9---------------|
A-----------------------|-----------------|
E-----------------------|-----------------|
3rd stanza:
*
E-------------|-----------------|-------------|
B-8-8-7---7---|-----------------|-------------|
G-------7---9-|-7-7-7-9-9-7-----|-----7-7-9-7-|
D-------------|-------------9-7-|-7-9---------|
A-------------|-----------------|-------------|
E-------------|-----------------|-------------|
*
*
chorus...
E-------------|----------------|
B-------------|----11-11----11-|
G-9-9-9-6-7---|-10-------10----|
D-----------9-|----------------|
A-------------|----------------|
E-------------|----------------|
118
Potdevin - Cool Riffs and Hot Lead Guitar Licks - www.lepotdevin.com
One More Night
You Decorated My Life
Intro:
*
E----------6-----------------|
B-6-6-8--6---9--6-6-8--9-8-6-|
G----------------------------|
D----------------------------|
A----------------------------|
E----------------------------|
Intro:
*
E-10------------------|-------------|
B------12-13-12-10-12-|-10----------|
G----12---------------|----12--11-9-|
D---------------------|-------------|
A---------------------|-------------|
E---------------------|-------------|
Phil Collins, 1984, (Phil Collins) Orig chords ˜,
Kenny Rogers, 1980, (O.Hopp, B. Morrison) Orig chords ˜,
1st stanza: ( x 2 )
*
E---------------|---------|
B---------------|---------|
G-5-8-8-8-7-8-5-|---------|
D---------------|---5-8---|
A---------------|-6-----8-|
E---------------|---------|
1st stanza:
*
E-----------------|---------------|-------------|
B-----------------|---------------|-------------|
G-----------------|---------------|-----4-7-4-7-|
D---------5-5-----|-----5---7-5---|-5-5---------|
A-5-5-5-7-----7-5-|-5-7---7-----7-|-------------|
E-----------------|---------------|-------------|
1st time
*
E---------------|
B---------------|
G-5-8-8-8-----5-|
D---------8-5---|
A---------------|
E---------------|
*
E-------------|-----------------|
B-----------5-|-----------------|
G-4---4-7-4---|-----------------|
D---5---------|-------5---7-5---|
A-------------|-5-5-7---7-----7-|
E-------------|-----------------|
2nd time
|-------------|
|-------6-8-8-|
|-5-5-8-------|
|-------------|
|-------------|
|-------------|
Chorus:
*
E-----------------------------|
B-----------------------------|
G-----------------------------|
D-----5----8-5------5---6-5---|
A-8-8----8------8-8---------8-|
E-----------------------------|
Chorus:
*
E-----|-------------|-----------|-----------------|
B-----|-------------|-----------|-----------------|
G---7-|-5-4-5-5-7-4-|-4-----4---|-------4-5---5-7-|
D-----|-------------|---7-7---5-|-5-5-7-----7-----|
A-5---|-------------|-----------|-----------------|
E-----|-------------|-----------|-----------------|
*
E---------------|
B---------------|
G-------4-7-4---|
D-------------5-|
A-5-5-5---------|
E---------------|
Try Whistling !
Potdevin - Cool Riffs and Hot Lead Guitar Licks - www.lepotdevin.com
119
You Were Always On My Mind
Elvis Presley / Willy Nelson, 1969, (---) Orig chords ˜,
Intro:
*
E-------|----------|---------|
B-12-10-|----------|---------|
G-------|-12-11-12-|-11-9----|
D-------|----------|------12-|
A-------|----------|---------|
E-------|----------|---------|
1st stanza:
*
( x 2 )
*
*
E---------------|---------------|
B---------------|---------------|
G-----2---------|---------------|
D-4-5---5-4-4-2-|---2-4-2-------|
A---------------|-5-------5-4-2-|
E---------------|---------------|
*
E-----------------|-----------------|
B-----------------|-----------------|
G-4-4-4-4-4-2-----|-----------------|
D-------------2-4-|-2-4-5-4-2---4-2-|
A-----------------|-----------5-----|
E-----------------|-----------------|
Chorus
*
E---------------|---------------|
B---------------|---------------|
G-------------2-|---------------|
D-2-2-4-4-5-5---|-2-2-5-5-4-4---|
A---------------|-------------5-|
E---------------|---------------|
1st stanza and chorus :
2nd stanza:
*
( x 2 )
*
*
E-----|----------------------|
B-----|----------------------|
G-2---|----------------------|
D-----|-5-4-2---5-4-2---4-2--|
A---5-|-------5-------5------|
E-----|----------------------|
*
E-------------|
B-------------|
G-------------|
D-2h5-5-4-4---|
A-----------5-|
E-------------|
Lead solo:
*
E---------------------------|----------------|
B-------10------------------|----------------|
G-11-12----12-11-11-9h11p9--|----9-11-9------|
D---------------------------|-12--------12-9-|
A---------------------------|----------------|
E---------------------------|----------------|
*
E-------------|-------------|-----------|
B----10-12-10-|-------------|-----------|
G-11----------|-12-11-12-11-|-9-11-9-11-|
D-------------|-------------|-----------|
A-------------|-------------|-----------|
E-------------|-------------|-----------|
*
E----------------------|-------------------10-|
B----------------------|----------12-12-12----|
G-------9-11-9---------|-11-11-11-------------|
D-11h12--------12-11-9-|----------------------|
A----------------------|----------------------|
E----------------------|----------------------|
120
Outro:
*
E-----------------|-----------------|
B-----------------|-----------------|
G-4-4-4-4-4-2-----|-----------------|
D-------------2-4-|-2-4-5-4-2---4-2-|
A-----------------|-----------5-----|
E-----------------|-----------------|
è
Chorus
*
E---------------|---------------|
B---------------|---------------|
G-------------2-|---------------|
D-2-2-4-4-5-5---|-2-2-5-5-4-4---|
A---------------|-------------5-|
E---------------|---------------|
Potdevin - Cool Riffs and Hot Lead Guitar Licks - www.lepotdevin.com
Nothing Compares 2U
Sinead O´Connor / Prince, 1990, (Prince) Orig chords ˜,
1st stanza:
( x 2 )
*
E-------5-5-------5---|---------------|
B-6-6-8-----8-6-8-----|-----------6---|
G-------------------5-|-5-5-5-5-5-----|
D---------------------|-------------7-|
A---------------------|---------------|
E---------------------|---------------|
2nd stanza:
*
E-------------------5-5-------|---------------|
B-6-----6-6-----6-8-----8-6-8-|-----------6-6-|
G---5-7-----5-7---------------|-5-5-5-5-5-----|
D-----------------------------|---------------|
A-----------------------------|---------------|
E-----------------------------|---------------|
*
E-------------------5-5-------|---------------|
B-6-----6-6-----6-8-----8-6-8-|---6-6-----6-6-|
G---5-7-----5-7---------------|-5-----5-7-----|
D-----------------------------|---------------|
A-----------------------------|---------------|
E-----------------------------|---------------|
*
E--------------|
B---6-6-8-8-8b-|
G-7------------|
D--------------|
A--------------|
E--------------|
Chorus:
*
E---6-5-----|-5-13-------------|
B-6-----8-6-|--------8-8--8-8b-|
G-----------|------------------|
D-----------|------------------|
A-----------|------------------|
E-----------|------------------|
Lead solo:
* Choir Fill in:
*
E-----------|-------17-15-13----|-----------|
B-13--15-13-|-13h15----------13-|-----------|
G-----------|-------------------|-----5---5-|
D-----------|-------------------|-7-8---5---|
A-----------|-------------------|-----------|
E-----------|-------------------|-----------|
*
E-17-15-13-------|-------17-|
B----------15-13-|-13h15----|
G----------------|----------|
D----------------|----------|
A----------------|----------|
E----------------|----------|
4th stanza:
*
E-8-5-5--------5------|---------|-------------|
B-------8-8-6-6---6-8-|-6---8---|---------6-6-|
G---------------------|---5---5-|-5-5-5-5-----|
D---------------------|---------|-------------|
A---------------------|---------|-------------|
E---------------------|---------|-------------|
Chorus:
*
E---6-5-----|-6-5------------|
B-6-----8-6-|-----8-6--8-8b--|
G-----------|----------------|
D-----------|----------------|
A-----------|----------------|
E-----------|----------------|
1st stanza:
* Choir Fill in:
*
E-------5-5-----------|---------------|-----------|
B-6-6-8-----8-6-8-8---|-----------6---|-----------|
G-------------------5-|-5-5-5-5-5-----|-----5---5-|
D---------------------|-------------7-|-7-8---5---|
A---------------------|---------------|-----------|
E---------------------|---------------|-----------|
*
E-5-5---5---------------|-----------|-------------|
B-----8---6-8-8-8-6-8---|-9-8-6-8---|-9-8-6-8---6-|
G---------------------7-|---------7-|---------7---|
D-----------------------|-----------|-------------|
A-----------------------|-----------|-------------|
E-----------------------|-----------|-------------|
3rd stanza:
*
E---5-5---5----------------|-------------|
B-------8---8-6-8-6--6-8---|---------6---|
G-5----------------------5-|-5-5-5-5-----|
D--------------------------|-----------7-|
A--------------------------|-------------|
E--------------------------|-------------|
*
E---5-------5----5-----------5---------|
B-----8-6-8--------8---6-8-----8---6-8-|
G-5------------5-----7-----------7-----|
D--------------------------------------|
A--------------------------------------|
E--------------------------------------|
*
E-----5---5-5----5---------------|---------|
B---6---8------8------6-6--6-8-8-|---6-8-8-|
G-5-----------------7------------|-7-------|
D--------------------------------|---------|
A--------------------------------|---------|
E--------------------------------|---------|
*
E-5-5-5-5-5-----------------|
B-----------8-6-8-6---6-8---|
G-------------------7-----5-|
D---------------------------|
A---------------------------|
E---------------------------|
*
E-------------------------6-5-|
B-------------6---------5-----|
G-5-5-5-5-5-5---5-----6-------|
D-----------------8-7---------|
A-----------------------------|
E-----------------------------|
Chorus:
*
E-6-5-----|-5-13-------------|
B-----8-6-|--------8-8--8-8b-|
G---------|------------------|
D---------|------------------|
A---------|------------------|
E---------|------------------|
è
Humming is my thing
Potdevin - Cool Riffs and Hot Lead Guitar Licks - www.lepotdevin.com
121
All By Myself
Jamie O´Neal, 1969, (---) Orig chords ˜,
Main verse
G
*
E---------------|---------------------|
B---------------|---------------------|
G---------------|---------------------|
D-------7/9-9-9-|-7/9-9-9-10-7----7/9-|
A---------------|--------------10-----|
E---------------|---------------------|
*
*
E---------------------|-----------|
B---------------------|-----------|
G---------------------|-----------|
D-7/9-9-9-10-7----6/7-|-9---------|
A--------------10-----|---10-9-10-|
E---------------------|-----------|
Fill in
E-------------------|
B-------------------|
G-10-9-7------------|
D--------11-10-10-9-|
A-------------------|
E-------------------|
Chorus
*
*
E------7---|-----------|------7-----|----------|
B---10-----|-----------|---10-------|----------|
G-7------7-|---------7-|-7----------|----------|
D----------|-10-9-10---|---------10-|-10-10-10-|
A----------|-----------|------------|----------|
E----------|-----------|------------|----------|
lead piano*
*
E-------------------------|-------------|
B-12----13-12----12-------|-------------|
G----14-------14----14-12-|-15-14-12-14-|
D-------------------------|-------------|
A-------------------------|-------------|
E-------------------------|-------------|
*
*
E---------------------------|-------------------------|
B---------------------------|-------------------------|
G------12-14-15-12----------|----12-14-15-12----------|
D-15---------------15-14-15-|-15-------------15-14-15-|
A---------------------------|-------------------------|
E---------------------------|-------------------------|
*
*
E-------------------------|---------------------------|
B-------------13-12-------|---------------------------|
G----12-14-14-------14-12-|-15-14-12----13-12---------|
D-15----------------------|----------15-------15-13---|
A-------------------------|---------------------------|
E-------------------------|---------------------------|
*
E-------------------|
B-------------------|
G-11----------------|
D----15---13---12---|
A-------------------|
E-------------------|
Ending Chorus
*
*
E------7---|-----------|------7-8-|-8-10-11--|
B---10-----|-----------|---10-----|----------|
G-7------7-|---------7-|-7--------|----------|
D----------|-10-9-10---|----------|----------|
A----------|-----------|----------|----------|
E----------|-----------|----------|----------|
Chorus 4 - orchestra
*
E-------11----|-------------|-------11----|
B----14-------|-------------|----14-------|
G-11-------11-|----------11-|-11----------|
D-------------|-14-13-14----|-------------|
A-------------|-------------|----------14-|
E-------------|-------------|-------------|
*
*
E----------|-------------11-|
B----------|-------12-14----|
G----11-12-|-12-14----------|
D-14-------|----------------|
A----------|----------------|
*
E-------11----|-------------|-------11-12-|
B----14-------|-------------|----14-------|
G-11-------11-|----------11-|-11----------|
D-------------|-14-13-14----|-------------|
A-------------|-------------|-------------|
E-------------|-------------|-------------|
*
*
E-11----12-11-|-------11-----------|
B----14-------|----14--------------|
G-------------|-11-----------------|
D-------------|--------------------|
A-------------|--------------------|
E-------------|--------------------|
122
Potdevin - Cool Riffs and Hot Lead Guitar Licks - www.lepotdevin.com
Ode To My Family
Cranberries, 1994, (---) Orig chords ˜,
Intro:
( 2x )
D
Bm
F#m
G
D
E---------|---------|---------|---------||---|
B-7-5-7-7-|-7-5-7-7-|-7-5-7-7-|-7-8-----||-8-|
G---------|---------|---------|-----7-7-||---|
D---------|---------|---------|---------||---|
A---------|---------|---------|---------||---|
E---------|---------|---------|---------||---|
Arpeggio:
D
Bm
E----------------------|--------------------|
B--3------3------3-----|--3-----3-----3-----|
G----2------2------2---|----4-----4-----4---|
D------0------0------0-|------4-----4-----4-|
A----------------------|--------------------|
E----------------------|--------------------|
1st stanza:
F#m
E----------------------|----------------------|
B--2------2------2-----|--3-------------------|
G----2------2------2---|----2----2h4-2--2h4-2-|
D------4------4------4-|------0---------------|
A----------------------|----------------------|
E----------------------|----------------------|
D Bm F#m G
E-------------|-----------|-------------|
B-------------|-----------|-------------|
G-----7-7-6-4-|-4-6-------|-------------|
D-7-7---------|-----7-5-4-|-4-7-5-4-5-4-|
A-------------|-----------|-------------|
E-------------|-----------|-------------|
Cranberries
Dolores O´Riordan
Forgot the words?
Try la la la singing.
Potdevin - Cool Riffs and Hot Lead Guitar Licks - www.lepotdevin.com
123
Te Amo
Mary Es Mi Amor
1st stanza: ( x 2 )
*
E-------|-------------|--------------|
B-------|-------------|--------------|
G-------|-------------|--------------|
D-------|-------------|--------------|
A---2---|-4-5-4---2---|-4-5-4-2--4-2-|
E-5---5-|-------5---5-|--------------|
Intro:
E
F#m
E
E-0--|-0--4--0--|--2-|--4--2--4--2---2--4--2-|---|-12-|
B-0--|----------|--2-|-----------------------|---|-12-|
G-1--|----------|--2-|-----------------------|---|----|
D-2--|----------|--4-|-----------------------|---|----|
A-2--|----------|--4-|-----------------------|---|----|
E-0--|----------|--2-|-----------------------|---|----|
Umberto Tozzi, 1977, (G. Bigazzi) Orig chords ˜,
*
E-------------------------------|
B-------------------------------|
G-------------------------------|
D-------------------------------|
A-4-5-4-2---2-4-5-4---2-4-5-(2)-|
E---------5---------5-----------|
Leo Dan, 1966, (Leo Dan) Orig chords ˜,
1st stanza: ( x 2 )
*
E---------|-----------------------|---------------|
B---------|-----------------------|---------------|
G---------|-----------------------|---------------|
D-7-------|---4-6-7-7-6-4-6-------|-----4-6-6-4---|
A---4-4-4-|-4---------------------|---7---------7-|
E---------|-----------------7-7-7-|-7-------------|
|-----|
|-----|
|-----|
|---7-|
|-7---|
|-----|
2nd stanza:
*
E-----|--------------|-------------|
B-----|--------------|-------------|
G-----|-6-7-6--------|-6-7-6---6---|
D-9-7-|-------7--9-7-|-------9---9-|
A-----|--------------|-------------|
E-----|--------------|-------------|
*
E---------|-----------------|
B---------|-----------------|
G---------|-----------------|
D-4-------|-------4-4---4-6-|
A---4-4-4-|---6-7-----7-----|
E---------|-7---------------|
*
E---------------------------------|
B---------------------------------|
G-6-7-6-------6-7-6-------6-7-----|
D-------9-7-9-------9-7-9-----9-7-|
A---------------------------------|
E---------------------------------|
|-------|
|-------|
|-------|
|-6-4-6-|
|-------|
|-------|
2nd stanza:
*
E---------------|---------------|---------------|
B---------------|-----------5-7-|---------4---4-|
G-----------4-6-|-6-6-4-6-6-----|-6-6-4-6---6---|
D-6-6-4-6-6-----|---------------|---------------|
A---------------|---------------|---------------|
E---------------|---------------|---------------|
*
E-----------------|-----------------|
B-----------------|-----------------|
G-------------9-6-|-----------------|
D-7-7-7-7-9-7-----|-7-7-7-7-9-7-7---|
A-----------------|---------------9-|
E-----------------|-----------------|
*
E-----------------|---------|--------------|
B-----------------|---------|-----------10-|
G---------6-------|-----6-7-|-----6-7-9----|
D-9-9-9-9---9-9-6-|-7-9-----|-7-9----------|
A-----------------|---------|--------------|
E-----------------|---------|--------------|
*
E---------------|---------|---------|---------------|
B---------5-6-8-|-8-5-5-5-|-7-5-5-5-|-7-7-5-4-5-7-5-|
G-4-4-4-4-------|---------|---------|---------------|
D---------------|---------|---------|---------------|
A---------------|---------|---------|---------------|
E---------------|---------|---------|---------------|
3rd stanza:
*
E-------|-----------------------|-------------------|
B-10-10-|-10-10-10-10-10--10-10-|-10-10-10-10-10-10-|
G-------|-----------------------|-------------------|
D-------|-----------------------|-------------------|
A-------|-----------------------|-------------------|
E-------|-----------------------|-------------------|
*
E---------------------------------|
B---------------------------------|
G-6-7-6-------6-7-6-------6-7-----|
D-------9-7-9-------9-7-9-----9-7-|
A---------------------------------|
E---------------------------------|
*
E-----------------|-----------------|
B-----------------|-----------------|
G-------------9-6-|-----------------|
D-7-7-7-7-9-7-----|-7-7-7-7-9-7-7---|
A-----------------|---------------9-|
E-----------------|-----------------|
124
Potdevin - Cool Riffs and Hot Lead Guitar Licks - www.lepotdevin.com
Siempre En Mi Mente
Casi Siempre Estoy Pensando En Ti
Intro:
A
E-------------|--------------|-----------|---------|
B-------------|--------------|--------13-|---------|
G-------------|------9-12-10-|---13-12---|---------|
D------10--10-|-10-12--------|-10--------|---12-10-|
A-10-12--12---|--------------|-----------|-10------|
E-------------|--------------|-----------|---------|
G#
A#
D# Cm
E--------------------|---------------------------|
B-20--20-18--18-18---|---18-20-21-20-21----------|
G---20-----20-----20-|-20------------------------|
D--------------------|---------------------------|
A--------------------|---------------------------|
E--------------------|---------------------------|
Juan Gabriel, 1987, (Juan Gabriel) Orig chords ˜,
1st stanza: ( x 2 )
*
E------------------|----------------------|
B------------------|----------------------|
G------------------|----------------------|
D-5-5-5--5---------|-----5-5-5--5-----5-5-|
A----------8-7-8-8-|-7-8----------8-7-----|
E------------------|----------------------|
Jorge Muñiz, 1987, (---) Orig chords:˜
G#
A#
E-18-20-19-18-19-18--18--------------------------|
B------------------21--21-20-21-20-18-20-18------|
G------------------------------------------20----|
D------------------------------------------------|
A------------------------------------------------|
E------------------------------------------------|
*
E-----------|---------------|----------------------|
B-----------|---------------|----------------------|
G-----------|---------------|----------------------|
D-5-5-5-7-5-|-----------5---|-----5-5-5--5-5-5-5---|
A-----------|-8-7-8-8-8---8-|-7-8----------------7-|
E-----------|---------------|----------------------|
D#
Dm
Cm
G#
A#
E-----------------|------------------------------|
B-20--20-18--18---|---18--20-18------------------|
G---20-----20--20-|-20--20-----------------------|
D-----------------|------------------------------|
A-----------------|------------------------------|
E-----------------|------------------------------|
2nd stanza:
*
E-------------|-------------------|
B-------------|-------------------|
G-------4-4-4-|-4-----------------|
D-5-7-5-------|---7-5-5-5-5-5-5-5-|
A-------------|-------------------|
E-------------|-------------------|
1st stanza:
Fm
A#
D#
Cm
E--------------------|---------------------|
B--------------------|---------------------|
G----------------3---|-----------------3---|
D-3-5--6-5-6-5-6---3-|---3--5-3--5-3-5-----|
A--------------------|-6-----------------6-|
E--------------------|---------------------|
*
E-------------|----------------------------|
B-------------|----------------------------|
G-------4-4-4-|-4--------------------------|
D-5-7-5-------|---7-5-5-5--5-5-7-7-7-5-5-5-|
A-------------|----------------------------|
E-------------|----------------------------|
Fm
A#
D#
Cm
E---------------------|-------------------|
B---------------------|-------------------|
G---------------3-----|---------------3---|
D-3-5-6-5-6-5-6---5-3-|---3-5-3-5-3-5---6-|
A---------------------|-6-----------------|
E---------------------|-------------------|
*
E-----------------|---------|
B-----------------|---------|
G-----------------|---------|
D-5-5-7-7-7-5-5-5-|-5-----5-|
A-----------------|---8-7---|
E-----------------|---------|
G#
A#
D#
Dm Cm
E---------------------|---------------|
B---3-4-4-4-4-4-4-3---|-----------3---|
G-5-----------------5-|-3-5-3---3---5-|
D---------------------|-------5-------|
A---------------------|---------------|
E---------------------|---------------|
1st & 2nd stanza:
Fm
A#
D#
Cm
E---------------------|-------------------|
B---------------------|-------------------|
G---------------5-3-5-|---------------3---|
D-3-5-6-5-6-5-6-------|---3-5-3-5-3-5-----|
A---------------------|-6---------------6-|
E---------------------|-------------------|
Outro:
*
E-----------|-------------------|-----------|
B-----------|-8-8-8-8-5---------|-----------|
G-5-5-5-5-5-|-----------5-7-4-4-|-----------|
D-----------|-------------------|-5-5-5-5-5-|
A-----------|-------------------|-----------|
E-----------|-------------------|-----------|
G#
A#
D# Cm
E-------------------------3-|
B---3-4-4-4-4-4-4-3-4-6-----|
G-5---------------------3---|
D---------------------------|
A---------------------------|
E---------------------------|
Fm
A#
D# Cm
E-------------------------------|
B-------------------------------|
G---------------3---------------|
D-3-5-6-5-6-5-6---5-3-3---3-5---|
A-----------------------6-----6-|
E-------------------------------|
Outro:
Fm n.c
(A#)
D# Dm
E-----------------------------------|
B-----------------------------------|
G---------------3-------------------|
D-3-5-6-5-6-5-6---5-3-3---3-5-------|
A-----------------------6---------6-|
E-----------------------------------|
Potdevin - Cool Riffs and Hot Lead Guitar Licks - www.lepotdevin.com
Cm
Fm
D#
125
Querida
Juan Gabriel, 1987, (Juan Gabriel) Orig chords ˜,
1st stanza:
( x 2 )
*
E-----------|-----------------------|-----------------------|
B-----------|-----------------------|-----------------------|
G-----------|-7-7-7-6-6-4-----------|-7-7-7-6-6-4-----------|
D-7-7-7-5-4-|-------------7-7-7-5-4-|-------------7-7-7-5-4-|
A-----------|-----------------------|-----------------------|
E-----------|-----------------------|-----------------------|
*
E-------------|-------------|-----------------|-----------|
B-------------|-------------|-----------------|-----------|
G-4-4---4-----|-4-4---4-----|-4-4---4---------|-----------|
D-----7---7-5-|-----7---7-5-|-----7---7-4-----|---4-------|
A-------------|-------------|-------------5-7-|-5---7-5-7-|
E-------------|-------------|-----------------|-----------|
2nd stanza:
*
E-------|-------------------|-------------------|
B-------|-------------------|-------------------|
G-------|-4-------------4---|-4-------------4---|
D-----7-|---7-5-5-4-------7-|---7-5-5-4-------7-|
A-5-5---|-----------7-5-----|-----------7-5-----|
E-------|-------------------|-------------------|
*
E-----------------|-----------|
B-----------------|-----------|
G-----------------|-----------|
D-4-5-4-5-4-------|---4-------|
A-----------7-5-7-|-5---7-4-7-|
E-----------------|-----------|
3rd stanza
*
E-----|-----------|-------------------|-------------------|
B-----|-----------|-----------5---8-7-|-----------5---8-7-|
G-----|-----------|-7-7-7-6-7---------|-7-7-7-6-7---------|
D-7-7-|-7-7-7-5-4-|-------------7-----|-------------7-----|
A-----|-----------|-------------------|-------------------|
E-----|-----------|-------------------|-------------------|
6th stanza:
*
( x 2 )
*
( x 2 )
*
*
E---5-5-|---5-5-|-5-5-5-5-5-|-5-5-5-5-5-|
B-7-----|-7-----|-----------|-----------|
G-------|-------|-----------|-----------|
D-------|-------|-----------|-----------|
A-------|-------|-----------|-----------|
E-------|-------|-----------|-----------|
1st time
*
E-5-5-5-5-5-5-5-5-5--5-5-|
B------------------------|
G------------------------|
D------------------------|
A------------------------|
E------------------------|
2nd time
*
E
B-5-5-5-5-5-------------------------5-|
G-----------7-7-6-7-6-7-6-7-6-5---7---|
D-------------------------------7-----|
A-------------------------------------|
E-------------------------------------|
Guitar Solo
*
E----------------------|-17-17-19----------|
B----------------17-19-|----------19-17----|
G----16-19-16-19-------|----------------19-|
D-19-------------------|-------------------|
A----------------------|-------------------|
E----------------------|-------------------|
*
E-17-19-17----------------------------------|
B----------19-17----------------17-19-17----|
G----------------19-16----16-19----------19-|
D----------------------19-------------------|
A-------------------------------------------|
E-------------------------------------------|
*
E-------------|
B---8-7---7-5-|
G-7-----7-----|
D-------------|
A-------------|
E-------------|
4th stanza:
*
E-7-7-|-5-5-5----|-------------7-5----|-------------7-5-----|
B-----|------8-7-|-8-7-5-7-8-5----8-7-|-8-8-7-5-7-5-----8-7-|
G-----|----------|--------------------|---------------------|
D-----|----------|--------------------|---------------------|
A-----|----------|--------------------|---------------------|
E-----|----------|--------------------|---------------------|
*
E-------------|-------------|-----------------|---|
B-8-8-7-8-7-5-|-8-8-7-8-7-5-|-8-8-7-8-7-5---5-|-5-|
G-------------|-------------|-------------7---|---|
D-------------|-------------|-----------------|---|
A-------------|-------------|-----------------|---|
E-------------|-------------|-----------------|---|
5th stanza:
*
E---5-5-----|---------------7-5-----|---------------7-5-----|
B-7-----8-7-|-8-8-7-5-7-8-5-----8-7-|-8-8-7-5-7-8-5-----8-7-|
G-----------|-----------------------|-----------------------|
D-----------|-----------------------|-----------------------|
A-----------|-----------------------|-----------------------|
E-----------|-----------------------|-----------------------|
*
E-------------|------5-7-5---|
B-8-8-7-8-7-8-|-8-8--------8-|
G-------------|--------------|
D-------------|--------------|
A-------------|--------------|
E-------------|--------------|
126
*
E-------------------|----------|
B-8-8-7-8-7-5---7-5-|---7--5---|
G-------------7-----|-7--------|
D-------------------|--------7-|
A-------------------|----------|
E-------------------|----------|
6th stanza
2nd Guitar solo:
7th stanza
*
E-----|-----|---|-7-5-------5---5-------|-5-|
B-7-7-|-7-7-|-8-|-----8-7-8---7---------|---|
G-----|-----|---|-----------------7-6-7-|---|
D-----|-----|---|-----------------------|---|
A-----|-----|---|-----------------------|---|
E-----|-----|---|-----------------------|---|
*
E---------------------5-|-5\-|
B-7-7-7-7-7-7-8-8-8-8---|----|
G-----------------------|----|
D-----------------------|----|
A-----------------------|----|
E-----------------------|----|
Outro: ( repeat and fade )
*
E-------------|---------------|
B-------------|---------------|
G-7-4---7-4---|-7-4---6-6-4---|
D-----7-----7-|-----7-------7-|
A-------------|---------------|
E-------------|---------------|
Potdevin - Cool Riffs and Hot Lead Guitar Licks - www.lepotdevin.com
Agua Caliente
Fausto, 1979, (Martinha) Orig chords ˜,
Intro:
A
G
E-----------------------------|----------------|
B-----14-15-14--14--15-14-----|-----12-13-12---|
G---14--------14---------14---|---12--------12-|
D-14-----------------------14-|-12-------------|
A-----------------------------|----------------|
E-----------------------------|----------------|
F
E-----------|-----------------------------|
B-13-12-----|-----10-11-10--10--11-10-----|
G------12---|---10--------10---------10---|
D--------12-|-10-----------------------10-|
A-----------|-----------------------------|
E-----------|-----------------------------|
E
A
F# G# A
E------------------|---------------2---4----5-|
B---9-10-9--10-9---|----------------2---4---5-|
G--9------9-----9--|-6-7-6-4---------3---5--6-|
D-9--------------9-|--------7-6-7-------------|
A------------------|--------------------------|
E------------------|--------------------------|
1st stanza: ( x 2 )
*
E--------------------|--------------|
B--------------------|--------------|
G--------------------|--------------|
D---7-7-7-7--7-7-7-6-|-6-6-7--6-6-4-|
A-7------------------|--------------|
E--------------------|--------------|
Chorus ( x 2 )
*
E-------------------------------|
B-7-7-7-7--7-7-7-5--5-5-5-------|
G-------------------------7-7-6-|
D-------------------------------|
A-------------------------------|
E-------------------------------|
*
E-------------------------------|
B-------------------------------|
G-7-7-7-7--7-7-6-4--4-4-6-7-7-6-|
D-------------------------------|
A-------------------------------|
*
E---------------------------------|
B---------------------------------|
G----------------6-4--4-4-4---4-6-|
D---7-7-7-7--6-7------------6-----|
A-7-------------------------------|
E---------------------------------|
*
E--------------------------------|
B--------------------------------|
G-6-4-4-4-4-3-4-7-6--6-6-6-4-4---|
D------------------------------7-|
A--------------------------------|
E--------------------------------|
E-------------------------------|
*
E-------------------------------------|
B-7-7-7-7-7-7-7-5---5-5-5-------------|
G-------------------------7-7-6-4-4---|
D-----------------------------------7-|
A-------------------------------------|
E-------------------------------------|
1st time
*
E-------------------------------|
B-------------------------------|
G-------------------------------|
D---7-7-7-7-7-7-7-7-7-7-6-4-4---|
A-7---------------------------7-|
E-------------------------------|
*
E------------------------------|
B------------------------------|
G-6-6-6-6-6-6-6-4--4-4-7-6-4---|
D----------------------------7-|
A------------------------------|
E------------------------------|
2nd time
*
E---------------------------------|
B---------------------------------|
G-----------4---6-4--4-4-7-6-4----|
D---7-7-7-7---7-----------------7-|
A-7-------------------------------|
E---------------------------------|
Outro:
A
F# G#
A
E----------------2---4----5----|
B-----------------2---4---5----|
G-6-7-6-4----------3---5--6----|
D---------7-6-7----------------|
A------------------------------|
E------------------------------|
Inspired by the singers.
Potdevin - Cool Riffs and Hot Lead Guitar Licks - www.lepotdevin.com
127
La Maldita Primavera
Yuri, 1980, (A. Casela, G.Sabio, L.Escolari) Orig chords ˜,
1st stanza:
*
E---------------|-----------------|---------------|
B---------------|-----------------|---------------|
G---------------|-----------------|---5-----------|
D-7-8-7-5---5-7-|-7-8-7-5---7-5---|-8---8-7-5-7-8-|
A---------8-----|---------8-----5-|---------------|
E---------------|-----------------|---------------|
*
E-------------|-----------------|-------|
B-------------|-----------------|-------|
G-------------|-----------------|-------|
D-8-8--8-8-7--|-7-7-7-7-7-7-7-5-|-7-5-7-|
A-------------|-----------------|-------|
E-------------|-----------------|-------|
3rd stanza - instrumental:
*
E------|---------------|-----------------|
B------|-8-9-8-6---6-8-|-8-9-8-6---8-6---|
G--7-7-|---------8-----|---------8-----5-|
D-9-9--|---------------|-----------------|
A------|---------------|-----------------|
E------|---------------|-----------------|
*
E---6-----------|
B-9---9-8-6-8-9-|
G---------------|
D---------------|
A---------------|
E---------------|
4th stanza:
*
E-----------|-----------------|------------|
B-9-9-9-9-8-|-8-9-8-----8-8-6-|-6-6--6-6---|
G-----------|-------8---------|----------8-|
D-----------|---------8-------|------------|
A-----------|-----------------|------------|
E-----------|-----------------|------------|
2nd stanza:
*
E---------------|-----------------|
B---------------|-----------------|
G-4-5-4-------4-|-4-5-4-----4-----|
D-------7-5-7---|-------7-5---7---|
A---------------|---------------7-|
E---------------|-----------------|
*
E---------------|------------|-----------------|
B---------------|------------|-----------------|
G-5-7-5-4---4-5-|-5-5--5-5-4-|-4-5-4-----4-4---|
D---------7-----|------------|-------5-5-----7-|
A---------------|------------|-----------------|
E---------------|------------|-----------------|
*
E------------|---------------|
B------------|---------------|
G------------|---------4-----|
D-7-7--7-7-5-|-4-5-5-4---7-5-|
A------------|---------------|
E------------|---------------|
Chorus:
*
E---|-----5-----5-----|---5-7-5---|---5-7-5---7-5----|
B-8-|-7-8---8-7---8---|-8-------8-|-8-------8--------|
G---|---------------7-|-----------|----------------7-|
D---|-----------------|-----------|------------------|
A---|-----------------|-----------|------------------|
E---|-----------------|-----------|------------------|
*
E---------|-----5-----5-|-7-5-5-7---|-8-8-8-8-7-|
B---8-7-8-|-7-8---8-7---|---------8-|-----------|
G-7-------|-------------|-----------|-----------|
D---------|-------------|-----------|-----------|
A---------|-------------|-----------|-----------|
E---------|-------------|-----------|-----------|
*
E---------|-------|
B-----6---|-8-6---|
G-7-8---7-|-----8-|
D---------|-------|
A---------|-------|
E---------|-------|
5th stasnza:
*
E---------|-----6-----6-8-6-6-8---|
B---9-8-9-|-8-9---9-8-----------9-|
G-8-------|-----------------------|
D---------|-----------------------|
A---------|-----------------------|
E---------|-----------------------|
*
E-9-9-9-9-8-|-8-9-8-----8-8-6-|-6-6--6-6---|
B-----------|-------9---------|----------9-|
G-----------|---------8-------|------------|
D-----------|-----------------|------------|
A-----------|-----------------|------------|
E-----------|-----------------|------------|
*
fade out
E-----6---8-6---|-----6-----6-----|---6-8-|
B-8-9---8-----9-|-8-9---9-8---9---|-9-----|
G---------------|---------------8-|-------|
D---------------|-----------------|-------|
A---------------|-----------------|-------|
E---------------|-----------------|-------|
*
E-7-8-7-----7-7-5-|--5-5--5-5---|-----5---7-5---|
B-------8---------|-----------8-|-7-8---8-----8-|
G---------7-------|-------------|---------------|
D-----------------|-------------|---------------|
A-----------------|-------------|---------------|
E-----------------|-------------|---------------|
2nd stanza, chorus,
Singing la la la is ok !
128
Potdevin - Cool Riffs and Hot Lead Guitar Licks - www.lepotdevin.com
Esta Tarde Vi Llover
Si No Te Hubieras Ido
1st stanza:
*
E---------------|-----------|-----------|
B---------------|-----------|-----------|
G---6-9-8-8-7-8-|-9-8-8-7-8-|-8-6-6-5-6-|
D-9-------------|-----------|-----------|
A---------------|-----------|-----------|
E---------------|-----------|-----------|
Intro:
Armando Manzanero / Franck Pourcel 1979, (Manzanero) Orig chords ˜,
*
E---------------|-----------|-----------|
B-----7---------|-7---------|-----------|
G-6-8---9-9-8-9-|---9-9-8-9-|-9-8-8-7-8-|
D---------------|-----------|-----------|
A---------------|-----------|-----------|
E---------------|-----------|-----------|
*
E----------|---------|-----------|
B-6-7-10-9-|-7---9-7-|-7-----7---|
G----------|---9-----|---9-8---9-|
D----------|---------|-----------|
A----------|---------|-----------|
E----------|---------|-----------|
*
E-----7-6-|-----6-|-----------|---------|
B-8-9-----|-9-7---|-9-7-6-9-6-|-----7---|
G---------|-------|-----------|-9-8---8-|
D---------|-------|-----------|---------|
A---------|-------|-----------|---------|
E---------|-------|-----------|---------|
2nd stanza:
*
E----------------------|----------------|
B-12-14-17-16-16-15-16-|-17-16-16-15-16-|
G----------------------|----------------|
D----------------------|----------------|
A----------------------|----------------|
E----------------------|----------------|
*
E----------------|
B-16-14-14-13-14-|
G----------------|
D----------------|
A----------------|
E----------------|
*
E-------14-12-12-11-12-|-14-12-12-11-12-|
B-14-16----------------|----------------|
G----------------------|----------------|
D----------------------|----------------|
A----------------------|----------------|
E----------------------|----------------|
*
E-16-14-14-13-14-|
B----------------|
G----------------|
D----------------|
A----------------|
E----------------|
3rd stanza:
*
E--------|-------7-6-|----6-9-7--6-7-9-7-|
B-6-7-10-|-9-8-9-----|-10----------------|
G--------|-----------|-------------------|
D--------|-----------|-------------------|
A--------|-----------|-------------------|
E--------|-----------|-------------------|
*
E-9-7-7-6-7-|-9-7-7-6-7-|-9-7-|
B-----------|-----------|-----|
G-----------|-----------|-----|
D-----------|-----------|-----|
A-----------|-----------|-----|
E-----------|-----------|-----|
Marisella / Marco Antonio Muñiz 1980, (M A Muñiz) Orig chords ˜,
E
1st stanza:
*
( x 2 )
*
G# C#m
A
B
E
E--------------------------------|
B--------------------------------|
G--------6-6-8-9-8-9-6-6-----6---|
D------------------------9-7---9-|
A--------------------------------|
E--------------------------------|
B
A
E
E----------------------------|
B----------------------------|
G----------------------------|
D------7-6-7-6-9-------7-6-9-|
A----9-----------9-9-9-------|
E----------------------------|
G#
C#m
A
B
A
E
E-----------------|-----------------|-----------|
B-----------------|-----------------|-----------|
G-6-6-6-8-9-8-9-6-|-6---6---6---6---|-----------|
D-----------------|---9---9---9---7-|-------7-6-|
A-----------------|-----------------|-9-9-9-----|
E-----------------|-----------------|-----------|
2nd stanza:
*
( x 2 )
*
G# C#m
A
B
E
E--------------------------------|
B--------------------------------|
G--------6-6-8-9-8-9-6-6-----6---|
D------------------------9-7---9-|
A--------------------------------|
E--------------------------------|
B
A
E G# C#m
E-----------------------------|
B-----------------------------|
G-----------------------------|
D-------7-6-7-6-9-------7-6-9-|
A-----9-----------9-9-9-------|
E-----------------------------|
C#m B A
B
A
E
E----------------------------------|
B----------------------------------|
G----------------------------------|
D------------7-6-7-6-9-------7-----|
A----------9-----------9-9-9---6-7-|
E----------------------------------|
Chorus
*
( x 3 )
*
B
E
E----------------7--------------|
B------10-9-10-9---7-7-7-7-10-9-|
G----9--------------------------|
D-------------------------------|
A-------------------------------|
E-------------------------------|
G#
C#m
C#m B A
B
A
E
E------------------|-------------------------------|
B-9-9-10-9-7-9-7---|----------------9----------7---|
G----------------9-|------9-9-9-9-9---8--8-8-8---9-|
D------------------|-------------------------------|
A------------------|-------------------------------|
E------------------|-------------------------------|
2nd stanza
Chorus
Potdevin - Cool Riffs and Hot Lead Guitar Licks - www.lepotdevin.com
129
Eres Tu
Cose Della Vita
Intro:
*
E-------|-------------------|----------|
B-------|-------------------|----------|
G-0-3---|---0-1-0-----------|----0-----|
D-----1-|-3-------3-1-1-0-1-|-3-----3--|
A-------|-------------------|----------|
E-------|-------------------|----------|
Intro:
E
D A D
A D A D
E----------------------------------------------|
B--0----------------7-----7--------------------|
G--1----------------7--6--7--------------------|
D--2----------------7--7--7--------------------|
A--2----------------5--7--5----0---------------|
E--0-------0-0-1-2--5--5--5--0---2-------------|
Mocedades, 197--, (--) Orig chords ˜,
1st stanza:
Fill in
E---------------------|--------|-------|
B--------8-8----------|------8-|-------|
G---8-10-----10-8-7-8-|-10-8---|-------|
D-8-------------------|--------|-------|
A---------------------|--------|-4-5-6-|
E---------------------|--------|-------|
*
E------------------------|
B--------8-8-------------|
G---8-10-----10-8-7----7-|
D-8-----------------10---|
A------------------------|
E------------------------|
*
E---------------------|-8-8---------|
B--------8-8----------|-----11----8-|
G---8-10-----10-8-7-8-|--------10---|
D-8-------------------|-------------|
A---------------------|-------------|
E---------------------|-------------|
*
E----------|-----|--------|
B-9-8------|-8---|--------|
G--------8-|-----|----8-8-|
D-----10---|---8-|-10-----|
A----------|-----|--------|
E----------|-----|--------|
Chorus:
*
E--------|--------------------|
B-8-11---|----8-9-8------8----|
G------8-|-10-------10-8---10-|
D--------|--------------------|
A--------|--------------------|
E--------|--------------------|
*
E----10-11----|------8---|---------|-----|
B-11-------11-|-9-11---8-|---------|-----|
G-------------|----------|-10-8-10-|-8-8-|
D-------------|----------|---------|-----|
A-------------|----------|---------|-----|
E-------------|----------|---------|-----|
Eros Ramazzotti, 1998, (---) Orig chords ˜,
* 1st stanza:
( 2 x )
*
A
E-----------------|---------------|
B-----------------|-----------2-2-|
G-2---2---2-2-----|-2---2---2-----|
D---4---4-----4-2-|---4---4-------|
A-----------------|---------------|
E-----------------|---------------|
*
E---------------|---------------------|
B-3-2-----------|-3-3-3-2-------------|
G-----2-4-2-----|---------4-2-4-2-----|
D-----------4-2-|-----------------4-2-|
A---------------|---------------------|
E---------------|---------------------|
Lead solo:
1st stanza:
2nd stanza: ( 2 x )
*
E-2-2-2------------------------|
B--------5-5-5-3-3-3-2-2-2---3-|
G--------------------------4---|
D------------------------------|
A------------------------------|
E------------------------------|
*
E-----------------------------|
B-----2-3-2---2-3-2-----------|
G-2-4-------2-------2-4-2-----|
D-------------------------4-2-|
A-----------------------------|
E-----------------------------|
Fill in
*
E-----------|-----------|
B-----------|---------2-|
G-----2-2---|-----2-2---|
D-2-2-----4-|-2-2-------|
A-----------|-----------|
E-----------|-----------|
Lead solo:
1st stanza - two semitones up
*
E-----------------|---------------|
B-----------------|---------------|
G-4---4---4-4-----|-4---4---4-4-4-|
D---6---6-----6-4-|---6---6-------|
A-----------------|---------------|
E-----------------|---------------|
130
Potdevin - Cool Riffs and Hot Lead Guitar Licks - www.lepotdevin.com
La Flaca
Jarabe de Palo, 1998, (---) Orig chords ˜,
Intro:
Am E
5
E
Am
D#
D
C
E7 (2nd)
7
Ddim
D# (2nd)
x
D (2nd)
x
x
E
D dim
C
3
5
6
x
Am
x
6
x
1st stanza: ( 2 x )
Am
E
E D# D
C
Ddim
Am
E--------------------------------|-----------------|------------------|
B--------------------------------|-----------------|------------------|
G--------------------------------|-----------------|------------------|
D-7-7-7-7-7-7-6--------6---------|-------------5---|--5---5---5---7-7-|
A----------------7-7-7---7-7-7-5-|-5---5---5-----7-|----7---7---7-----|
E--------------------------------|---8---8---8-----|------------------|
1st time:
E
E D# D
F7
E7
F
F F# G n.c
Am E Am
E--------------------------------|-----------------|---------------|-----------------------|
B--------------------------------|-----------------|---------------|-----------------------|
G--------------------------------|-----------------|---------------|-----------------------|
D-7-7-7-7-7-7-6--------6---------|-----------------|---------------|-----------------------|
A----------------7-7-7---7-7-7-5-|-5---5-5---5-6-6-|---------------|-----------5-6-5---5---|
E--------------------------------|---8-----8-------|-5-6-8-8-5-8-8-|---------8-------8---8-|
2nd time:
E
E D# D
F7
E7
F
G
Am
D
E--------------------------|----------------------------------|-----------------|
B--------------------------|----------------------------------|-----------------|
G-----------4--4-4-5-4-4---|----------------------------------|-----------------|
D-7-7-7-7-7--------------7-|----------------------------------|-----------------|
A--------------------------|-5---5---5---5-6--5---5-----------|-5---5-6-5---5---|
E--------------------------|---8---8---8--------8---8-8-5-8-8-|---8-------8---8-|
F
Chorus
G
Am
D
F
E----------------------------------|------------------------------|
B----------------------------------|------------------------------|
G----------------------4-5-4---4---|------------------------------|
D-7-7-7-7-7-7-5--------------7---7-|------------------------------|
A---------------7--7-7-------------|-7-7-7-7-5-5--5---5-6-5---5---|
E----------------------------------|----------------8-------8---8-|
G
Am
D
F
E----------------------------------|-----------|-----------------|
B----------------------------------|-------5---|-------5---------|
G----------------------4-5-4---4---|---------7-|-7-5-7---7-5-7-5-|
D-7-7-7-7-7-7-5--------------7---7-|-7-7-7-----|-----------------|
A---------------7--7-7-------------|-----------|-----------------|
E----------------------------------|-----------|-----------------|
F F# G n.c.
Am E
E------------------------------|
B------------------------------|
G------------------------------|
D------------------------------|
A--------------5---5-6-5---5---|
E----------------8-------8---8-|
Outro: repeat and fade out
E7(2nd)
Am
E------------------------------|
B------------------------------|
G------------------------------|
D------------------------------|
A--------------5---5-6-5---5---|
E----------------8-------8---8-|
Am
E7 (2nd)
7
x
x
x
Potdevin - Cool Riffs and Hot Lead Guitar Licks - www.lepotdevin.com
131
Lo Hechamos a Suerte
Ella Baila Sola, 1997, (---) Orig chords ˜,
1st stanza:
*
E---------------|---------------|---------------------------|
B-------7-7-7---|-------8-8-8---|-----------------------7---|
G-6-7-7-------7-|-6-7-7-------9-|-6-7-6-7-6-7-6-7-6-7-9---9-|
D---------------|---------------|---------------------------|
A---------------|---------------|---------------------------|
E---------------|---------------|---------------------------|
*
E-------------|---------------|---------------------------|
B-------7-7-7-|-------8-8-8---|-----------------------7---|
G-6-7-9-------|-6-7-9-------9-|-6-7-6-7-6-7-6-7-6-7-9---9-|
D-------------|---------------|---------------------------|
A-------------|---------------|---------------------------|
E-------------|---------------|---------------------------|
2nd stanza:
( x 2 )
*
E---------------------------------|-------7-7-7-|-7-7-------------|
B-------------------7-10-7-10-----|-------------|-----10-8-7-10-8-|
G-6-7-6-7-6-7-6-7-9-----------9-7-|-6-7-7-------|-----------------|
D---------------------------------|-------------|-----------------|
A---------------------------------|-------------|-----------------|
E---------------------------------|-------------|-----------------|
*
E---------------------------------|-------7-7-7-|-7-7--------------|
B---7---------------7-10-7-10-----|-------------|-----10-8-7-10-10-|
G-9---9-7-6-7-6---------------9-7-|-6-7-7-------|------------------|
D---------------9-7---------------|-------------|------------------|
A---------------------------------|-------------|------------------|
E---------------------------------|-------------|------------------|
*
E---------------|
B-10-10-8-7-8-7-|
G---------------|
D---------------|
A---------------|
E---------------|
Violin solo:
A
E-17-17-15-|-14-14-12-|-------------------------|
B----------|----------|----------15----------15-|
G----------|----------|-12h13h14----12h13h14----|
D----------|----------|-------------------------|
A----------|----------|-------------------------|
E----------|----------|-------------------------|
A
E-------------------|--------------------------|----------------17-|
B-17r15-15-17r15-15-|----------15-----------15-|-17r15-15-17r15----|
G-------------------|-14r13r12-----14r13r12----|-------------------|
D-------------------|--------------------------|-------------------|
A-------------------|--------------------------|-------------------|
E-------------------|--------------------------|-------------------|
Guitar Solo:
D G Em A
E----------19-17-|-------------|----------------|-------------|
B----------------|-20-19-17----|----------------|-------------|
G-14/16-19-------|----------14-|-12-11-12-14----|-11-12-14-14-|
D----------------|-------------|-------------12-|-------------|
A----------------|-------------|----------------|-------------|
E----------------|-------------|----------------|-------------|
A
E-------19-17-|-15-14-12----|----------------|----------------------|
B----15-------|----------15-|-14-15-12-------|----------------------|
G-14----------|-------------|----------13----|----------------11----|
D-------------|-------------|-------------14-|-12-14-12-14-12----14-|
A-------------|-------------|----------------|----------------------|
E-------------|------------------------------|----------------------|
132
Potdevin - Cool Riffs and Hot Lead Guitar Licks - www.lepotdevin.com
Vivir Sin Aire
De Repente
Intro:
*
E-15--12-12b-----|----12----12-------|
B-------------15-|-15----15----15-12-|
G----------------|-------------------|
D----------------|-------------------|
A----------------|-------------------|
E----------------|-------------------|
Main riff:
*
E------------------|--------------------|
B------------------|--------------------|
G-5-8--------5-5-5-|-5-5-6-5--5-5-------|
D-----8--8-8-------|--------------8-6-6-|
A------------------|--------------------|
E------------------|--------------------|
Mana, 1997, (---) Orig chords ˜,
*
E-------------------------|
B-12-13-12-13-12-12-------|
G-------------------12-14-|
D-------------------------|
A-------------------------|
E-------------------------|
Main riff:
*
E-----------|---------------|
B-------5---|---------------|
G-4-4-----7-|-------4-------|
D-----5-----|-5-7-7---7-5---|
A-----------|-------------5-|
E-----------|---------------|
2nd stanza:
*
E-----------|-----------|-----------------|
B-5-5-8-7---|-5-5-8-8---|-8-----------8-7-|
G---------7-|---------7-|---7-4-7-4-7-----|
D-----------|-----------|-----------------|
A-----------|-----------|-----------------|
E-----------|-----------|-----------------|
Chorus:
*
E-----------|---------------|
B-8-8-8-8-8-|-------5-------|
G-----------|---4-7---7-7-4-|
D-----------|-5-------------|
A-----------|---------------|
E-----------|---------------|
Soraya, 1997, (---) Orig chords ˜,
Chorus:
*
E-----------------|--------------------|
B-6-9-9-8-8-9-----|--------------------|
G-------------8-8-|-8-8-8-8-8----5-5-5-|
D-----------------|-----------8-8------|
A-----------------|--------------------|
E-----------------|--------------------|
Lead solo:
*
E-------------|-------------------------|
B-16-16-16-16-|-14-13-14-13----13-------|
G-------------|-------------15----15-13-|
D-------------|-------------------------|
A-------------|-------------------------|
E-------------|-------------------------|
*
E-----------------------------|
B-16-16-16-16--14-13-14-16-13-|
G-----------------------------|
D-----------------------------|
A-----------------------------|
E-----------------------------|
*
E-------------|----------|-------------------|
B-------------|-------13-|----13-14-13-------|
G-------13-15-|-13-15----|-15----------15-13-|
D-13-15-------|----------|-------------------|
A-------------|----------|-------------------|
E-------------|----------|-------------------|
*
E---------------------------15-16-|
B-16-16-16-16-|-14-13-14-16-------|
G---------------------------------|
D---------------------------------|
A---------------------------------|
E---------------------------------|
Nobody to play
with? Whistle!
Potdevin - Cool Riffs and Hot Lead Guitar Licks - www.lepotdevin.com
133
MS 63-64
Intro:
E------------------------------|
B-------15-12-15------15-12-15-|
G--12------------12------------|
D------------------------------|
A------------------------------|
E------------------------------|
Main Riff:
*
E-------------------------------------------------------------------------------|
B-------------------12-12-12-12-------------15-15-15-15-15-15-15-15-------------|
G-12-12-12-12-14-14-------------14-14-12-12-------------------------12-12-12-12-|
D-------------------------------------------------------------------------------|
A-------------------------------------------------------------------------------|
E-------------------------------------------------------------------------------|
*
E--------------------------------------------------------------------------|
B-15-15-14-14-13-13-13-13-13-13-13-13-12-12--------12-12-13-13-15-15-15-15-|
G-------------------------------------------14-14--------------------------|
D--------------------------------------------------------------------------|
A--------------------------------------------------------------------------|
E--------------------------------------------------------------------------|
*
E--------------12-12-15--|
B-13-13-15-15------------|
G------------------------|
D------------------------|
A------------------------|
E------------------------|
*
E-------------------------------------------------------------------------------------------|
B-------------------12-12-12-12-------------13-13-13-13-13-13-13-13-12-12-12-12-12-12-12-12-|
G-12-12-12-12-14-14-------------14-14-12-12-------------------------------------------------|
D-------------------------------------------------------------------------------------------|
A-------------------------------------------------------------------------------------------|
E-------------------------------------------------------------------------------------------|
*
E-------------------------------------------------------------|-------------------------------------|
B-------------------------------------------------------------|-------------------------------------|
G-14-14-14-14-12-12-11-11-------------11-11-14-14-12-12-12-12-|-12-12-12-12-11-11-11-11-12-12-12-12-|
D-------------------------14-14-14-14-------------------------|-------------------------------------|
A-------------------------------------------------------------|-------------------------------------|
E-------------------------------------------------------------|-------------------------------------|
Divertimento
Speakers, 1965, (Rodrigo Garcia) Orig chords ˜,
Bridge:
E---------|------------|-----|-----|---------|--------|----------|---0-----0---|---------|
B-----0---|-0-1-3--0---|-0---|-----|---------|---3--0-|-----3--0-|-3-----3---1-|-0-------|
G-0-2---0-|----------2-|---0-|---2-|-0-2-----|-0------|---0------|-------------|---0-4-2-|
D---------|------------|-----|-2---|-----4-2-|--------|-2--------|-------------|---------|
A---------|------------|-----|-----|---------|--------|----------|-------------|---------|
E---------|------------|-----|-----|---------|--------|----------|-------------|---------|
Outro:
E-------------------------------------|
B-------------------------------------|
G-12-12-12-12-11-11-11-11-12-12-12-12-|
D-------------------------------------|
A-------------------------------------|
E-------------------------------------|
Warm Up - Scale
Unk
Scale
*
E---------------------------------------------------0---1-0-3-3-|
B---------------------------------------0---1-0-3-1---3---------|
G-------------------------------0---2-0---2---------------------|
D-------------------0---2-0-3-2---3-----------------------------|
A-------0---2-0-3-2---3-----------------------------------------|
E-0-3-1---3-----------------------------------------------------|
A
E-0-1---0-----------------------------------------------------|
B-----3---1-3-0-1---0-----------------------------------------|
G-----------------2---0-2---0---------------------------------|
D-------------------------3---2-3-0-2---0---------------------|
A-------------------------------------3---2-3-0-2---0-----0-3-|
E-------------------------------------------------3---1-3-----|
Whistling fish !
134
Potdevin - Cool Riffs and Hot Lead Guitar Licks - www.lepotdevin.com
Pop Corn
Anna
Magdalena Musette
Suite From Anna Magdalena Notebook: Musette in D Major
Hot Butter, 1970, (---) Orig chords ˜,
Intro:
B
E-------------------------------|
B-------------------------------|
G-------------------------------|
D-9-------9-------9-------9-----|
A---9-------9-------9---9---9---|
E-----7-------7-------7-------7-|
1st Stanza (muting strings)
* B
( 2x )
* F#
E
E---------------------|----------------|-------------|
B-12-10-12------------|-12-14-15-14-15-|-12-14-12-14-|
G----------12----12---|----------------|-------------|
D-------------12----9-|----------------|-------------|
A---------------------|----------------|-------------|
E---------------------|----------------|-------------|
1st
D
E-------------|
B-10-12-10-12-|
G-------------|
D-------------|
A-------------|
E-------------|
B
|-------|
|----12-|
|-12----|
|-------|
|-------|
|-------|
2nd
F#
|-------|
|-14-15-|
|-------|
|-------|
|-------|
|-------|
2nd stanza
* F#
( 2x )
* C#
B
E----------------------|-14-16-17-16-17-|-14-16-14-16-|
B-19-17-19-------------|----------------|-------------|
G----------19----19----|----------------|-------------|
D-------------19----16-|----------------|-------------|
A----------------------|----------------|-------------|
E----------------------|----------------|-------------|
1st
A
E----14-|
B-17----|
G-------|
D-------|
A-------|
E-------|
F#
|----14----14-|
|-17----15----|
|-------------|
|-------------|
|-------------|
|-------------|
2nd
B
|----------14-|
|-15----15----|
|----14-------|
|-------------|
|-------------|
|-------------|
Solo:
( x 2 )
*
( x 2 )
*
B
F#
E D
F#
C# B A
E-------|----12-14-|-12----|-17-14-|-17-19-21-19-17-|
B-15-12-|-15-------|----15-|-------|----------------|
G-------|----------|-------|-------|----------------|
D-------|----------|-------|-------|----------------|
A-------|----------|-------|-------|----------------|
E-------|----------|-------|-------|----------------|
Potdevin - Cool Riffs and Hot Lead Guitar Licks - www.lepotdevin.com
J.S. Bach, 1725, (Bach) Orig chords ˜,
1st stanza:
C#
E----------------------------|
B-9-------------9------------|
G----11-10-8------11-10-8----|
D------------11-----------11-|
A----------------------------|
E--bass:-4-4-4-4-4-----------|
*
E-------------------------|
B-------9---------9-------|
G-10-11---11-10-8---10----|
D----------------------11-|
A-------------------------|
E-------------------------|
2nd stanza:
*
E-----------------------|
B-----------------9-----|
G-------8-------8---8-8-|
D-10-11---10-11---------|
A-----------------------|
E-----------------------|
*
E----------------------------|
B-9---9----------------------|
G---8---8--------------------|
D-----------11-10-8----8-----|
A-------------------11-------|
E-------------------------11-|
*
( x 2)
*
E----------------16-15-|
B-16-15----------------|
G-------15-18-17-------|
D----------------------|
A----------------------|
E----------------------|
(15b\15)
*
E----------------------------|-------|
B-16-15-13-15-16-15-13-15-16-|-------|
G----------------------------|-12-13-|
D----------------------------|-------|
A----------------------------|-------|
E----------------------------|-------|
*
E----------------|---------------|
B-14-13-14-16----|---------------|
G-------------13-|----------8----|
D----------------|-11-10-11------|
A----------------|------------11-|
E----------------|---------------|
135
136
Potdevin - Cool Riffs and Hot Lead Guitar Licks - www.lepotdevin.com
Tocatta & Fugue in D minor BWV 565 - Dorian
Johann Sebastian Bach, 1703-1707, (J.S.Bach) Orig chords ˜,
Intro:
D
G E F#
E-17-15-17-|-15-13-12----------|-5-3-5-|-0-1-----|-------|-------------|-|---|-----------0-|----------|
B----------|----------15-14-15-|-------|-----2-3-|-------|-------------|-|-3-|---------2---|----------|
G----------|-------------------|-------|---------|-2-0-2-|-0-----------|-|-2-|-----0-3-----|----------|
D----------|-------------------|-------|---------|-------|---3-2-0---0-|-|-0-|---2---------|--5--2--4-|
A----------|-------------------|-------|---------|-------|---------4---|-|-0-|-4-----------|--5--2--4-|
E----------|-------------------|-------|---------|-------|-------------|-|---|-------------|--3--0--2-|
1st stanza:
E-------|-------|-------|-----|-------|-------|-------|-----|-------|-------|-------|-----|
B-------|-------|-------|-----|-------|-------|-------|-----|-------|-------|-------|-----|
G-------|-------|-------|-----|-----0-|-----0-|-----0-|-----|-0-2-3-|-0-2-3-|-0-2-3-|-0-2-|
D---0-2-|---0-2-|---0-2-|---0-|-2-3---|-2-3---|-2-3---|-2-3-|-------|-------|-------|-----|
A-4-----|-4-----|-4-----|-4---|-------|-------|-------|-----|-------|-------|-------|-----|
E-------|-------|-------|-----|-------|-------|-------|-----|-------|-------|-------|-----|
*
E-----0-|-----0-|-----0-|-----|-0-1-3-|-0-1-3-|-0-1-3-|-0-1-|-3-5-6-|-3-5-6-|-3-5-6-|-3-5-|
B-2-3---|-2-3---|-2-3---|-2-3-|-------|-------|-------|-----|-------|-------|-------|-----|
G-------|-------|-------|-----|-------|-------|-------|-----|-------|-------|-------|-----|
D-------|-------|-------|-----|-------|-------|-------|-----|-------|-------|-------|-----|
A-------|-------|-------|-----|-------|-------|-------|-----|-------|-------|-------|-----|
E-------|-------|-------|-----|-------|-------|-------|-----|-------|-------|-------|-----|
Scale 1:
E-5-3-6-|---3-6-|-----5-|-----5-|---0-3-|---0-3-|-----1-|-----1-|-----0-|-----0-|-------|-------|
B-------|-5-----|-5-6---|-3-6---|-3-----|-1-----|-1-3---|---3---|---1---|---1---|-----3-|-----3-|
G-------|-------|-------|-------|-------|-------|-------|-3-----|-3-----|-2-----|-2-3---|-0-3---|
D-------|-------|-------|-------|-------|-------|-------|-------|-------|-------|-------|-------|
A-------|-------|-------|-------|-------|-------|-------|-------|-------|-------|-------|-------|
E-------|-------|-------|-------|-------|-------|-------|-------|-------|-------|-------|-------|
*
D
E-------|-------|-------|-------|-------|-------|-------|---------|------|
B-----1-|-----1-|-------|-------|-------|-------|-------|---------|--3---|
G-0-2---|---2---|---0-3-|---0-3-|-----2-|-----2-|-----0-|-----0---|--2---|
D-------|-3-----|-3-----|-2-----|-2-3---|-0-3---|-0-2---|---2-----|--0---|
A-------|-------|-------|-------|-------|-------|-------|-4-----4-|--0---|
E-------|-------|-------|-------|-------|-------|-------|---------|------|
*
E-----------0-3-6-|-6-5-3-1-0---0---|-----0-3-|-1-3-1-3-1-3-1-3-1-3-1-0-|-----|
B---------2-----0-|-----------3---2-|---2-----|-------------------------|-----|
G-----0-3---------|-----------------|-2-------|-------------------------|-----|
D---2-------------|-----------------|---------|-------------------------|--3--|
A-4---------------|-----------------|---------|-------------------------|--5--|
E-----------------|-----------------|---------|-------------------------|--5--|
Scale 2:
E---------|---------|-------7-|-----5-6-|---5-----|---------|-----|
B-----5-6-|---5-6-8-|-5-6-8---|-6-8-----|-8---6-8-|-5-6---5-|-----|
5
G---7-----|-7-------|---------|---------|---------|-----7---|-6-7-|
D-7-------|---------|---------|---------|---------|---------|-----|
A---------|---------|---------|---------|---------|---------|-----|
E---------|---------|---------|---------|---------|---------|-----|
*
E-5-6---5-|---------|---------|---------|---------|---------|---------|---------|
B-----8---|-6-8-5-6-|---8-5-6-|---5-----|---------|---------|---------|---------|
G---------|---------|-7-------|-7---6-7-|-2-3-0-2-|---0-----|---0-----|---------|
D---------|---------|---------|---------|---------|-3---2-3-|-0---2-3-|-0-2---0-|
A---------|---------|---------|---------|---------|---------|---------|-----4---|
E---------|---------|---------|---------|---------|---------|---------|---------|
2nd stanza:
( x 3 )
D
A#
A
G
A
E---|-----6---|-----5---|-----3---|-----0-5-|-----|-----|-----|---|
B---|---6---6-|---5---5-|---3---3-|---2-----|-----|-----|-----|---|
G---|-7-------|-5-------|-3-------|-2-------|-----|-----|-----|-2-|
D---|---------|---------|---------|---------|---8-|---7-|---5-|-2-|
A-5-|---------|---------|---------|---------|-5-8-|---7-|---5-|-0-|
E---|---------|---------|---------|---------|---6-|-5---|-6-3-|-0-|
6
5
3
Outro:
A
E---|---|---------0-6--6----|-----|
B-3-|-2-|-------2------8----|-----|
G-4-|-2-|-0---2--------6----|-----|
D-3-|-2-|---2---------------|--3--|
A---|---|-------------------|--5--|
E---|---|-------------------|--5--|
5
Warm up whistling : )
Potdevin - Cool Riffs and Hot Lead Guitar Licks - www.lepotdevin.com
137
Jesu, Joy Of Man´s Desiring
Jesu, Joy of Man´s Desiring Cantata BWV147
Intro:
G
* A ( 2x ) * C ( 2x ) G *
E-------------|-------------|-------------|-------------|
B-------------|-------------|-------------|-------------|
G-0---0---0---|-0---0---0---|-0---0---0---|-0---0---0---|
D---4---4---0-|---4---4---2-|---4---4---2-|---4---4---0-|
A-------------|-------------|-------------|-------------|
E-------------|-------------|-------------|-------------|
1st stanza:
C
E-------------------------------|
B-------------------1-0-1-------|
G-------0-----2-0-0-------0-----|
D---0-2---3-3---------------2---|
A-3---------------------------3-|
E-------------------------------|
Apollo 100, 1972, (J.S.Bach) Orig chords ˜,
Johann Sebastian Bach, 1723, (J.S.Bach) Orig chords ˜,
* ( 4x )
*
E-------------|
B-------1-0---|
G-----2-----2-|
D-0-4---------|
A-------------|
E-------------|
*
E-----------------------------|
B-----------------------------|
G-------0-2-0-----------------|
D-0-2-3-------3-2-0-2-------0-|
A---------------------3-2-3---|
E-----------------------------|
1st stanza:
G
C
D
G
E---|-------------0-----3-2-3-------|
B-0-|-----0-3-1-1---3-3-------3-0---|
G---|-0-2-------------------------0-|
D---|-------------------------------|
A---|-------------------------------|
E---|-------------------------------|
2nd stanza:
*
E---------------|-------------------------------|
B---------------|-------------------1-0-1-------|
G---------------|-------0-----2-0-0-------0-----|
D-----0-3-2-0-2-|---0-2---3-3---------------2---|
A---2-----------|-3---------------------------3-|
E-3-------------|-------------------------------|
C
D
E---------0-------------------|
B---0-1-3---3-1-0---0---------|
G-2---------------2---0---0-2-|
D-----------------------4-----|
A-----------------------------|
E-----------------------------|
*
E-----------------------|---------------------|
B-----------------------|-------1-----------1-|
G-------0---------------|-----0---0-------0---|
D-0-2-3---3-2-0---------|---2-------2---2-----|
A---------------3-2-3-2-|-3-----------3-------|
E-----------------------|---------------------|
2nd stanza:
Bridge:
*
E-------------------------|-------------|
B-------------------------|-------------|
G-------------------------|-------------|
D-------0---0-3-2-3-0-----|---0-3-2-0-2-|
A---0-2---3-----------2---|-2-----------|
E-3---------------------3-|-------------|
G
C
D
G
E---------------|-------------0-----3-2-3-------|
B-------1-0---0-|-----0-3-1-1---3-3-------3-0---|
G-----2-----2---|-0-2-------------------------0-|
D-0-4-----------|-------------------------------|
A---------------|-------------------------------|
E---------------|-------------------------------|
C
D
G
E-------------------------|-----3-----------3-------|
B---0-1-3-1-0-------------|-0-3---3-0---0-3---3-0---|
G-2-----------2-0---0---0-|-----------0-----------0-|
D-----------------4---4---|-------------------------|
A-------------------------|-------------------------|
E-------------------------|-------------------------|
1st stanza:
*
E-------------------------------|
B-------------------1-0-1-------|
G-------0-----2-0-0-------0-----|
D---0-2---3-3---------------2---|
A-3---------------------------3-|
E-------------------------------|
Bridge:
*
E-------------------------|---------------|
B-------------1-0-1-------|-----1-0---0---|
G-------2-0-2-------2-----|---2-----2---0-|
D-0-2-4---------------4-0-|-4-------------|
A-------------------------|---------------|
E-------------------------|---------------|
1st stanza:
*
E-------------0-----3-2-3-------|--B-----0-3-1-1---3-3-------3-0---|--G-0-2-------------------------0-|--D-------------------------------|--A-------------------------------|--E-------------------------------|---
Outro:
G
A
C
D
G
E-------------|-----------|-----------|-----------|-1-|
B-------------|-----------|-----------|-----------|-0-|
G-0---0---0---|-0---0-----|-0---0---0-|-2-4-5-4-2-|-0-|
D---4---4---2-|---4---4-2-|---4---4---|-----------|-0-|
A-------------|-----------|-----------|-----------|-2-|
E-------------|-----------|-----------|-----------|-3-|
Boy whistling
138
Potdevin - Cool Riffs and Hot Lead Guitar Licks - www.lepotdevin.com
Ave Maria
Franz Schubert, 1825, (F.Schubert) Orig chords ˜,
In
A
E-------------|-----------------|----------------0-----|
B-------3-1---|-1-3-1-----------|-3-3--1-------3---3-2-|
G-3-2-3-----3-|-------3-2-0-2-3-|--------3-2-0---------|
D-------------|-----------------|----------------------|
A-------------|-----------------|----------------------|
E-------------|-----------------|----------------------|
A
E----------------------|---------------1-------|-------------|
B---1------1-3-4-1-----|-3-1-------0-3---3-0-1-|-------------|
G-2----3-2---------2-3-|-------2-0-------------|-0-2-3-2-0---|
D----------------------|-----------------------|-----------3-|
A----------------------|-----------------------|-------------|
E----------------------|-----------------------|-------------|
A
E----------------------|-----------------------|
B---1--1-1-0-1-0-1-3---|---1---1-1-0-1-4-3-1---|
G--------------------3-|---------------------3-|
D-3--------------------|-3---------------------|
A----------------------|-----------------------|
E----------------------|-----------------------|
A
E----------------1-------|-------------|-------------|
B-3-1-------0--3---3-0-1-|-------------|-------3-1---|
G-------2-0--------------|-0-2-3-2-0---|-3-2-3-----3-|
D------------------------|-----------3-|-------------|
A------------------------|-------------|-------------|
E------------------------|-------------|-------------|
Potdevin - Cool Riffs and Hot Lead Guitar Licks - www.lepotdevin.com
139
Claire de Lune
Claude Debussy, 1882, (C.Debussy) Orig chords ˜,
1st stanza:
*
E---4---|---------|---------|----------|
B-----6-|---4-6-4-|---4---6-|----------|
G-------|---------|-6---6---|-6--5-6-5-|
D-6-----|-7-------|---------|----------|
A-------|---------|---------|----------|
E-------|---------|---------|----------|
Mondschein Serenade (Moonlight Sonata)
Ludwig van Beethoven, 1801, (L.van Beethoven) Orig chords ˜, C sharp
Intro: Capo 4
Am
E-----------------|-----------------|-----------------|
B---1---1---1---1-|---1---1---1---1-|---1---1---3---3-|
G--2---2---2---2--|--2---2---2---2--|--2---2---3---3--|
D-2---2---2---2---|-2---2---2---2---|-3---3---3---3---|
A-0---------------|-----------------|-----------------|
E-----------------|-----------------|-----------------|
*
E-----------------|---------------------|
B---3---1---0---0-|-1--------1---1---1--|
G--1---2---2---1--|-2----2--2---2---2---|
D-2---2---2---0---|-2--2---2---2---2----|
A-----------------|-0-------------------|
E-----------------|---------------------|
*
E--------------|-------|-------|-----|
B--------------|-------|-------|-----|
G----------3---|-------|-------|-----|
D---3-4-3----3-|---3---|-------|-----|
A-4------------|-6---6-|-4-6-4-|-3---|
E--------------|-------|-------|---4-|
2nd stanza:
*
E-----4---|---------|------4---|---------|
B-------6-|---4-6-4-|----4---6-|---4-6-4-|
G---------|---------|--6-------|-6-------|
D---6-----|-7-------|----------|---------|
A-4-------|---------|-4--------|---------|
E---------|---------|----------|---------|
Melody:
*
E-0--0-0--|-0--0-0-|-1---0-|---3---|
B---------|--------|-------|-3---1-|
G---------|--------|-------|-------|
D---------|--------|-------|-------|
A---------|--------|-------|-------|
E---------|--------|-------|-------|
*
E-------6-4-|----------|---|-----|
B-----4-----|-6--4-6-4-|---|-----|
G---6-------|----------|-6-|-3---|
D-6---------|----------|---|-----|
A-----------|----------|---|---6-|
E-----------|----------|---|-----|
*
E----------|--------|------|-------|---|
B---4--4-4-|-4--4-4-|-3--3-|-4-3-3-|---|
G----------|--------|------|-------|-0-|
D----------|--------|------|-------|---|
A-3--------|--------|------|-------|---|
E----------|--------|------|-------|---|
*
E-3-4-----2-3-|-3-4-----2-3-|-3-3-1-----|----------|
B-------------|-------------|-------4-3-|----------|
G-------------|-------------|-----------|-2--2-2---|
D-------1-----|-------1-----|-----------|--------0-|
A-----3-------|-----3-------|-----------|----------|
E-------------|-------------|-----------|----------|
*
E-5--5-5-|-5--5-5-|-4-5-7-|-7-8-|-7-5-4-|
B--------|--------|-------|-----|-------|
G--------|--------|-------|-----|-------|
D--------|--------|-------|-----|-------|
A--------|--------|-------|-----|-------|
E--------|--------|-------|-----|-------|
*
E---------|-----------|----------|
B---------|-----------|----------|
G---5---8-|-----------|----------|
D-8---8---|-8-6-8-6---|-4-6-4--3-|
A---------|---------6-|----------|
E---------|-----------|----------|
*
E-----------------------------|---|
B-6--4-4-4--------------------|---|
G----------6-6-6-5-5-5-5-6--3-|---|
D-----------------------------|---|
A-----------------------------|-6-|
E-----------------------------|---|
*
E---------------------------|--------------|
B-6--7-6-4-6-4---4----------|--------------|
G--------------6---6-5-6--3-|--------5-3---|
D---------------------------|-6--4-6-----4-|
A---------------------------|--------------|
E---------------------------|--------------|
*
E----------------|--------------|----------------|
B----------------|--------------|----------------|
G----------------|-3------6-3---|-5--------------|
D-7--4-4-4-4-6-4-|----4-6-----4-|----4-4-4-4-6-4-|
A----------------|--------------|----------------|
E----------------|--------------|----------------|
*
A#
E--------------|-------------------4--4--4--4-|
B--------4-----|-4---------------4-4--4--4--4-|
G-6--------6-3-|----3-3-3-3-5-3-6-----6--5--5-|
D----4-6-------|----------------------------6-|
A--------------|----------------------------6-|
E--------------|------------------------------|
140
Potdevin - Cool Riffs and Hot Lead Guitar Licks - www.lepotdevin.com
Preludes, Op. 28 #4
Liebestraum #3 (Dreams of Love)
1st stanza:
*
E---------|--------------|--------------|
B---12-12-|-13-12--13-12-|-13-12--11-10-|
G---------|--------------|--------------|
D-9-------|--------------|--------------|
A---------|--------------|--------------|
E---------|--------------|--------------|
*
E--------------|----------------|-------10------------|
B-12-10--12-10-|-12-10-10--9-10-|-10-12----13---10----|
G--------------|----------------|-------------9----11-|
D--------------|----------------|---------------------|
A--------------|----------------|---------------------|
E--------------|----------------|---------------------|
*
E---------------------|----------10-8-|--------------|
B-10-----12-----------|--------7------|-12-12--13-12-|
G----11-----12--12-11-|------8--------|--------------|
D---------------------|-10-9----------|--------------|
A---------------------|---------------|--------------|
E---------------------|---------------|--------------|
1st stanza:
*
E-----------|-----------------|---------------|
B-----------|-----------------|---------------|
G-----5-5-5-|-5-5--5-6--5-5---|---------5-3---|
D-----------|---------------3-|-3-3-5-6-----6-|
A-6---------|-----------------|---------------|
E---4-------|-----------------|---------------|
Frederic Chopin, 1838, (Chopin) Orig chords ˜, E minor
2nd stanza:
*
E--------------|-------------------15-|-14-12-12----|
B-13-12--13-12-|-11-11-12-11-10-11----|----------16-|
G--------------|----------------------|-------------|
D--------------|----------------------|-------------|
A--------------|----------------------|-------------|
E--------------|----------------------|-------------|
*
E-20----------15----------|--------------------|
B----16-16-17-------15-13-|-17-----------------|
G----------------16-------|-------14-11--14-11-|
D-------------------------|----14--------------|
A-------------------------|--------------------|
E-------------------------|--------------------|
Outro:
*
E----------|-----------|-----------|------|
B-12-------|-----------|-----------|------|
G----12-11-|-9-9--11-9-|-11-9--9-8-|-9----|
D----------|-----------|-----------|------|
A----------|-----------|-----------|------|
E----------|-----------|-----------|------|
Franz Liszt, 1850, (Liszt) Orig chords ˜,
*
E---------|---------------|---------------|
B---------|-------------6-|---------------|
G---5-5-5-|-5-5--5-6--5---|---------5-3---|
D---------|---------------|-3-3-5-6-----6-|
A-6-------|---------------|---------------|
E---------|---------------|---------------|
*
E--------------|---------------------|---------|
B--------------|---------3-5-5-5-5-5-|---------|
G----------3-5-|-5-5-4-5-------------|-3-6---3-|
D-6-6--5-6-----|---------------------|-----6---|
A--------------|---------------------|---------|
E--------------|---------------------|---------|
*
E-------|-----------|-------|-------|
B-------|-----------|-----5-|-----5-|
G-6-4-3-|-2-3-6---3-|-2-3---|-2-3---|
D-------|-------6---|-------|-------|
A-------|-----------|-------|-------|
E-------|-----------|-------|-------|
*
E-------------|-----------4-3-4-3-|
B-4-----------|-------2-4---------|
G---6-4-3-----|-----3-------------|
D---------6-5-|---5---------------|
A-------------|-6-----------------|
E-------------|-------------------|
*
E-10-11-11-11-|-11-11--11-12-11-11----|
B-------------|-----------------------|
G-------------|--------------------13-|
D-------------|-----------------------|
A-------------|-----------------------|
E-------------|-----------------------|
*
E-------------11----------------|-------|
B-------11-12----14-14-12-------|-------|
G-13-13-------------------13-11-|-------|
D-------------------------------|-------|
A-------------------------------|-------|
E-------------------------------|-------|
Liebestraum in E flat (Dream of Love) - from Wikipedia Liebesträume
Three poems by Uhland and Freiligrath depict three different forms of Love.
Hohe Liebe (Exalted Love) is saintly, or religious, love: the “martyr” renounces
worldly love and “heaven has opened its gates.”
The second song evokes erotic love: “Gestorben war ich”. “Dead” is a metaphor
here and refers to what is known as “le petit mort” in French, (“I was dead from
love’s bliss; I lay buried in her arms; I was wakened by her kisses; I saw heaven in
her eyes”).
The poem for the famous third “notturno” is about unconditional mature love:
“Love as long as you can! The hour will come when you will stand at the grave and
mourn” (“O lieb, so lang du lieben kannst”).
Potdevin - Cool Riffs and Hot Lead Guitar Licks - www.lepotdevin.com
141
Love Theme from Paganini Rhapsody on a Theme of Paganini - 18th var
Sergei Rachmaninoff, 1934, (S.Rachmaninoff) Orig chords ˜,
1st stanza:
E--------------|------------|-----------------|--------------|
B-9-------9----|------------|-11-9-------9----|--------------|
G---10-11------|------------|------10-11------|-8------------|
D-----------11-|-8-10-11----|-----------------|---8-10-11----|
A--------------|---------11-|--------------11-|-----------11-|
E--------------|------------|-----------------|--------------|
*
E-----------------|-------------|--------------|----------------|
B-----------------|-------------|--------------|----------------|
G-----------------|---------8---|--------------|----------10----|
D------------8-10-|-10-8-10---8-|-8----8-10-11-|-11-10-11----10-|
A-8-11-10-11------|-------------|---11---------|----------------|
E-----------------|-------------|--------------|----------------|
*
E-------------|--------------|-8----------|----------------|
B-8------8----|-9-------9-12-|--------8-9-|----------------|
G---8-10------|---10-12------|------8-----|----------------|
D----------11-|--------------|---11-------|----------------|
A-------------|--------------|------------|----------------|
E-------------|--------------|------------|----------------|
2nd stanza:
E--------------|------------|------------------|--------------|
B-9-------9----|------------|-11-9-------9-----|--------------|
G---10-11------|------------|------10-11-------|-8------------|
D-----------11-|-8-10-11----|------------------|---8-10-11----|
A--------------|---------11-|---------------11-|-----------11-|
E--------------|------------|------------------|--------------|
*
E-----------------|-----------|------------|----------------|
B-----------------|-------9---|------------|----------11----|
G------------8-10-|-11-10---8-|-8-7-8-10-11|-11-10-11----10-|
D-11-11-10-11-----|-----------|------------|----------------|
A-----------------|-----------|------------|----------------|
E-----------------|-----------|------------|----------------|
*
E----------------|----------------12-|-13-------------|
B-13----11-13----|-14-14----13-14----|-------------14-|
G----13-------11-|-------15----------|----10-11-13----|
D----------------|-------------------|----------------|
A----------------|-------------------|----------------|
E----------------|-------------------|----------------|
3rd stanza:
E-16-------16----|-------------|-18-16-------16----|
B----18-19-------|-------------|-------18-19-------|
G-------------18-|-15-17-18----|----------------18-|
D----------------|----------18-|-------------------|
A----------------|-------------|-------------------|
E----------------|-------------|-------------------|
*
E----------------|-------------|
B-16-------------|-14-13-12-12-|
G----15-17-18----|-------------|
D-------------18-|-------------|
A----------------|-------------|
E----------------|-------------|
142
ending
E-------------|----------------|
B-------------|----------------|
G-------12----|----------12-10-|
D-14-15-------|-------12-------|
A----------15-|-14-15----------|
E-------------|----------------|
*
E-----------|-------------|
B-------9---|--------9----|
G-10-11---8-|-7-8-10---11-|
D-----------|-------------|
A-----------|-------------|
E-----------|-------------|
*
E-----------|-------------|
B-----------|-------------|
G-------8---|--------8----|
D-10-11---8-|-7-8-10---11-|
A-----------|-------------|
E-----------|-------------|
*
E-------------|----------------|
B-------------|----------13-12-|
G--------8----|-13-11-10-------|
D-8-7------11-|----------------|
A-----10------|----------------|
E-------------|----------------|
*
E---------------|----------------|
B---------11-10-|--------9-10-11-|
G-11-10-8-------|-10-9-7---------|
D---------------|----------------|
A---------------|----------------|
E---------------|----------------|
*
E-------14----|-------------17-|
B-12-13-------|----------------|
G----------13-|-14-15-16-17----|
D-------------|----------------|
A-------------|----------------|
E-------------|----------------|
Outro:
E--------------|-----------|
B-9-------9----|-----------|
G---10-11------|-----------|
D-----------11-|-8-9-11-11-|
A--------------|-----------|
E--------------|-----------|
*
E-----------|-------|
B-----------|-------|
G-----------|-------|
D-8----8-11-|-11----|
A---11------|-------|
E-----------|-------|
Potdevin - Cool Riffs and Hot Lead Guitar Licks - www.lepotdevin.com
Potdevin - Cool Riffs and Hot Lead Guitar Licks - www.lepotdevin.com
143
Guitar Studio 1 - Andantino
Studios - Extracted from: A.Valdiri guitar excercises
A. Cano, 1811-1897, (A.Cano) Orig chords ˜,
In
*
E---------|---------|--------|--------|--------|----0-1-|---0-----|---------|
B-----0-1-|---1-0---|---0-1-3|--3-1-0-|----0-1-|--3-----|---0-----|---------|
G---2-----|-------2-|--------|--------|--2-----|--------|-------1-|-2-------|
D---------|---------|--------|--------|--------|-0------|-2-------|---2---2-|
A-0-------|-0-------|--------|--------|-0------|--------|---------|-----3---|
E---------|---------|-0------|-0------|--------|--------|-----0---|---------|
*
E---------|---------|--------|---------|---------|-----0-1-|---0-----|-----|
B-----0-1-|---1-0---|---0-1-3|---3-1-0-|-----0-1-|---3-----|---------|-----|
G---2-----|-------2-|--------|---------|---2-----|---------|-------1-|-2---|
D---------|---------|--------|---------|---------|-0-------|-2-------|-----|
A-0-------|-0-------|--------|---------|-0-------|---------|---------|---0-|
E---------|---------|-0------|-0-------|---------|---------|-----0---|-----|
*
E---0-----|---------|---------|-------|---------|-----0-1-|---0-----|---------|
B-----3-1-|---0-----|---1-0---|---0---|-----0-1-|---3-----|---------|---------|
G---------|-----2-1-|-------2-|-------|---2-----|---------|-------1-|-2-------|
D-2-------|---------|---------|-----2-|---------|-0-------|-2-------|---------|
A---------|---------|-0-------|-------|-0-------|---------|---------|-----0-3-|
E---------|-0-------|---------|-0-----|---------|---------|-----0---|---0-----|
*
E---0-----|---------|---------|-------|---------|-----0-1-|---0-----|-----|
B-----3-1-|---0-----|---1-0---|---0---|-----0-1-|---3-----|---------|-----|
G---------|-----2-1-|-------2-|-------|---2-----|---------|-------1-|-2---|
D-2-------|---------|---------|-----2-|---------|-0-------|-2-------|-----|
A---------|---------|-0-------|-------|-0-------|---------|---------|---0-|
E---------|-0-------|---------|-0-----|---------|---------|-----0---|-----|
Guitar Studio 2
D. Aguado, 1784-1849, (D.Aguado) Orig chords ˜,
In
*
E-------|-------|-------|------|-------|-------|--------|---|
B-1-0-1-|-------|-0-----|------|-1-----|-0-1-0-|---0----|---|
G-------|-2-1-2-|-------|-2----|-------|-------|-2----2-|-1-|
D-2-----|-------|-0-2-0-|------|-2-3-2-|-0-----|---0--1-|-2-|
A-------|-3-----|-------|-3----|-------|-------|-3------|---|
E-------|-------|-------|------|-------|-------|--------|---|
*
E-------|-------|-------|---0---|-------|-----1-|---0---|---|
B-------|---0-1-|-0-----|-1-----|-2-----|-3-----|-0-----|---|
G-1-----|-2-----|-------|-----2-|-------|---2---|-----1-|-2-|
D-3-2-0-|-------|-2-0---|-------|-------|-------|-2-----|---|
A-------|-3-----|-----2-|-0-----|-1-0---|-------|-------|---|
E-------|-------|-------|-------|-----3-|-1-----|-------|---|
Guitar Studio 3
F. Sor, 1778-1839, (F.Sor) Orig chords ˜,
In
*
E---3-0---|---------|---------|-0-----0-|-1---0---|---------|-------0-|---------|
B-1-----1-|-0-----0-|-1---3---|---1-3---|---------|-3---1---|-0---1---|-3-0-----|
G---------|---0-2---|---0-----|---------|---2---0-|---------|---0-----|-0---0---|
D-2-------|-3-------|-2---0-0-|---------|---------|---3---2-|-0-3-2---|-------3-|
A---------|---------|---------|-3-------|---------|---------|-------3-|---------|
E---------|---------|---------|---------|---------|---------|---------|---------|
*
E---3-0---|---------|---------|-0-----0-|---1---0-|---------|-----0---|---|
B-1-----1-|-0-----0-|-1---3---|---1-3---|---------|---3---1-|-1-----3-|-1-|
G---------|---0-2---|---0---0-|---------|---------|---------|---0-----|---|
D-2-------|-3-------|-2---0---|---------|---------|---------|---------|---|
A---------|---------|---------|-3---2-1-|-0-------|---------|---------|-3-|
E---------|---------|---------|---------|-----3---|-1---2---|-3-------|---|
144
Potdevin - Cool Riffs and Hot Lead Guitar Licks - www.lepotdevin.com
Guitar Studio 4
F. Carulli, 1770-1841, (F.Carulli) Orig chords ˜,
In
*
E---0--0-|---1--1-|---0--0-|-------|----0--0-|---1--1-|-------|---|
B---1--1-|---0--0-|---1--1-|-3-0---|----1--1-|---0--0-|-----0-|-1-|
G--------|--------|--------|-----0-|---------|--------|-0-2---|---|
D--------|-0------|--------|-------|---------|-0------|-------|---|
A-3------|--------|-3------|-------|-3-------|--------|-------|-3-|
E--------|--------|--------|-------|---------|--------|-------|---|
*
fin
E--------|--------|---1--1-|---0--0-|--------|--------|-1-----|---|
B---0--0-|---1--1-|---0--0-|---1--1-|---0--0-|---1--1-|---3-0-|-1-|
G---0--0-|---0--0-|--------|--------|---0--0-|---0--0-|-----0-|-0-|
D-3------|-2------|-0------|--------|-3------|-2------|-0-----|-2-|
A--------|--------|--------|-3------|--------|--------|-------|-3-|
E--------|--------|--------|--------|--------|--------|-------|---|
*
E-----0-|----|-------|-------|-----0-|----|-------|---|
B---1---|----|-3-1-0-|-1-0-1-|---1---|----|-3-1-0-|---|
G-2-----|----|-------|-------|-2-----|----|-------|-2-|
D-------|----|-------|-------|-------|----|-------|---|
A-0-----|----|-------|-------|-------|----|-------|---|
E-------|----|-------|-------|-------|----|-------|---|
Guitar Studio 5
Mauro Giuliani, 1780-1840, (M.Giuliani) Orig chords ˜,
In
*
E-----3---0---|---------0---|---------1---|-----0-------|
B-------------|-----1-------|-----3-------|---------1---|
G---0---0---0-|---0---0---0-|---0---0---0-|---0---0---0-|
D-------------|-------------|-------------|-------------|
A-3-----------|-3-----------|-2-----------|-3-----------|
E-------------|-------------|-------------|-------------|
*
E-----3---0---|---------0---|-----1-------|---|
B-------------|-----1-------|---------3---|-1-|
G---0---0---0-|---0---0---0-|---0---0---0-|-0-|
D-------------|-------------|-------------|-2-|
A-3-----------|-3-----------|-------------|-3-|
E-------------|-------------|-3-----------|---|
*
E-------------|-----0-------|-----1-------|-----0-------|
B-----3---0---|---------1---|---------3---|---------1---|
G---0---0---0-|---0---0---0-|-------------|-------------|
D-3-----------|-2-----------|---0---0---0-|---0---0---0-|
A-------------|-------------|-2-----------|-3-----------|
E-------------|-------------|-------------|-------------|
*
E-------------|-----0-------|-----1-------|---|
B-----3---0---|---------1---|---------3---|-1-|
G---0---0---0-|---0---0---0-|---0---0---0-|-0-|
D-3-----------|-2-----------|-------------|-2-|
A-------------|-------------|-------------|-3-|
E-------------|-------------|-3-----------|---|
Potdevin - Cool Riffs and Hot Lead Guitar Licks - www.lepotdevin.com
145
Kingston Town
La Gata Golosa
Intro:
*
E---|---6-8---|-----6---|-------8-6-|
B-9-|-9-----8-|-8-9---6-|-6-8-9-----|
G---|---------|---------|-----------|
D---|---------|---------|-----------|
A---|---------|---------|-----------|
E---|---------|---------|-----------|
*
E---------------------|-----------|-----------|
B-----------5-----5-5-|-5-----5-5-|-6-----6-6-|
G-----4-5-7-----------|-----------|-----------|
D-5-7---------5-5-----|---5-5-----|---5-5-----|
A---------------------|-----------|-----------|
E---------------------|-----------|-----------|
Ub40, 19--, (--) Orig chords ˜,
Bass intro:
G#
Cm
C#
E-----|-----------------|---------------|
B-----|-----------------|---------------|
G-----|-----------------|---------------|
D-----|-----------------|---------------|
A-----|-6-6-6-6-6---3-3-|---------3-4-4-|
E-4-4-|-----------4-----|-3-3-3-3-------|
D#
E---------------|-------------|
B---------------|-------------|
G---------------|-------------|
D-6-6-6-6-------|-------------|
A-----------6-6-|---------6-6-|
E---------4-----|-6-6-6-6-----|
1st Stanza:
G#
Cm
C#
E-----|-----------------|---------------|
B-----|-----------------|---------------|
G-----|-----------------|---------------|
D-----|-----------------|---------------|
A-----|-6-6-6-6-6---3-3-|---------3-4-4-|
E-4-4-|-----------4-----|-3-3-3-3-------|
D#
C#
E-----------------|-----------------|
B-----------------|-----------------|
G-----------------|-----------------|
D-----------------|-----------------|
A-----------4-6-6-|-----------6-4-4-|
E-4-4-4-4-4-------|-4-4-4-4-4-------|
D#
G#
E-----------------|-----------------|
B-----------------|-----------------|
G-----------------|-----------------|
D-----------------|-----------------|
A-----------4-6-6-|-----------6-----|
E-4-4-4-4-4-------|-4-4-4-4-4---3-3-|
D#
G#
E-----------------|-----------------|
B-----------------|-----------------|
G-----------------|-----------------|
D-----------------|-6-6-6-6-6-------|
A-6-6-6-6-6---6-6-|-----------6-----|
E-----------6----|--------------4-4-|
Fulgencio Garcia, 1---, (FGarcia) Orig chords ˜,
*
E---------------------|-----------|-----------|
B-----------6-----6-6-|-6-----6-6-|-5-----5-5-|
G-----4-5-7-----------|-----------|-----------|
D-5-7---------5-5-----|---5-5-----|---5-5-----|
A---------------------|-----------|-----------|
E---------------------|-----------|-----------|
*
E---------------------|---------|---------|
B-----------5-----5-5-|-----5-5-|---------|
G-----4-5-7-----------|---------|-----7-7-|
D-5-7---------5-5-----|-5-5-----|-5-5-----|
A---------------------|---------|---------|
E---------------------|---------|---------|
*
E-----------|---------|-------------|-----|
B-----------|---------|-------------|-----|
G-5-----5-5-|-----4-4-|-------4---5-|-5-5-|
D---5-5-----|-5-5-----|-5-7-5---5---|-----|
A-----------|---------|-------------|-----|
E-----------|---------|-------------|-----|
Scale down
*
E------8-10-|-8-10-8----7-8-|-7-8-7---5-7-|
B----8------|--------10-----|-------8-----|
G--9--------|---------------|-------------|
D-----------|---------------|-------------|
A-----------|---------------|-------------|
E-----------|---------------|-------------|
*
E-5-7-5-----5-|---5---------|-------------|
B-------7-8---|-8---8-5-7-8-|-7-8-7---5-7-|
G-------------|-------------|-------7-----|
D-------------|-------------|-------------|
A-------------|-------------|-------------|
E-------------|-------------|-------------|
*
E-------------|-------------|-------------|
B-5-7-5-----5-|---5---------|-------------|
G-------6-7---|-7---7-4-5-7-|-5-7-5---4-5-|
D-------------|-------------|-------7-----|
A-------------|-------------|-------------|
E-------------|-------------|-------------|
*
E-------------|-----------|
B-------------|-----------|
G-4-5-4-----4-|---4-------|
D-------5-7---|-7---7-4-5-|
A-------------|-----------|
E-------------|-----------|
Fill in:
E-----------------------|
B-----------------------|
G-3-3-3-3-3---3---1-3-1-|
D-----------3-----------|
A-----------------------|
E-----------------------|
*
E-------------|-----|-----------------|
B-------------|-----|-----------------|
G-------------|-----|-----------------|
D-3-1-3-1-3---|-----|-----------------|
A-----------3-|-----|-6-6-6-6-6---3-3-|
E-------------|-4-4-|-----------4-----|
146
Potdevin - Cool Riffs and Hot Lead Guitar Licks - www.lepotdevin.com
Estoy Contento
Tiplecito
Intro:
*
E-9-7------|-9-7--------------|
B-----10---|-----10-9-7-------|
G--------9-|------------7-9-7-|
D----------|------------------|
A----------|------------------|
E----------|------------------|
*
E-7--------|-7----------------|
B---10-9---|---10-9-7---------|
G--------9-|----------9-7-7-6-|
D----------|------------------|
A----------|------------------|
E----------|------------------|
*
E-----------|-----------|----------|
B---------7-|---------7-|-7-10-9-7-|
G-6-9-6-9---|-6-9-6-9---|----------|
D-----------|-----------|----------|
A-----------|-----------|----------|
E-----------|-----------|----------|
Intro: 1st guitar
G
C
D7 G
E-----------------0---|-------------0---3-2-|
B---------0---1-0---3-|-3-2-1-0-3-1---3-----|
G-------0---2---------|---------------------|
D-0-2-4---------------|---------------------|
A---------------------|---------------------|
E---------------------|---------------------|
Intro: 2nd guitar
G
C
D7 G
E---------------------|-----------------0---|
B---------------------|---------0---1-0---3-|
G-----------------0---|-------0---2---------|
D-0-------0---2-0---4-|-0-2-4---------------|
A---4-3-2---3---------|---------------------|
E---------------------|---------------------|
---, 1---, (Venezuela folk) Orig chords ˜,
*
E-----------|-----------|----------|
B---------7-|---------7-|-7-10-9---|
G-6-9-6-9---|-6-9-6-9---|--------9-|
D-----------|-----------|----------|
A-----------|-----------|----------|
E-----------|-----------|----------|
Outro:
*
E----7-9-7----9-7------7----|
B-10-------10-----10-9---10-|
G---------------------------|
D---------------------------|
A---------------------------|
E---------------------------|
---, 1---, (---) Orig chords ˜,
El Paraiso
Telleman, 1---, (Telleman) Orig chords ˜,
Intro: G C D7
*
E-----------------|-----------------|
B-----------0-1---|-----------0-1---|
G-------0-2-----2-|-------0-2-----2-|
D-0-2-4-----------|-0-2-4-----------|
A-----------------|-----------------|
E-----------------|-----------------|
*
E-2-3-5-3-0-0-3-2-|---2---0-----0---|-10m-|
B-----------------|-3---3---1-1---3-|-----|
G-----------------|-----------------|-----|
D-----------------|-----------------|-----|
A-----------------|-----------------|-----|
E-----------------|-----------------|-----|
Pueblito Viejo
---, 1---, (---) Orig chords ˜,
Intro
*
E-0-3-2-0-----------|-0-2-0-------------|
B---------3-1-1-0---|-------3-1-0-0-----|
G-----------------2-|---------------2-0-|
D-------------------|-------------------|
A-------------------|-------------------|
E-------------------|-------------------|
*
E---0---------------|--------------|
B-0---3-1-0---------|------------0-|
G-----------2-2-0---|---0---0--2---|
D-----------------4-|-4---4--------|
A-------------------|--------------|
E-------------------|--------------|
*
E-------------------|-0-----------------|
B---------------0-1-|---3-1-0---------0-|
G---------0-2-2-----|---------2-0-0-2---|
D-2-2-2-4-----------|-------------------|
A-------------------|-------------------|
E-------------------|-------------------|
*
E-------------------|-----------------0-|
B-3-1-0-------------|-1-0-----------0---|
G-------2-0-----0-2-|-----2-0-----0-----|
D-----------4-4-----|---------4-2-------|
A-------------------|-------------------|
E-------------------|-------------------|
Whistle on your way home.
Potdevin - Cool Riffs and Hot Lead Guitar Licks - www.lepotdevin.com
147
Nocturnal
Pedro Vargas, 19--, (Jose Sabre Marroquin,Jose Mojica)
Orig chords ˜,
Intro:
arpeggio
C
Am
Dm
G7
C
E-------0-|-------0-|-------1-|-------3-|
B-----1---|-----1---|-----3---|-----0---|
G---0-----|---2-----|---2-----|---0-----|
D---------|---------|-0-------|---------|
A-3-------|-0-------|---------|---------|
E---------|---------|---------|-3-------|
1st Verse
C
Am
Dm
G7
C
Am
E--------------|--------------|--------------|
B--------------|--------------|--------------|
G--------------|--------------|--------------|
D--------------|-----0-0--0-0-|---0-2-2--2-2-|
A---0-3-3--3-3-|-0-3----------|-2------------|
E-3------------|--------------|--------------|
D
G7
C
Am Dm G7
C Am Dm G7
E-----------|-------|----------------|
B-----------|-----1-|----------0-----|
G---------0-|-0-2---|------------2---|
D---2-3-----|-------|--------------2-|
A-3---------|-------|----------------|
E-----------|-------|----------------|
C
Am
Dm
G7
C Am Dm G7
E--------------|--------------|-------|
B--------------|--------------|-------|
G-0------------|--------------|-------|
D---2----------|-----0-0--0-0-|-------|
A-----3-3--3-3-|-0-3----------|-3-2-3-|
E--------------|--------------|-------|
Arpeggio
C
Am
Dm
G7
C
E-------0-|-------0-|-------1-|-------3-|
B-----1---|-----1---|-----3---|-----0---|
G---0-----|---2-----|---2-----|---0-----|
D---------|---------|-0-------|---------|
A-3-------|-0-------|---------|---------|
E---------|---------|---------|-3-------|
2nd verse
C
G#
G7
C
E---------------------|---------------|
B---------------1---1-|---------------|
G-----------0-2-------|-3-1-3-1-3-1-0-|
D-------0-2-----------|---------------|
A-3-2-3---------------|---------------|
E---------------------|---------------|
G#
G
G7 ...C Am Dm G7
E--------|---------------|---|
B-1----1-|---------------|-0-|
G--------|-3-1-3-1-3-1-0-|---|
D--------|---------------|---|
A--------|---------------|---|
E--------|---------------|---|
148
Vereda Tropical
Pedro Vargas, 19--, (Gonzalo Curiel) Orig chords ˜,
1st stanza
( 2 x )
C
G
E---|-----------------|-----------------|
B---|-----------------|-----------------|
G-5-|-4-5-4-5-4-------|-----------------|
D---|-----------7-5---|-----------------|
A---|---------------5-|-5-7-5-8-7-5---5-|
E---|-----------------|-------------8---|
*
Fill in: 1st time
E-----------------|-|---------------|
B-----------------|-|---------------|
G-----------------|-|-------------4-|
D-----------------|-|---------5-7---|
A-5-7-5-8-7-5-7---|-|---5-7-8-------|
E---------------8-|-|-8-------------|
2nd stanza
*
E-----------|---------|-------|
B-----------|---------|-------|
G-----------|---------|-----5-|
D-----------|---------|---5---|
A-------5-5-|-5-5-5-7-|-8-----|
E-8-8-8-----|---------|-------|
*
E-----------|---------|-------|
B-----------|---------|-------|
G-----------|---------|-------|
D-----------|---------|---5-7-|
A-------5-5-|-5-5-5-7-|-8-----|
E-8-8-8-----|---------|-------|
*
E-------------|-------------|
B-------------|-------------|
G---4---5-4---|---4---5-4---|
D-7---7-----7-|-7---7-----7-|
A-------------|-------------|
E-------------|-------------|
*
E-------------|---------|
B-------------|---------|
G---4---5-4---|-4---4---|
D-7---7-----7-|---7---5-|
A-------------|---------|
E-------------|---------|
Fill in - then repeat 1 stanza
E---------------|
B---------------|
G-------------4-|
D---------5-7---|
A---5-7-8-------|
E-8-------------|
Potdevin - Cool Riffs and Hot Lead Guitar Licks - www.lepotdevin.com
Lili Marleen
Das Mädchen unter der Laterne
Will Glahe, 1964, (Hans Leip- words1915, Norbert Schultze - music 1938) Orig chords ˜,
into:
*
E--------------------|--------------------|
B--------------5-----|--------------------|
G-5-5--5-5-5-5---5-5-|--------------5-----|
D--------------------|-5-5--5-5-5-5---5-5-|
A--------------------|--------------------|
E--------------------|--------------------|
Fill in
E-------------------------|
B---------------1---------|
G-----------------2-0-----|
D---------------------2---|
A-3-3---3-3---3---------3-|
E-------------------------|
1st verse:
*
E---------------------|-------------------------|
B---------------------|-------------------------|
G-----------------5-4-|---------------4-2-------|
D-2-2-3-5-2-3-3-3-----|-------2-3-3-5-----5-3-2-|
A---------------------|-5-5-5-------------------|
E---------------------|-------------------------|
Bagpipe March
---, 1---, (British folk) Orig chords ˜,
Intro:
C
E---------|---------------------|
B---------|-------1-1---1-------|
G---------|-----0-----0---0-----|
D-----0-2-|---2-------------2---|
A-3-3-----|-3-----------------3-|
E---------|---------------------|
F
G
E---------------|----------------|
B---------------|----------------|
G---2-----0-----|----0-0-0-------|
D-3---0-2---2---|-0--------3-2-0-|
A-------------3-|----------------|
E---------------|----------------|
C
E---------|---------------------|
B---------|-------1-1---1-------|
G---------|-----0-----0---0-----|
D-----0-2-|---2-------------2---|
A-3-3-----|-3-----------------3-|
E---------|---------------------|
F
G C
E---------------|----------|
B---------------|----------|
G---2-----0-----|----------|
D-3---0-2---2---|-0--------|
A-------------3-|----3-3-3-|
E---------------|----------|
*
E-----------------|---------|---------|
B-----------------|---------|---------|
G-2-4-5-4-2-2---4-|-2-----2-|---------|
D-------------5---|---5-3---|-5-3-2-5-|
A-----------------|---------|---------|
E-----------------|---------|---------|
*
E---------------|----------|
B-1-1---1-------|-1-1---1-------|
G-----0---0-----|-----0---0-----|
D-----------2---|-----------2---|
A-------------3-|-------------3-|
E---------------|---------------|
*
E---------------|--------------|
B-----------3---|--------------|
G-------------5-|--------------|
D-2-5---3-3-----|-2-5--3-3-----|
A---------------|----------2-3-|
E---------------|--------------|
F
G
E---------------|----------------|
B---------------|----------------|
G---2-----0-----|----0-0-0-------|
D-3---0-2---2---|-0--------3-2-0-|
A-------------3-|----------------|
E---------------|----------------|
C
E---------|---------------------|
B---------|-------1-1---1-------|
G---------|-----0-----0---0-----|
D-----0-2-|---2-------------2---|
A-3-3-----|-3-----------------3-|
E---------|---------------------|
F
G C
E---------------|----------|
B---------------|----------|
G---2-----0-----|----------|
D-3---0-2---2---|-0--------|
A-------------3-|----3-3-3-|
E---------------|----------|
Potdevin - Cool Riffs and Hot Lead Guitar Licks - www.lepotdevin.com
149
A
G# - Ab
A
4G#m - Abm
Am
A# - Bb
A
5
C
B
A# - Bb
3
6
Bbm
Am
5
A7
Ab7
B
A# - Bb
A7 ii
Am7
Bb7
B7
Bbm7
Bm7
C
C
Bm
3
B#7
C7 (2)
C#
C # - Db
C#m
Cm
C7
Cm 7
4
C7 / 9
4
C#7
4
Cm 7
C#
M
C#m
m
C#m7
Chord Auxiliar
4
Ab
7th
C#m7-Dbm7
m7
A maj 9
Amaj7
Abmaj7
B maj 7
C maj 7
maj7
5
A7 sus 4
Asus2
Asus4
Bb sus 4
B7 sus 4
B sus 4
C sus 4
C7 sus 4
sus
A6
B6
6
Am6
Bm 6
A9
m6
C9
Am 9
9
Bm # 5
Am(#7)
C6
C6 / 9
B6
A6
C6
8
7
5
B7 / 9-1
Am7-5
B7 / 9-2
A+
C+
A 11
A dim
A 13
Bb add 9
Bb add
C/G
B add 9
C add 9
5
4
Ab/E
Am / C
Am / G
Bb / D
C/A
C/B
C/E
C/G
C/G
C7 / G
slash
chords
/
150
Potdevin - Cool Riffs and Hot Lead Guitar Licks - www.lepotdevin.com
D
Db
Db
E
D# - Eb
D# or Eb
D
D# or
F
E
E
F# - Gb
F
D#m
Ebm
Ebm
Em
Fm
6
C#7 or Db7
D7
D#7
Eb7
Dm7
Dm#7
G
G
F#m - Gbm
Gm
Gm
4
G# - Ab
2
5
Dm
G#
F# or
F
6
G
4G#m - Abm
2
E7
E7
Em7
Em7
5
E7
F7
E7#9
Fm7
7
F#7
F#m7
G7
F#m7
Gm7
Gm7
G maj 7
G maj 7
x
Dbmaj7
?
Dbmaj7
Dmaj7
Ebmaj9
D maj 9
Fmaj7
Gb maj 7
4
Ab maj 7
D7 sus 4
D sus 4
6
Ebsus4
7
Esus4
D6
E sus 4
E6
E7 sus 4
F6
F6
F6
G sus 4
G7 sus 4
G6
G6
G7sus
3
Dm6
Em 6
D9
D9
D9
Em # 5
D5
F5
E5
Gm6
Gm 6
G9
Gm 9
F#5
G5
F#m6
G6
3
D9
Dm 9
Em 9
D# 9
E9
E maj 9
5
D+
E+
E dim
E 11
E 13
Em / D
E/D
F7+
Fdim
G+
Gm7+
G dim
3
D (add) 9
D7 (add E)
D 11
D/B
F add 9
Fo
G 11
G 11
G/D
G / D
G 13
5
5
Dm sus/A
D 13
D / Bb
D/G
Eb/G
E / G#
x
Potdevin - Cool Riffs and Hot Lead Guitar Licks - www.lepotdevin.com
151
Resources - Alternate positions
A
E7
5
B
A
E7
A# - Bb
A
C maj 7
B maj 7
G maj 7
6
6
7
6
10
12
11
B
4
A
C
5
x x
x x
x x
PPx x
PPx x
PPx x
A# - Bb
7
x x x PPP
x x x PPP
A# - Bb
3
8
5
B
9
C
10
x PPx
x PPx
x PPx
x PPx
x x
x x
x x
x x
A
7
A# - Bb
8
B
9
C
10
x x
x x
x x
PPx x
PPx x
PPx x
x x
PPx x
B
C
2
Am
Am
Am
12
5
A#m - Bbm
3
x PPP
x PPP
x x
x x
Bm
3
Bm
A#m - Bbm
Cm
C#m - Dbm
Cm
4C#m - Dbm
Cm
C#m - Dbm
8
7
6
C#
C
B
x x x PPP
x x x PPP
4
x x x PPP
x x x PPP
A# - Bb
9
C
8
x x x PPP
A
C# - Db
C
B
7
x x x PPP
3
8
A# - Bb
5
C
B
7
A
C
B
A# - Bb
5
C
x x P PPP
Am
5
6
9
8
7
x x P
x x P
x x P
x x P
PPP
PPP
PPP
PPP
Am
8
152
Bm
A#m - Bbm
A#m - Bbm
9
Bm
10
Cm
11
x x P
PPP
B#m - Dbm
12
x x x
x x x
x x x
x x x
x x x
PPP
PPP
PPP
PPP
PPP
Potdevin - Cool Riffs and Hot Lead Guitar Licks - www.lepotdevin.com
D
E
F
E
F
D# - Eb
D
G
G
F# - Gb
G# - Ab
4
2
D
D
5
10
D# - Eb
6
E
7
G
F
G
8
10
F
D
G
10
3
x x x PPP
x x x PPP
E
x x x PPP
G
F
7
5
x x x PPP
D
12
10
9
x x
x x
5
PPx x
x x
5
D
x x
5
G
F
E
5
16
15
5
PPx x
PPx x
PPx x
12
G
F
E
7
x x x PPP
x x x PPP
x PPx
x PPx
x PPx
x PPx
x x
x x
x x
x x
D
F
E
12
5
x x
x x
x x
PPx x
PPx x
PPx x
E
D (2nd)
7
5
G
16
15
x x
PPx x
F
G
8
10
x PPP
x PPP
x PPP
x PPP
x x
x x
x x
x x
Em
D#m - Ebm
Dm
Fm
F#m - Gbm
Gm
4G#m - Abm
2
Dm
5
D#m - Ebm
6
Fm
Em
8
7
F#m - Gbm
9
Gm
10
G#m - Abm
11
x x P PPP
Dm
10
Fm
Em
D#m - Ebm
F#m - Gbm
x x P PPP
Gm
G#m - Abm
12
11
x x P
x x P
x x P
x x P
x x P
x x P
PPP
PPP
PPP
PPP
PPP
PPP
Fm
Em
D#m - Ebm
4
3
Gm
F#m - Gbm
5
6
PPP
G#m - Abm
7
x x x
x x x
x x x
x x x
PPP
PPP
PPP
PPP
Potdevin - Cool Riffs and Hot Lead Guitar Licks - www.lepotdevin.com
x x P
153
E
1
2
3
4
F
F#
A#
Bb
Gb
G
G#
Ab
A
A#
Bb
B
C
C#
Db
D
D#
Eb
E
F
F#
Gb
G
G#
Ab
A
A#
Bb
B
B-H
C
C#
Db
D
D#
Eb
E
F#
Gb
G
G#
Ab
A
D
G
C
6
A#
Bb
D#
Eb
G#
Ab
C#
Db
7
B
E
A
D
F#
Gb
B
8
C
F
A#
Bb
D#
Eb
G
C
C#
Db
F#
Gb
B
E
G#
Ab
C#
Db
D
G
C
F
A
D
D#
Eb
G#
Ab
C#
Db
F#
Gb
A#
Bb
D#
Eb
E
A
D
G
B
E
9
10
11
154
E
E
F
F
F# / Gb
F# / Gb
G
G
G# / Ab
G# / Ab
A
A
A# / Bb
A# / Bb
B/ H
B
C
C
C# / Db
C# / Db
D
D
D# / Eb
D# / Eb
E
E
F
5
E
Bar Chords
E position or F position
A
A#
Bb
F
Fm
F7sus4
F7
Fm7
F#
G
Potdevin - Cool Riffs and Hot Lead Guitar Licks - www.lepotdevin.com
Bar Chords
A position
Bar Chords
D position
Bar Chords
Am position
A
C
Am
A# / Bb
C# / Db
A#m Bbm
B/H
D
B
C
D# / Eb
C
C# / Db
E
C#m / Dbm
D
F
D
D# / Eb
F# / Gb
D#m / Ebm
E
G
Em
F
G# / Ab
Fm
F# / Gb
A
F#m / Gbm
G
A# / Bb
Gm
G# / Ab
B
G#m / Abm
A
C
Am
Bb
Bbm
Bb7sus4
Bb7
Bbm7
Db
D# - Eb
D#m7 - Ebm7
Potdevin - Cool Riffs and Hot Lead Guitar Licks - www.lepotdevin.com
D#m - Ebm
D#7
155
C mayor
Scale
C D E F G A B
A minor
Scale
A B C D F G - (G#)
C
Am
C
Am
Em
Dm
Em
Dm
F
G
F
G
Six line tablature
E------5----|---------|--------|
B----5------|---------|--------|
G--5--------|---------|--------|
D-----------|---------|--------|
A-----------|---------|--------|
E-----------|---------|--------|
One line tablature
( example: 35-25-15 )
ê first fret
ê 10th fret
E-10-|-11-12-13-14-15-16-17-18-19-|-110-111-112-|-113-114-115-116-117
B-20-|-21-22-23-24-25-26-27-28-29-|-210-211-212-|-213-214-215-216-217
G-30-|-31-32-33-34-35-36-37-38-39-|-310-311-312-|-313-314-315-316-317
D-40-|-41-42-43-44-45-46-47-48-49-|-410-411-412-|-413-414-415-416-417
A-50-|-51-52-53-54-55-56-57-58-59-|-510-511-512-|-513-514-515-516-517
E-60-|-61-62-63-64-65-66-67-68-69-|-610-611-612-|-613-614-615-616-617
156
Potdevin - Cool Riffs and Hot Lead Guitar Licks - www.lepotdevin.com
G minor Pentatónic Scale)
G Bb C D F G + ( Db
A minor
Pentatónic
C
˜
=B5th
Am
G
G
Printing tips:
1 - Use Legal size paper 8.5” x 13 3/4” (215 mm x 350 mm)
2 - Select “print size” to “User Defined”: 8.5 x 11 3/4” (215 mm x 300mm)
3 - Cut printed sheets to A4 size: 11 3/4” length (300 mm)
Potdevin - Cool Riffs and Hot Lead Guitar Licks - www.lepotdevin.com
157
Index
52
Crimson and Clover
43
Hey Bulldog
84
Crying
61
Hocus Pocus
14
Dance To The Guitar Man
57
Hometown Bust
75
1979
108
Daniel
30
Honky Tonk
22
007 Theme
42
Day Tripper
19
Hot Rod Lincoln
35
A Go-Go Dancer
74
De Do Do Do, De Da Da Da
116
How Deep Is Your Love
42
A Hard Day´s Night
133
De Repente
118
I Can See Clearly Now
108
A Kind Of Hush
39
Devil With A Blue Dress On
100
I Don´t Know How To Love Him
14
A Steel Guitar And A Glass Of Wine
76
Diana
19
I Walk The Line
127
Agua Caliente
21
Dick Tracy
80
I Will Follow Him
25
Alfred Hitchcok
73
Do Ya Think I´m Sexy
49
I´m A Believer
122
All By Myself
106
Do You Know The Way To San Jose
75
Ice Eyes Baby
38
All Day And All Night
75
Don´t Cry
110
If
77
All I Have To Do Is Dream
54
Down On The Corner
116
If You Leave Me Now
12
All Shook Up
98
Downtown
34
Improptu Jazz A Go-Go
53
All The Children Go To Heaven
98
Dream A Little Dream
58
In A Gadda Da Vida
70
American Woman
79
Edy Edy
85
In Dreams
43
And Your Bird Can Sing
147
El Paraiso
52
In My Room
48
Angie
130
Eres Tu
53
It Don´t Come Easy
135
Anna Magdalena Musette
129
Esta Tarde Vi Llover
80
It´s My Party
16
Apache
64
Estoy Bareto
47
It´s Only Love
111
As Tears Go By
147
Estoy Contento
46
I Will
59
Baba O`Riley
72
Everyone´s a Winner
22
James Bond
55
Baby Blue
110
Everything I Own
105
Je T´aime
117
Baby Come Back
117
Everytime You Go Away
138
Jesus Joy of Man´s Desire
115
Baby, I Love Your Way
70
Eyes Of Silver
74
Bad To The Bone
57
Feel So Bad
138
Joy
149
Bagpipe March
65
Feeling Alright
25
Judas Priest - JC Superstar
104
Ballad Of Adeline
113
Feelings
48
Jumpin Jack Flash
18
Bat Masterson
98
Fever
46
Junk
21
Batman Theme
56
Fire
115
Just The Way You Are
12
Be Bop A Lu La
71
Frankenstein
101
Killing Me Softly
27
Benny Hill
79
Frankie
146
Kingston Town
53
Bette Davies Eyes
47
Free As A Bird
40
La Bamba
27
Beverly Hillbillies
118
Free Me
131
La Flaca
42
Birthday
11
Fun Fun Fun
14
La Gallinita Twist
50
Black Is Black
54
Games People Play
146
La Gata Golosa
45
Blackbird
106
Georgy Girl
128
La Maldita Primavera
60
Blind Eye
60
Get Ready
57
Layla
96
Blowing In The Wind
21
Get Smart
85
Leah
52
Blue Moon
17
Ghost Ryders In The Sky
141
Liebestraum # 3 - Dreams of Love
61
Blues 01
47
Girl
107
Light My Fire
61
Blues 02
38
Gloria
148
Lili Marleen
18
Bonanza
38
Good Lovin
13
Linda Lu
54
Born On The Bayou
12
Great Balls Of Fire
70
Listen To The Music
102
Bridge Over Trouble Water
23
Green Onions
58
Living Loving Maid
113
Can´t Take My Eyes Off Of You
52
Green Tambourine
132
Lo Hechamos A Suerte
87
Cara De Payaso
144
Guitar Studios 1
48
Long Cool Woman
125
Casi Siempre Estoy Pensando En Ti
144
Guitar Studios 2
49
Long Tall Texan
51
Chicken pickin´ Intro
144
Guitar Studios 3
36
Louie Louie
109
Claire
145
Guitar Studios 4
111
Love Is All Around
140
Claire de Lune
145
Guitar Studios 5
70
Love Is Love
60
Cold Turkey
36
Hang On Sloopy - Ventures
22
Love Like A Man
75
Come As You Are
106
Happy Together
103
Love Me, Please Love Me
43
Come Together
58
Heart Breaker
142
Love Theme From Paganini
130
Cose Della Vita
55
Heart Of Gold
27
Mahna Mahna
13
Crazy Little Thing Called Love
39
Hello I Love You
139
Maria
75
Creep
53
Here Comes The Sun
124
Mary Es Mi Amor
158
11
Johnny B. Goode
Potdevin - Cool Riffs and Hot Lead Guitar Licks - www.lepotdevin.com
107
Massachusets
92
Same Old Line
133
Vivir Sin Aire
103
Mavie
107
San Francisco
32
Walk Don´t Run
59
Maybe I´m A Leo
48
Satisfaction
33
Walking With Pluto
56
Mi Parque
101
Saving All My Love For You
134
Warm Up Scale
24
Mission Impossible
37
Say I Am
59
We´re Not Gonna Take It
91
Misty
82
Sea Of Love
100
When A Man Loves A Woman
140
Mondschein Serenade
23
Secret Agent Man
115
When I Need You
74
Money For Nothing
10
Shake Rattle & Roll
78
Where The Boys Are
82
Moon River
35
Shes´s Not There
62
Whiter Side From Pale
65
More Than A Feeling
129
Si No Te Hubieras Ido
74
Wicket Games
53
Mr Tambourine Man
125
Siempre En Mi Mente
37
Wild Child
134
MS 63-64
89
Sleep Walk
37
Wild Thing
10
My Babe
59
Smoke On The Water
40
Wipe Out - Ametrallando
112
My Eyes Adore You
79
Someone Elses Boy
110
Without You
44
My Love - lead
44
Something
111
Words
74
My Sharona
70
Something On My Mind
42
Words Of Love
46
My Sweet Lord
99
Something Stupid
32
Work Song
62
Nights In White Satin
64
Sonata # 1
60
Workin On The Road
10
No Particular Place To Go
69
Song For Aries
50
Yeh Yeh
148
Nocturnal
109
Song Sung Blue
70
You Ain´t Seen Nothing Yet
49
Not Your Steppin´ Stone
61
Spam
114
You Are So Beautiful
121
Nothing Comapares 2U
94
Spooky, Traces, Stormy
119
You Decorated My Life
123
Ode To My family
68
Stairway To Heaven
13
You Drive Me Crazy
76
Oh Carol
90
Stardust
38
You Really Got Me
50
Oh, Pretty Woman
34
Stop Action
120
You Were Always On My Mind
75
One
99
Strangers In The Night
114
You´re Beautiful
73
One For You, One For Me
12
Summertime Blues
119
One More Night
102
Sunny
84
Only The Lonely
56
Sunshine Of Your Love
63
Owner Of A Broken Heart
73
Superstition
148
Chord Auxiliar
48
Paint It Black
51
Suspicious Minds
150
Resources - Alternate Positions
41
Perro Lanudo
37
Sweet Jane
152
Bar Chords
25
Perry Mason
60
Tales
154
Scales
23
Peter Gun
56
Tales Of Brave Ulyses
156
Index
26
Pink Panther Theme
69
Tangerine
135
Pop Corn
124
Te Amo
14
Popotitos
19
The Good, The Bad & The Ugly
141
Preludes Op 28 # 4
52
The House of The Rising Sun
54
Proud Mary
49
The Last Kiss
33
Pshyched Out Flights
19
The Lonely Bull
147
Pueblito Viejo
114
The Most Beautiful Girl
56
Purple Haze
24
The Saint Theme
77
Put Your Head On My Shoulder
20
The Wreck Of The John B.
126
Querida
93
Theme From «A Summer Place»
108
Raindrops
51
There´s A Kind Of Hush - lead solo
20
Ram Bunk Shush
73
Thriller
53
Ramble Tamble
29
Tijuana Taxi
20
Raunchy
147
Tiplecito De Mi Vida
66
Reelin In The Years
112
To Sir With Love
26
Roadrunner
71
Tobacco Road
12
Rock and Roll
137
Tocatta & Fugue
10
Rock Around The Clock
78
Too Many Rules
71
Rock On
81
Torn Between Two Lovers
11
Roll Over Beethoven
0
TV Series
86
Roman Guitar
41
Twist And Shout
41
Round & Round - Milo a Go-Go
75
Unbelievable
63
Round About
83
Unchained Melody
67
Samba Pa Ti
148
Vereda Tropical
Potdevin - Cool Riffs and Hot Lead Guitar Licks - www.lepotdevin.com
159
No more whistling !
I´m not humming !
Me either !
160
Potdevin - Cool Riffs and Hot Lead Guitar Licks - www.lepotdevin.com

Similar documents

Hymns of Light and Shadows Tab book

Hymns of Light and Shadows Tab book The Great Sea ................................................................................ 36 Lon Lon Ranch ................................................................................ 39 D...

More information