– Developing Rhythm Guitar Lesson DR6a Pearl Jam’s 'Just Breathe’ Travis Picking 4:

Comments

Transcription

– Developing Rhythm Guitar Lesson DR6a Pearl Jam’s 'Just Breathe’ Travis Picking 4:
www.brightonguitarlessons.co.uk
PDF information sheet to accompany the online video lesson:
Lesson DR6a – Developing Rhythm Guitar
Travis Picking 4:Pearl Jam’s 'Just Breathe’
1) The intro and verse section
G5
C(*)
C
1
1
2
2
2
3
G(+6)
3
4
2
3fr
3
4
C
C (*)
C (*)
e-||-----------------|-3---------3-----|-0---------0-----|-3---------3-----|
B-||-1---------1-----|-----------------|-----------------|-----------------|
G-||-------0-------0-|-------0-------0-|-------0-------0-|-------0-------0-|
D-||-----2-------2---|-----2-------2---|-----2-------2---|-----2-------2---|
A-||-3-------3-------|-3-------3-------|-3-------3-------|-3-------3-------|
E-||-----------------|-----------------|-----------------|-----------------|
+
+
+
+
+
+
+
+
+
+
+
+
+
+
+
+
G5
G(+6)
G5
e-||-----------------|-----------------|-----------------|------------------|
B-||-3---------3-----|-5---------5-----|-3---------3-----|-0-------3-------.|
G-||-------0-------0-|-------0-------0-|-------0-------0-|-----0-------0----|
D-||-----0-------0---|-----0-------0---|-----0-------0---|-----0-------0----|
A-||-----------------|-----------------|-----------------|-----------------.|
E-||-3-------3-------|-3-------3-------|-3-------3-------|-3-------3--------|
+
+
+
+
+
+
+
+
+
+
+
+
+
+
+
+
Note:To play the intro exactly as Eddie
Vedder plays it, replace the last bar of
the first line with this bar (Vedder has
big hands and can stretch to the fifth fret
from the C shape using his pinkie!):
C
C(+6)
e-||--3---------5---------|
B-||----------------------|
G-||---------0---------0--|
D-||-------2---------2----|
A-||--3---------3---------|
E-||----------------------|
+
+
+
+
The Chords for the rest of the song are:
Bridge: | Am | Am7 | Asus2 | Am7 |
| F | F(+9) | F | F |
Chorus: | G | G | Dm | Dm |
| F | F | Am | Am |
| Dm7 | C | G7/B | G7/B |
| G6 G7 | G G7 |
This lesson can be found at:
http://www.brightonguitarlessons.co.uk/lessons/beginning-lead-guitar/lesson6.php