Grand List 2015 - Town of Norwich, Vermont

Comments

Transcription

Grand List 2015 - Town of Norwich, Vermont
06/12/2015
01:32 pm
Town of Norwich Grand List
Grand List Report (Detail)
By Name For All Parcels In All Districts
Page 1
jbynum
PARCEL INFORMATION
TAXABLE VALUATIONS / EXEMPTIONS / CONTRACTS
-----------------------------------------------------------------------------------------------------------------------------------1820 HOUSE-NORWICH LLC
|
MUNICIPAL
HOMESTEAD
NON-RESIDENTIAL
|LAND
0
PO BOX 1439
|BUILDING
300,100
|TOTAL REAL
300,100
300,100
NORWICH VT 05055
|SPEC EXEMPTION
0
TAX MAP:
20-214.030
|
PROP DESC: 1820 HOUSE, UNITS 3 & PARTIAL 5
|
911 ADDR: 326 MAIN ST
|
PARCEL ID: 20-214.030 SPAN: 450-142-12453
|
HOUSESITE:
0
ACRES:
0.00 C
C
|GRAND LIST
3,001.00
3,001.00
-----------------------------------------------------------------------------------------------------------------------------------38 ACRES LLC
|
MUNICIPAL
HOMESTEAD
NON-RESIDENTIAL
C/O JOHN LEWIS
|LAND
193,000
346 PALM ST
|BUILDING
248,400
|TOTAL REAL
441,400
441,400
HOLLYWOOD FL 33019
|SPEC EXEMPTION
0
TAX MAP:
11-161.000
|
PROP DESC: 40.4 ACRES & TOWER - INC ADDL LOT (NV)
|
911 ADDR: 201 UPPER LOVELAND RD
|
PARCEL ID: 11-161.000 SPAN: 450-142-13090
|
HOUSESITE:
0
ACRES:
40.40 M
NS
|GRAND LIST
4,414.00
4,414.00
-----------------------------------------------------------------------------------------------------------------------------------63 EVANS DRIVE LLC
|
MUNICIPAL
HOMESTEAD
NON-RESIDENTIAL
|LAND
134,300
63 EVANS DRIVE
|BUILDING
258,700
|TOTAL REAL
393,000
393,000
LEBANON NH 03766
|SPEC EXEMPTION
0
TAX MAP:
10-055.000
|
PROP DESC: .70 ACRE & DWL
|
911 ADDR: 308 BEAVER MEADOW RD
|
PARCEL ID: 10-055.000 SPAN: 450-142-11581
|
HOUSESITE:
393,000
ACRES:
0.70 R1 C
|GRAND LIST
3,930.00
3,930.00
-----------------------------------------------------------------------------------------------------------------------------------A M CLOSE LIMITED PARTNERSHIP
|
MUNICIPAL
HOMESTEAD
NON-RESIDENTIAL
|LAND
158,800
C/O ELISSA CLOSE, CHRIS BRADY
|BUILDING
254,200
PO BOX 1045
|TOTAL REAL
413,000
413,000
NORWICH VT 05055
|SPEC EXEMPTION
0
TAX MAP:
10-202.000
|
PROP DESC: 6.09 ACRES & DWL
|
911 ADDR: 64 PARTRIDGE HILL
|
PARCEL ID: 10-202.000 SPAN: 450-142-12489
|
HOUSESITE:
395,900
ACRES:
6.09 R2 S
|GRAND LIST
4,130.00
4,130.00
-----------------------------------------------------------------------------------------------------------------------------------AARON JASON E
HMSTD FILED |
MUNICIPAL
HOMESTEAD
NON-RESIDENTIAL
AARON DENISE M
|LAND
109,300
55 STAGECOACH RD
|BUILDING
635,600
|TOTAL REAL
744,900
744,900
NORWICH VT 05055
|SPEC EXEMPTION
0
TAX MAP:
03-054.120
|
PROP DESC: 3.52 ACRES & DWL
|
911 ADDR: 55 STAGECOACH RD
|
PARCEL ID: 03-054.120 SPAN: 450-142-13190
|
HOUSESITE:
738,100
ACRES:
3.52 R1 T
|GRAND LIST
7,449.00
7,449.00
------------------------------------------------------------------------------------------------------------------------------------
06/12/2015
01:32 pm
Town of Norwich Grand List
Grand List Report (Detail)
By Name For All Parcels In All Districts
Page 2
jbynum
PARCEL INFORMATION
TAXABLE VALUATIONS / EXEMPTIONS / CONTRACTS
-----------------------------------------------------------------------------------------------------------------------------------AARON MELVIN
HMSTD FILED |
MUNICIPAL
HOMESTEAD
NON-RESIDENTIAL
FLAHERTY ELLEN
|LAND
119,300
28 HAWK PINE HILLS
|BUILDING
248,500
|TOTAL REAL
367,800
367,800
NORWICH VT 05055
|SPEC EXEMPTION
0
TAX MAP:
11-186.000
|
PROP DESC: 1.37 ACRES & DWL
|
911 ADDR: 28 HAWK PINE RD
|
PARCEL ID: 11-186.000 SPAN: 450-142-12521
|
HOUSESITE:
367,800
ACRES:
1.37 R1 T
|GRAND LIST
3,678.00
3,678.00
-----------------------------------------------------------------------------------------------------------------------------------ABC DAIRY LLC
|
MUNICIPAL
HOMESTEAD
NON-RESIDENTIAL
C/O DAVID CLEM
|LAND
245,700
PO BOX 1023
|BUILDING
115,500
|TOTAL REAL
361,200
361,200
NORWICH VT 05055
|SPEC EXEMPTION
0
TAX MAP:
16-017.000
|
PROP DESC: 10.1 ACRES & BLDGS & TANKS
|
911 ADDR: 198 CHURCH ST
|
PARCEL ID: 16-017.000 SPAN: 450-142-11870
|
HOUSESITE:
0
ACRES:
10.10 C
C
|GRAND LIST
3,612.00
3,612.00
-----------------------------------------------------------------------------------------------------------------------------------ACKER RICHARD
HMSTD FILED |
MUNICIPAL
HOMESTEAD
NON-RESIDENTIAL
ACKER SANDRA
|LAND
183,200
385 BRAGG HILL RD
|BUILDING
263,700
|TOTAL REAL
446,900
446,900
NORWICH VT 05055
|SPEC EXEMPTION
0
TAX MAP:
15-026.000
|
PROP DESC: 10.1 ACRES & DWL
|
911 ADDR: 385 BRAGG HILL RD
|
PARCEL ID: 15-026.000 SPAN: 450-142-11668
|
HOUSESITE:
417,800
ACRES:
10.10 R2 T
|GRAND LIST
4,469.00
4,469.00
-----------------------------------------------------------------------------------------------------------------------------------ACKERMAN JANE BENSON
HMSTD FILED |
MUNICIPAL
HOMESTEAD
NON-RESIDENTIAL
|LAND
98,000
5 WILLEY HILL RD
|BUILDING
311,900
|TOTAL REAL
409,900
375,888
34,012
NORWICH VT 05055-9636
|SPEC EXEMPTION
0
0
TAX MAP:
20-153.000
|
PROP DESC: .50 ACRES & DWL
|
911 ADDR: 5 WILLEY HILL RD
|
PARCEL ID: 20-153.000 SPAN: 450-142-13148
|
HOUSESITE:
375,888
ACRES:
0.50 R1 T
|GRAND LIST
4,099.00
3,758.88
340.12
-----------------------------------------------------------------------------------------------------------------------------------ACKLEY JULIA
HMSTD FILED |
MUNICIPAL
HOMESTEAD
NON-RESIDENTIAL
|LAND
101,600
5 HOPSON RD
|BUILDING
190,200
|TOTAL REAL
291,800
291,800
NORWICH VT 05055-9440
|SPEC EXEMPTION
0
TAX MAP:
20-261.000
|
PROP DESC: .18 ACRE & DWL
|
911 ADDR: 5 HOPSON RD
|
PARCEL ID: 20-261.000 SPAN: 450-142-12234
|
HOUSESITE:
291,800
ACRES:
0.18 R1 T
|GRAND LIST
2,918.00
2,918.00
------------------------------------------------------------------------------------------------------------------------------------
06/12/2015
01:32 pm
Town of Norwich Grand List
Grand List Report (Detail)
By Name For All Parcels In All Districts
Page 3
jbynum
PARCEL INFORMATION
TAXABLE VALUATIONS / EXEMPTIONS / CONTRACTS
-----------------------------------------------------------------------------------------------------------------------------------ADAMS ANTHONY H
|
MUNICIPAL
HOMESTEAD
NON-RESIDENTIAL
|LAND
506,600
14 SKYLINE WAY
|BUILDING
0
|TOTAL REAL
506,600
506,600
WHITE RIVER JUNCTION VT 05001
|SPEC EXEMPTION
0
TAX MAP:
04-011.000
|
PROP DESC: 186 ACRES
|
911 ADDR: TURNPIKE RD
|CURRENT USE
478,300
478,300
PARCEL ID: 04-011.000 SPAN: 450-142-12990
|
HOUSESITE:
0
ACRES:
186.00 M
S
|GRAND LIST
283.00
283.00
-----------------------------------------------------------------------------------------------------------------------------------ADAMS CLAYTON
HMSTD FILED |
MUNICIPAL
HOMESTEAD
NON-RESIDENTIAL
ADAMS ELIZABETH
|LAND
170,600
44 WATERMAN HILL RD
|BUILDING
410,200
|TOTAL REAL
580,800
580,800
NORWICH VT 05055
|SPEC EXEMPTION
0
TAX MAP:
05-073.000
|
PROP DESC: 15.2 ACRES & DWL
|
911 ADDR: 44 WATERMAN HILL RD
|
PARCEL ID: 05-073.000 SPAN: 450-142-13136
|
HOUSESITE:
537,300
ACRES:
15.20 R2 T
|GRAND LIST
5,808.00
5,808.00
-----------------------------------------------------------------------------------------------------------------------------------ADAMS GRACE R
|
MUNICIPAL
HOMESTEAD
NON-RESIDENTIAL
|LAND
96,000
14 SKYLINE WAY
|BUILDING
0
|TOTAL REAL
96,000
96,000
WHITE RIVER JUNCTION VT 05001
|SPEC EXEMPTION
0
TAX MAP:
03-040.000
|
PROP DESC: 10.40 ACRES
|
911 ADDR: CHAPEL HILL RD
|CURRENT USE
94,300
94,300
PARCEL ID: 03-040.000 SPAN: 450-142-11820
|
HOUSESITE:
0
ACRES:
10.40 M
S
|GRAND LIST
17.00
17.00
-----------------------------------------------------------------------------------------------------------------------------------ADAMS RICHARD
HMSTD FILED |
MUNICIPAL
HOMESTEAD
NON-RESIDENTIAL
MCCORMICK LYNN
|LAND
95,000
1528 BEAVER MEADOW RD
|BUILDING
279,500
|TOTAL REAL
374,500
374,500
NORWICH VT 05055
|SPEC EXEMPTION
0
TAX MAP:
03-055.000
|
PROP DESC: 3.0 ACRES & DWL
|
911 ADDR: 1528 BEAVER MEADOW RD
|
PARCEL ID: 03-055.000 SPAN: 450-142-11605
|
HOUSESITE:
372,200
ACRES:
3.00 R1 T
|GRAND LIST
3,745.00
3,745.00
-----------------------------------------------------------------------------------------------------------------------------------ADAMS ROBERT A.
|
MUNICIPAL
HOMESTEAD
NON-RESIDENTIAL
ADAMS LAUREN GIRARD
|LAND
167,700
96 ELM STREET
|BUILDING
932,900
|TOTAL REAL
1100,600
1100,600
NORWICH VT 05055
|SPEC EXEMPTION
0
TAX MAP:
20-274.000
|
PROP DESC: 2.72 ACRES & DWL & APT OVER GARAGE
|
911 ADDR: 96 ELM ST
|
PARCEL ID: 20-274.000 SPAN: 450-142-11955
|
HOUSESITE:
964,200
ACRES:
2.72 R1 T
|GRAND LIST
11,006.00
11,006.00
------------------------------------------------------------------------------------------------------------------------------------
06/12/2015
01:32 pm
Town of Norwich Grand List
Grand List Report (Detail)
By Name For All Parcels In All Districts
Page 4
jbynum
PARCEL INFORMATION
TAXABLE VALUATIONS / EXEMPTIONS / CONTRACTS
-----------------------------------------------------------------------------------------------------------------------------------ADDANTE ROCCO
HMSTD FILED |
MUNICIPAL
HOMESTEAD
NON-RESIDENTIAL
WITWICKI LINDA A
|LAND
94,900
31 MCKENNA RD
|BUILDING
293,500
|TOTAL REAL
388,400
388,400
NORWICH VT 05055-9426
|SPEC EXEMPTION
0
TAX MAP:
16-089.000
|
PROP DESC: 2.1
ACRES & DWL
|
911 ADDR: 31 MCKENNA RD
|
PARCEL ID: 16-089.000 SPAN: 450-142-12175
|
HOUSESITE:
388,000
ACRES:
2.08 R1 T
|GRAND LIST
3,884.00
3,884.00
-----------------------------------------------------------------------------------------------------------------------------------ADLER JAMES R TRUSTEE
HMSTD FILED |
MUNICIPAL
HOMESTEAD
NON-RESIDENTIAL
ADLER BROOKE B TRUSTEE
|LAND
159,400
PO BOX 1653
|BUILDING
819,100
|TOTAL REAL
978,500
978,500
NORWICH VT 05055
|SPEC EXEMPTION
0
TAX MAP:
20-244.000
|
PROP DESC: .42 ACRE & DWL/APT
|
911 ADDR: 253 MAIN ST
|
PARCEL ID: 20-244.000 SPAN: 450-142-12470
|
HOUSESITE:
978,500
ACRES:
0.42 R1 T
|GRAND LIST
9,785.00
9,785.00
-----------------------------------------------------------------------------------------------------------------------------------ADLER THOMAS J
HMSTD FILED |
MUNICIPAL
HOMESTEAD
NON-RESIDENTIAL
ADLER KIMBERLY C
|LAND
159,800
80 UPPER PASTURE RD
|BUILDING
224,800
|TOTAL REAL
384,600
372,400
12,200
NORWICH VT 05055-9622
|SPEC EXEMPTION
0
0
TAX MAP:
11-155.000
|
PROP DESC: 11.3 ACRES & DWL
|
911 ADDR: 80 UPPER PASTURE RD
|
PARCEL ID: 11-155.000 SPAN: 450-142-13096
|
HOUSESITE:
339,900
ACRES:
11.30 R2 T
|GRAND LIST
3,846.00
3,724.00
122.00
-----------------------------------------------------------------------------------------------------------------------------------AIREY JASON D
HMSTD FILED |
MUNICIPAL
HOMESTEAD
NON-RESIDENTIAL
BARNETT BRANDI S
|LAND
65,800
201 CHAPEL HILL RD
|BUILDING
48,000
|TOTAL REAL
113,800
113,800
NORWICH VT 05055
|SPEC EXEMPTION
0
TAX MAP:
03-008.000
|
PROP DESC: .95 ACRE & DWLG
|
911 ADDR: 201 CHAPEL HILL RD
|
PARCEL ID: 03-008.000 SPAN: 450-142-11822
|
HOUSESITE:
113,800
ACRES:
1.00 R1 T
|GRAND LIST
1,138.00
1,138.00
-----------------------------------------------------------------------------------------------------------------------------------AKERBOOM RICHARD
HMSTD FILED |
MUNICIPAL
HOMESTEAD
NON-RESIDENTIAL
|LAND
170,800
PO BOX 566
|BUILDING
79,800
|TOTAL REAL
250,600
250,600
NORWICH VT 05055-0566
|SPEC EXEMPTION
0
TAX MAP:
16-102.000
|
PROP DESC: 1.37 AC & DWL
|
911 ADDR: 154 RIVER RD
|
PARCEL ID: 16-102.000 SPAN: 450-142-12644
|
HOUSESITE:
250,600
ACRES:
1.37 R1 T
|GRAND LIST
2,506.00
2,506.00
------------------------------------------------------------------------------------------------------------------------------------
06/12/2015
01:32 pm
Town of Norwich Grand List
Grand List Report (Detail)
By Name For All Parcels In All Districts
Page 5
jbynum
PARCEL INFORMATION
TAXABLE VALUATIONS / EXEMPTIONS / CONTRACTS
-----------------------------------------------------------------------------------------------------------------------------------AKERS BONNI
HMSTD FILED |
MUNICIPAL
HOMESTEAD
NON-RESIDENTIAL
ST LAURENT MATTHEW
|LAND
0
649 GOODRICH 4 CORNERS ROAD
|BUILDING
4,100
|TOTAL REAL
4,100
4,100
NORWICH VT 05055
|SPEC EXEMPTION
0
TAX MAP:
11-122.100
|
PROP DESC: MOBILE HOME W/O LAND
|
911 ADDR: 649 GOODRICH FOUR CORNERS RD
|
PARCEL ID: 11-122.100 SPAN: 450-142-13329
|
HOUSESITE:
4,100
ACRES:
0.00 MHU T
|GRAND LIST
41.00
41.00
-----------------------------------------------------------------------------------------------------------------------------------ALBERT DONALD G
HMSTD FILED |
MUNICIPAL
HOMESTEAD
NON-RESIDENTIAL
ALBERT MARY R
|LAND
154,000
PO BOX 720
|BUILDING
299,300
|TOTAL REAL
453,300
453,300
NORWICH VT 05055-0720
|SPEC EXEMPTION
0
TAX MAP:
05-089.000
|
PROP DESC: 3.6 ACRES & DWL
|
911 ADDR: 153 KERWIN HILL RD
|
PARCEL ID: 05-089.000 SPAN: 450-142-12117
|
HOUSESITE:
446,100
ACRES:
3.60 R1 T
|GRAND LIST
4,533.00
4,533.00
-----------------------------------------------------------------------------------------------------------------------------------ALDRICH WILLIAM M
HMSTD FILED |
MUNICIPAL
HOMESTEAD
NON-RESIDENTIAL
ALDRICH ELIZABETH
|LAND
156,600
PO BOX 341
|BUILDING
274,500
|TOTAL REAL
431,100
431,100
NORWICH VT 05055-0341
|SPEC EXEMPTION
0
TAX MAP:
20-219.000
|
PROP DESC: .7 ACRE & DWL
|
911 ADDR: 34 CARPENTER ST
|
PARCEL ID: 20-219.000 SPAN: 450-142-11786
|
HOUSESITE:
431,100
ACRES:
0.70 R1 T
|GRAND LIST
4,311.00
4,311.00
-----------------------------------------------------------------------------------------------------------------------------------ALEF KATRINA
|
MUNICIPAL
HOMESTEAD
NON-RESIDENTIAL
THORSTENSEN JOHN R
|LAND
130,200
635 GOODRICH FOUR CORNERS RD
|BUILDING
310,600
|TOTAL REAL
440,800
440,800
NORWICH VT 05055-9799
|SPEC EXEMPTION
0
TAX MAP:
11-121.000
|
PROP DESC: 12.4 ACRES & DWL
|
911 ADDR: 635 GOODRICH FOUR CORNERS RD
|
PARCEL ID: 11-121.000 SPAN: 450-142-12009
|
HOUSESITE:
408,700
ACRES:
12.40 R2 T
|GRAND LIST
4,408.00
4,408.00
-----------------------------------------------------------------------------------------------------------------------------------ALEXANDER WALTER DIFLORIO
HMSTD FILED |
MUNICIPAL
HOMESTEAD
NON-RESIDENTIAL
ALEXANDER ROBERTA DIFLORIO
|LAND
135,200
PO BOX 1058
|BUILDING
429,200
|TOTAL REAL
564,400
564,400
NORWICH VT 05055-1058
|SPEC EXEMPTION
0
TAX MAP:
10-065.000
|
PROP DESC: 3.4 ACRES & DWL & COTTAGE
|
911 ADDR: 323 TURNPIKE RD
|
PARCEL ID: 10-065.000 SPAN: 450-142-12915
|
HOUSESITE:
558,700
ACRES:
3.40 R1 T
|GRAND LIST
5,644.00
5,644.00
------------------------------------------------------------------------------------------------------------------------------------
06/12/2015
01:32 pm
Town of Norwich Grand List
Grand List Report (Detail)
By Name For All Parcels In All Districts
Page 6
jbynum
PARCEL INFORMATION
TAXABLE VALUATIONS / EXEMPTIONS / CONTRACTS
-----------------------------------------------------------------------------------------------------------------------------------ALEXANDRESCU DORIAN E
HMSTD FILED |
MUNICIPAL
HOMESTEAD
NON-RESIDENTIAL
ALEXANDRESCU ANA P
|LAND
0
PO BOX 463
|BUILDING
472,700
|TOTAL REAL
472,700
472,700
NORWICH VT 05055
|SPEC EXEMPTION
0
TAX MAP:
|
PROP DESC: NORWICH GATEWAY CONDOMINIUM - UNIT 2
|
911 ADDR: 235 MAIN ST
|
PARCEL ID: 20-243.102 SPAN: 450-142-13404
|
HOUSESITE:
472,700
ACRES:
0.00 O
T
|GRAND LIST
4,727.00
4,727.00
-----------------------------------------------------------------------------------------------------------------------------------ALFORD ANNE MARIE
HMSTD FILED |
MUNICIPAL
HOMESTEAD
NON-RESIDENTIAL
|LAND
156,600
307 BEAVER MEADOW RD
|BUILDING
325,400
|TOTAL REAL
482,000
482,000
NORWICH VT 05055-1325
|SPEC EXEMPTION
0
TAX MAP:
10-019.000
|
PROP DESC: 2.46 ACRES & DWL
|
911 ADDR: 307 BEAVER MEADOW RD
|
PARCEL ID: 10-019.000 SPAN: 450-142-11580
|
HOUSESITE:
479,900
ACRES:
2.46 R1 T
|GRAND LIST
4,820.00
4,820.00
-----------------------------------------------------------------------------------------------------------------------------------ALLAN C J STUART
HMSTD FILED |
MUNICIPAL
HOMESTEAD
NON-RESIDENTIAL
|LAND
139,300
PO BOX 1063
|BUILDING
417,200
|TOTAL REAL
556,500
556,500
NORWICH VT 05055-1063
|SPEC EXEMPTION
0
TAX MAP:
10-127.000
|
PROP DESC: 2 ACRES & DWL
|
911 ADDR: 32 OLD FARM RD
|
PARCEL ID: 10-127.000 SPAN: 450-142-11894
|
HOUSESITE:
556,500
ACRES:
2.00 R1 T
|GRAND LIST
5,565.00
5,565.00
-----------------------------------------------------------------------------------------------------------------------------------ALLEN JACQUELINE
HMSTD FILED |
MUNICIPAL
HOMESTEAD
NON-RESIDENTIAL
|LAND
136,900
15 UNION VILLAGE ROAD
|BUILDING
301,000
|TOTAL REAL
437,900
437,900
NORWICH VT 05055
|SPEC EXEMPTION
0
TAX MAP:
20-152.000
|
PROP DESC: .75 ACRE & DWL
|
911 ADDR: 15 UNION VILLAGE RD
|
PARCEL ID: 20-152.000 SPAN: 450-142-13002
|
HOUSESITE:
437,900
ACRES:
0.75 R1 T
|GRAND LIST
4,379.00
4,379.00
-----------------------------------------------------------------------------------------------------------------------------------ALONSO SYDNEY A
HMSTD FILED |
MUNICIPAL
HOMESTEAD
NON-RESIDENTIAL
SPRINGWATER JACQUELINE
|LAND
109,300
PO BOX 255
|BUILDING
254,200
|TOTAL REAL
363,500
185,560
177,940
NORWICH VT 05055-0255
|SPEC EXEMPTION
0
0
TAX MAP:
20-161.000
|
PROP DESC: .64 ACRE & DWL & APT
|
911 ADDR: 81 KOCH RD
|
PARCEL ID: 20-161.000 SPAN: 450-142-12156
|
HOUSESITE:
185,560
ACRES:
0.64 R1 T
|GRAND LIST
3,635.00
1,855.60
1,779.40
------------------------------------------------------------------------------------------------------------------------------------
06/12/2015
01:32 pm
Town of Norwich Grand List
Grand List Report (Detail)
By Name For All Parcels In All Districts
Page 7
jbynum
PARCEL INFORMATION
TAXABLE VALUATIONS / EXEMPTIONS / CONTRACTS
-----------------------------------------------------------------------------------------------------------------------------------AMES MARGUERITE J
HMSTD FILED |
MUNICIPAL
HOMESTEAD
NON-RESIDENTIAL
|LAND
323,500
884 BRAGG HILL RD
|BUILDING
216,700
|TOTAL REAL
540,200
540,200
NORWICH VT 05055
|SPEC EXEMPTION
0
TAX MAP:
10-008.000
|
PROP DESC: 43.7 AC & DWLG I & 1 ADDL LOT RESTRICTED
|
911 ADDR: 884 BRAGG HILL RD
|CURRENT USE
70,300
70,300
PARCEL ID: 10-008.000 SPAN: 450-142-11690
|
HOUSESITE:
418,700
ACRES:
43.70 R2 T
|GRAND LIST
4,699.00
4,699.00
-----------------------------------------------------------------------------------------------------------------------------------AMES MARILYN T REV TRUST
HMSTD FILED |
MUNICIPAL
HOMESTEAD
NON-RESIDENTIAL
|LAND
70,000
85 MCKENNA RD
|BUILDING
189,100
|TOTAL REAL
259,100
259,100
NORWICH VT 05055-9426
|SPEC EXEMPTION
0
TAX MAP:
16-084.000
|
PROP DESC: .36 ACRE & DWL
|
911 ADDR: 85 MCKENNA RD
|
PARCEL ID: 16-084.000 SPAN: 450-142-12189
|
HOUSESITE:
259,100
ACRES:
0.36 R1 T
|GRAND LIST
2,591.00
2,591.00
-----------------------------------------------------------------------------------------------------------------------------------AMME DIANE A
HMSTD FILED |
MUNICIPAL
HOMESTEAD
NON-RESIDENTIAL
|LAND
0
PO BOX 4
|BUILDING
108,000
|TOTAL REAL
108,000
108,000
NORWICH VT 05055
|SPEC EXEMPTION
0
TAX MAP:
12-003.214
|
PROP DESC: DWELLING ONLY LOT 14
|
911 ADDR: 30 STARLAKE LN
|
PARCEL ID: 12-003.214 SPAN: 450-142-12701
|
HOUSESITE:
108,000
ACRES:
0.00 R1 T
|GRAND LIST
1,080.00
1,080.00
-----------------------------------------------------------------------------------------------------------------------------------ANDERSON CECILY R
HMSTD FILED |
MUNICIPAL
HOMESTEAD
NON-RESIDENTIAL
|LAND
94,100
107 LADEAU ROAD
|BUILDING
35,700
|TOTAL REAL
129,800
118,415
11,385
NORWICH VT 05055
|SPEC EXEMPTION
0
0
TAX MAP:
05-044.000
|
PROP DESC: 10 ACRES & DWL
|
911 ADDR: 107 LADEAU RD
|
PARCEL ID: 05-044.000 SPAN: 450-142-12140
|
HOUSESITE:
89,615
ACRES:
10.00 R2 T
|GRAND LIST
1,298.00
1,184.15
113.85
-----------------------------------------------------------------------------------------------------------------------------------ANDERSON CLINT W
HMSTD FILED |
MUNICIPAL
HOMESTEAD
NON-RESIDENTIAL
ANDERSON MEGAN S
|LAND
0
34 STARLAKE RD
|BUILDING
93,700
|TOTAL REAL
93,700
93,700
NORWICH VT 05055
|SPEC EXEMPTION
0
TAX MAP:
12-003.213
|
PROP DESC: DWELLING ONLY LOT 13
|
911 ADDR: 34 STARLAKE LN
|
PARCEL ID: 12-003.213 SPAN: 450-142-12700
|
HOUSESITE:
93,700
ACRES:
0.00 R1 T
|GRAND LIST
937.00
937.00
------------------------------------------------------------------------------------------------------------------------------------
06/12/2015
01:32 pm
Town of Norwich Grand List
Grand List Report (Detail)
By Name For All Parcels In All Districts
Page 8
jbynum
PARCEL INFORMATION
TAXABLE VALUATIONS / EXEMPTIONS / CONTRACTS
-----------------------------------------------------------------------------------------------------------------------------------ANDERSON JUSTIN
|
MUNICIPAL
HOMESTEAD
NON-RESIDENTIAL
SCHREIBMAN TAMAR A
|LAND
148,800
95 ABIGAIL RD
|BUILDING
321,100
|TOTAL REAL
469,900
469,900
NORWICH VT 05055
|SPEC EXEMPTION
0
TAX MAP:
10-025.000
|
PROP DESC: 11 ACRES & DWL
|
911 ADDR: 95 ABIGAIL RD
|
PARCEL ID: 10-025.000 SPAN: 450-142-11933
|
HOUSESITE:
447,100
ACRES:
11.00 R2 T
|GRAND LIST
4,699.00
4,699.00
-----------------------------------------------------------------------------------------------------------------------------------ANDERSON MARK R
HMSTD FILED |
MUNICIPAL
HOMESTEAD
NON-RESIDENTIAL
ANDERSON MARY J
|LAND
174,900
405 KERWIN HILL RD
|BUILDING
306,100
|TOTAL REAL
481,000
481,000
NORWICH VT 05055
|SPEC EXEMPTION
0
TAX MAP:
05-114.130
|
PROP DESC: 16.8 ACRES & DWL
|
911 ADDR: 405 KERWIN HILL RD
|
PARCEL ID: 05-114.130 SPAN: 450-142-12130
|
HOUSESITE:
433,100
ACRES:
16.80 R2 T
|GRAND LIST
4,810.00
4,810.00
-----------------------------------------------------------------------------------------------------------------------------------ANDERSON W DAVID
|
MUNICIPAL
HOMESTEAD
NON-RESIDENTIAL
ANDERSON MARGARET G
|LAND
121,200
81 POOCHAM RD
|BUILDING
0
|TOTAL REAL
121,200
121,200
WEST CHESTERFIELD NH 03466
|SPEC EXEMPTION
0
TAX MAP:
05-078.000
|
PROP DESC: 10.2 ACRES
|
911 ADDR: 27 MIDDLE RD
|
PARCEL ID: 05-078.000 SPAN: 450-142-12248
|
HOUSESITE:
0
ACRES:
10.20 M
NS
|GRAND LIST
1,212.00
1,212.00
-----------------------------------------------------------------------------------------------------------------------------------ANDREWS PETER
HMSTD FILED |
MUNICIPAL
HOMESTEAD
NON-RESIDENTIAL
ANDREWS APRIL
|LAND
146,900
47 CHURCH ST
|BUILDING
340,000
|TOTAL REAL
486,900
486,900
NORWICH VT 05055
|SPEC EXEMPTION
0
TAX MAP:
16-045.000
|
PROP DESC: .94 ACRE & DWL/APT
|
911 ADDR: 47 CHURCH ST
|
PARCEL ID: 16-045.000 SPAN: 450-142-11848
|
HOUSESITE:
486,900
ACRES:
0.94 R1 T
|GRAND LIST
4,869.00
4,869.00
-----------------------------------------------------------------------------------------------------------------------------------ANDRUS BRUCE W
HMSTD FILED |
MUNICIPAL
HOMESTEAD
NON-RESIDENTIAL
ANDRUS STEPHANIE C
|LAND
156,700
1062 TURNPIKE RD
|BUILDING
390,700
|TOTAL REAL
547,400
547,400
NORWICH VT 05055-9565
|SPEC EXEMPTION
0
TAX MAP:
04-034.000
|
PROP DESC: 10.17 ACRES & DWELLING
|
911 ADDR: 1062 TURNPIKE RD
|
PARCEL ID: 04-034.000 SPAN: 450-142-12958
|
HOUSESITE:
518,100
ACRES:
10.17 R2 T
|GRAND LIST
5,474.00
5,474.00
------------------------------------------------------------------------------------------------------------------------------------
06/12/2015
01:32 pm
Town of Norwich Grand List
Grand List Report (Detail)
By Name For All Parcels In All Districts
Page 9
jbynum
PARCEL INFORMATION
TAXABLE VALUATIONS / EXEMPTIONS / CONTRACTS
-----------------------------------------------------------------------------------------------------------------------------------ANKNER-EDELSTEIN JENNIFER
|
MUNICIPAL
HOMESTEAD
NON-RESIDENTIAL
EDELSTEIN ERIC L
|LAND
144,900
1292 TURNPIKE ROAD
|BUILDING
168,000
|TOTAL REAL
312,900
312,900
NORWICH VT 05055
|SPEC EXEMPTION
0
TAX MAP:
04-030.000
|
PROP DESC: 10.3 ACRES & DWL
|
911 ADDR: 1292 TURNPIKE RD
|
PARCEL ID: 04-030.000 SPAN: 450-142-12970
|
HOUSESITE:
289,200
ACRES:
10.30 R2 T
|GRAND LIST
3,129.00
3,129.00
-----------------------------------------------------------------------------------------------------------------------------------ANTON KRISTEN
HMSTD FILED |
MUNICIPAL
HOMESTEAD
NON-RESIDENTIAL
BABBOTT ANNE
|LAND
127,200
16 TRUMBULL LANE
|BUILDING
262,500
|TOTAL REAL
389,700
389,700
NORWICH VT 05055
|SPEC EXEMPTION
0
TAX MAP:
20-128.010
|
PROP DESC: .22 ACRES & DWL
|
911 ADDR: 16 TRUMBULL LN
|
PARCEL ID: 20-128.010 SPAN: 450-142-12871
|
HOUSESITE:
389,700
ACRES:
0.22 R1 T
|GRAND LIST
3,897.00
3,897.00
-----------------------------------------------------------------------------------------------------------------------------------APPLEBY TERRY P
HMSTD FILED |
MUNICIPAL
HOMESTEAD
NON-RESIDENTIAL
RYAN MARY S
|LAND
122,200
PO BOX 1067
|BUILDING
261,200
|TOTAL REAL
383,400
383,400
NORWICH VT 05055-1067
|SPEC EXEMPTION
0
TAX MAP:
20-128.000
|
PROP DESC: .47 ACRE & DWL
|
911 ADDR: 22 TRUMBULL LN
|
PARCEL ID: 20-128.000 SPAN: 450-142-12872
|
HOUSESITE:
383,400
ACRES:
0.47 R1 T
|GRAND LIST
3,834.00
3,834.00
-----------------------------------------------------------------------------------------------------------------------------------AQUILA MARC
HMSTD FILED |
MUNICIPAL
HOMESTEAD
NON-RESIDENTIAL
AQUILA CHRISTINA
|LAND
162,400
688 NEW BOSTON RD
|BUILDING
175,000
|TOTAL REAL
337,400
337,400
NORWICH VT 05055
|SPEC EXEMPTION
0
TAX MAP:
11-041.000
|
PROP DESC: 42.9 ACRES & DWL
|
911 ADDR: 688 NEW BOSTON RD
|CURRENT USE
58,600
58,600
PARCEL ID: 11-041.000 SPAN: 450-142-12308
|
HOUSESITE:
272,600
ACRES:
42.90 R2 T
|GRAND LIST
2,788.00
2,788.00
-----------------------------------------------------------------------------------------------------------------------------------ARESON ROBERT H ESTATE OF
|
MUNICIPAL
HOMESTEAD
NON-RESIDENTIAL
ARESON PETER D & PAUL M
|LAND
537,000
BOX 194
|BUILDING
0
14 WILD`S WAY
|TOTAL REAL
537,000
537,000
WESTON VT 05161
|SPEC EXEMPTION
0
TAX MAP:
09-048.000
|
PROP DESC: 231.75 ACRES
|
911 ADDR: BURTON WOODS RD
|CURRENT USE
507,300
507,300
PARCEL ID: 09-048.000 SPAN: 450-142-12832
|
HOUSESITE:
0
ACRES:
231.75 M
NS
|GRAND LIST
297.00
297.00
------------------------------------------------------------------------------------------------------------------------------------
06/12/2015
01:32 pm
Town of Norwich Grand List
Grand List Report (Detail)
By Name For All Parcels In All Districts
Page 10
jbynum
PARCEL INFORMATION
TAXABLE VALUATIONS / EXEMPTIONS / CONTRACTS
-----------------------------------------------------------------------------------------------------------------------------------ARNOLD NANCY S TRUSTEE
HMSTD FILED |
MUNICIPAL
HOMESTEAD
NON-RESIDENTIAL
|LAND
396,400
227 NORFORD LAKE RD
|BUILDING
343,600
|TOTAL REAL
740,000
740,000
NORWICH VT 05055
|SPEC EXEMPTION
0
TAX MAP:
05-024.000
|
PROP DESC: 117 ACRES & DWL
|
911 ADDR: 227 NORFORD LAKE RD
|CURRENT USE
277,500
277,500
PARCEL ID: 05-024.000 SPAN: 450-142-12400
|
HOUSESITE:
445,400
ACRES:
117.00 R2 T
|GRAND LIST
4,625.00
4,625.00
-----------------------------------------------------------------------------------------------------------------------------------ASA CHERYL S
|
MUNICIPAL
HOMESTEAD
NON-RESIDENTIAL
|LAND
174,900
1907 SOUTH COMPTON AVENUE
|BUILDING
156,800
|TOTAL REAL
331,700
331,700
ST LOUIS MO 63104
|SPEC EXEMPTION
0
TAX MAP:
09-014.100
|
PROP DESC: 9.65 ACRES & DWL & ADDL LOT
|
911 ADDR: 244 MITCHELL BROOK RD
|CURRENT USE
70,139
70,139
PARCEL ID: 09-014.100 SPAN: 450-142-12270
|
HOUSESITE:
229,700
ACRES:
40.65 R2 NS
|GRAND LIST
2,615.61
2,615.61
-----------------------------------------------------------------------------------------------------------------------------------ASHLEY CHRISTOPHER R
HMSTD FILED |
MUNICIPAL
HOMESTEAD
NON-RESIDENTIAL
ASHLEY TERRI C
|LAND
151,600
38 BIRCH HILL LN
|BUILDING
308,700
|TOTAL REAL
460,300
460,300
NORWICH VT 05055
|SPEC EXEMPTION
0
TAX MAP:
04-021.000
|
PROP DESC: 10 ACRES & DWL
|
911 ADDR: 38 BIRCH HILL LN
|
PARCEL ID: 04-021.000 SPAN: 450-142-12985
|
HOUSESITE:
434,400
ACRES:
10.00 R2 T
|GRAND LIST
4,603.00
4,603.00
-----------------------------------------------------------------------------------------------------------------------------------ASTLEY GEORGE G
HMSTD FILED |
MUNICIPAL
HOMESTEAD
NON-RESIDENTIAL
ASTLEY JEAN B
|LAND
97,600
724 UNION VILLAGE RD
|BUILDING
140,100
|TOTAL REAL
237,700
237,700
NORWICH VT 05055
|SPEC EXEMPTION
0
TAX MAP:
11-125.000
|
PROP DESC: 1.57 ACRES & MOB HOME & DWL
|
911 ADDR: 724 UNION VILLAGE RD
|
PARCEL ID: 11-125.000 SPAN: 450-142-13027
|
HOUSESITE:
237,700
ACRES:
1.57 R1 T
|GRAND LIST
2,377.00
2,377.00
-----------------------------------------------------------------------------------------------------------------------------------AUSTIN THEODORE M
HMSTD FILED |
MUNICIPAL
HOMESTEAD
NON-RESIDENTIAL
AUSTIN MARTHA F
|LAND
132,300
1616 BEAVER MEADOW RD
|BUILDING
441,800
|TOTAL REAL
574,100
574,100
NORWICH VT 05055
|SPEC EXEMPTION
0
TAX MAP:
03-054.210
|
PROP DESC: 3.99 ACRES & DWL
|
911 ADDR: 1616 BEAVER MEADOW RD
|
PARCEL ID: 03-054.210 SPAN: 450-142-11609
|
HOUSESITE:
565,100
ACRES:
3.99 R1 T
|GRAND LIST
5,741.00
5,741.00
------------------------------------------------------------------------------------------------------------------------------------
06/12/2015
01:32 pm
Town of Norwich Grand List
Grand List Report (Detail)
By Name For All Parcels In All Districts
Page 11
jbynum
PARCEL INFORMATION
TAXABLE VALUATIONS / EXEMPTIONS / CONTRACTS
-----------------------------------------------------------------------------------------------------------------------------------AUTEN GERALD D JR
HMSTD FILED |
MUNICIPAL
HOMESTEAD
NON-RESIDENTIAL
LENNON AUTEN SUE A
|LAND
95,100
188 VT ROUTE 132
|BUILDING
112,500
|TOTAL REAL
207,600
207,600
NORWICH VT 05055
|SPEC EXEMPTION
0
TAX MAP:
06-050.000
|
PROP DESC: 1.01 ACRES & DWL
|
911 ADDR: 188 VT ROUTE 132
|
PARCEL ID: 06-050.000 SPAN: 450-142-12766
|
HOUSESITE:
207,600
ACRES:
1.01 R1 T
|GRAND LIST
2,076.00
2,076.00
-----------------------------------------------------------------------------------------------------------------------------------BABCOCK LAURENCE E TRUSTEE
|
MUNICIPAL
HOMESTEAD
NON-RESIDENTIAL
STONE VIRGINIA TRUSTEE
|LAND
117,100
PO BOX 61
|BUILDING
157,000
|TOTAL REAL
274,100
274,100
NORWICH VT 05055-0061
|SPEC EXEMPTION
0
TAX MAP:
20-099.000
|
PROP DESC: 0.75 ACRE & DWL
|
911 ADDR: 32 HUNTLEY ST
|
PARCEL ID: 20-099.000 SPAN: 450-142-12085
|
HOUSESITE:
274,100
ACRES:
0.82 R1 T
|GRAND LIST
2,741.00
2,741.00
-----------------------------------------------------------------------------------------------------------------------------------BACHNER STEVEN
HMSTD FILED |
MUNICIPAL
HOMESTEAD
NON-RESIDENTIAL
MATZ JANET EILEEN
|LAND
132,500
22 NORFORD LAKE RD
|BUILDING
455,400
|TOTAL REAL
587,900
587,900
NORWICH VT 05055
|SPEC EXEMPTION
0
TAX MAP:
05-038.000
|
PROP DESC: 10.4 ACRES & DWL & 1/4 ADDL LOT
|
911 ADDR: 22 NORFORD LAKE RD
|
PARCEL ID: 05-038.000 SPAN: 450-142-12391
|
HOUSESITE:
558,000
ACRES:
10.40 R2 T
|GRAND LIST
5,879.00
5,879.00
-----------------------------------------------------------------------------------------------------------------------------------BADGLEY ANNE V TRUST
|
MUNICIPAL
HOMESTEAD
NON-RESIDENTIAL
C/O TONI BROGNA
|LAND
155,200
CHOATE HALL & STEWART
|BUILDING
451,300
2 INTERNATIONAL PLACE
|TOTAL REAL
606,500
606,500
BOSTON MA 02110
|SPEC EXEMPTION
0
TAX MAP:
20-054.000
|
PROP DESC: 10.1 ACRES & DWL/APT
|
911 ADDR: 69 SIMPSON RD
|
PARCEL ID: 20-054.000 SPAN: 450-142-11664
|
HOUSESITE:
505,192
ACRES:
10.10 R2 NS
|GRAND LIST
6,065.00
6,065.00
-----------------------------------------------------------------------------------------------------------------------------------BAER HELMUT
HMSTD FILED |
MUNICIPAL
HOMESTEAD
NON-RESIDENTIAL
|LAND
127,800
518 HAWK PINE RD
|BUILDING
272,100
|TOTAL REAL
399,900
334,716
65,184
NORWICH VT 05055
|SPEC EXEMPTION
0
0
TAX MAP:
16-137.000
|
PROP DESC: 1.88 ACRES & DWL/APT
|
911 ADDR: 518 HAWK PINE RD
|
PARCEL ID: 16-137.000 SPAN: 450-142-12578
|
HOUSESITE:
334,716
ACRES:
1.88 R1 T
|GRAND LIST
3,999.00
3,347.16
651.84
------------------------------------------------------------------------------------------------------------------------------------
06/12/2015
01:32 pm
Town of Norwich Grand List
Grand List Report (Detail)
By Name For All Parcels In All Districts
Page 12
jbynum
PARCEL INFORMATION
TAXABLE VALUATIONS / EXEMPTIONS / CONTRACTS
-----------------------------------------------------------------------------------------------------------------------------------BAER JEANNE
HMSTD FILED |
MUNICIPAL
HOMESTEAD
NON-RESIDENTIAL
|LAND
124,300
31 PIERCE LN
|BUILDING
407,600
|TOTAL REAL
531,900
389,240
142,660
NORWICH VT 05055-9626
|SPEC EXEMPTION
0
0
TAX MAP:
10-210.100
|
PROP DESC: 1.05 ACRES & DWL
|
911 ADDR: 31 PIERCE LN
|
PARCEL ID: 10-210.100 SPAN: 450-142-13007
|
HOUSESITE:
389,240
ACRES:
1.05 R1 T
|GRAND LIST
5,319.00
3,892.40
1,426.60
-----------------------------------------------------------------------------------------------------------------------------------BAGHDOYAN MARGARET L
HMSTD FILED |
MUNICIPAL
HOMESTEAD
NON-RESIDENTIAL
|LAND
0
PO BOX 835
|BUILDING
173,200
|TOTAL REAL
173,200
173,200
NORWICH VT 05055-0835
|SPEC EXEMPTION
0
TAX MAP:
15-055.002
|
PROP DESC: 55 NORWICH MEADOWS UNIT 2
|
911 ADDR: 55 NORWICH MEADOWS 2
|
PARCEL ID: 15-055.002 SPAN: 450-142-11738
|
HOUSESITE:
173,200
ACRES:
0.00 O
T
|GRAND LIST
1,732.00
1,732.00
-----------------------------------------------------------------------------------------------------------------------------------BAGNATO UWE & MARY M. REV TRUST
HMSTD FILED |
MUNICIPAL
HOMESTEAD
NON-RESIDENTIAL
|LAND
110,100
38 HAZEN ST
|BUILDING
308,500
|TOTAL REAL
418,600
418,600
NORWICH VT 05055
|SPEC EXEMPTION
0
TAX MAP:
20-188.000
|
PROP DESC: 0.24 ACRE & DWL
|
911 ADDR: 38 HAZEN ST
|
PARCEL ID: 20-188.000 SPAN: 450-142-12030
|
HOUSESITE:
418,600
ACRES:
0.24 R1 T
|GRAND LIST
4,186.00
4,186.00
-----------------------------------------------------------------------------------------------------------------------------------BAILEY BRETT A
HMSTD FILED |
MUNICIPAL
HOMESTEAD
NON-RESIDENTIAL
BAILEY SANDRA D
|LAND
103,500
1411 UNION VILLAGE ROAD
|BUILDING
215,000
|TOTAL REAL
318,500
318,500
NORWICH VT 05055
|SPEC EXEMPTION
0
TAX MAP:
05-082.000
|
PROP DESC: 2.89 ACRES & DWL
|
911 ADDR: 1411 UNION VILLAGE RD
|
PARCEL ID: 05-082.000 SPAN: 450-142-13062
|
HOUSESITE:
314,500
ACRES:
2.89 R1 T
|GRAND LIST
3,185.00
3,185.00
-----------------------------------------------------------------------------------------------------------------------------------BAKER NANCY E
HMSTD FILED |
MUNICIPAL
HOMESTEAD
NON-RESIDENTIAL
|LAND
110,100
186 BEAVER MEADOW RD
|BUILDING
184,000
|TOTAL REAL
294,100
248,100
46,000
NORWICH VT 05055
|SPEC EXEMPTION
0
0
TAX MAP:
20-108.000
|
PROP DESC: .24 ACRE & DWL
|
911 ADDR: 186 BEAVER MEADOW RD
|
PARCEL ID: 20-108.000 SPAN: 450-142-12213
|
HOUSESITE:
248,100
ACRES:
0.24 R1 T
|GRAND LIST
2,941.00
2,481.00
460.00
------------------------------------------------------------------------------------------------------------------------------------
06/12/2015
01:32 pm
Town of Norwich Grand List
Grand List Report (Detail)
By Name For All Parcels In All Districts
Page 13
jbynum
PARCEL INFORMATION
TAXABLE VALUATIONS / EXEMPTIONS / CONTRACTS
-----------------------------------------------------------------------------------------------------------------------------------BANDLER JAMES
HMSTD FILED |
MUNICIPAL
HOMESTEAD
NON-RESIDENTIAL
HOLCOMBE REBECCA
|LAND
151,600
P O BOX 170
|BUILDING
569,200
|TOTAL REAL
720,800
720,800
NORWICH VT 05055
|SPEC EXEMPTION
0
TAX MAP:
10-042.000
|
PROP DESC: 8.82 ACRES & DWL
|
911 ADDR: 159 TILDEN HILL RD
|
PARCEL ID: 10-042.000 SPAN: 450-142-12859
|
HOUSESITE:
695,400
ACRES:
8.82 R2 T
|GRAND LIST
7,208.00
7,208.00
-----------------------------------------------------------------------------------------------------------------------------------BARBA 2012 FAMILY TRUST
HMSTD FILED |
MUNICIPAL
HOMESTEAD
NON-RESIDENTIAL
|LAND
140,900
PO BOX 1288
|BUILDING
645,200
|TOTAL REAL
786,100
786,100
NORWICH VT 05055-1288
|SPEC EXEMPTION
0
TAX MAP:
11-194.200
|
PROP DESC: 4.81 ACRES & DWL
|
911 ADDR: 122 WILLEY HILL RD
|
PARCEL ID: 11-194.200 SPAN: 450-142-13161
|
HOUSESITE:
773,500
ACRES:
4.81 R1 T
|GRAND LIST
7,861.00
7,861.00
-----------------------------------------------------------------------------------------------------------------------------------BARBER CATHERINE WRAY
|
MUNICIPAL
HOMESTEAD
NON-RESIDENTIAL
|LAND
124,800
184 JORALEMON ST APT 12A
|BUILDING
208,100
|TOTAL REAL
332,900
332,900
BROOKLYN NY 11201
|SPEC EXEMPTION
0
TAX MAP:
20-169.000
|
PROP DESC: .18 ACRE & DWL
|
911 ADDR: 448 MAIN ST
|
PARCEL ID: 20-169.000 SPAN: 450-142-12442
|
HOUSESITE:
332,900
ACRES:
0.18 R1 NS
|GRAND LIST
3,329.00
3,329.00
-----------------------------------------------------------------------------------------------------------------------------------BARBIERO ELISABETH
HMSTD FILED |
MUNICIPAL
HOMESTEAD
NON-RESIDENTIAL
|LAND
92,800
96 LADEAU RD
|BUILDING
212,800
|TOTAL REAL
305,600
305,600
NORWICH VT 05055
|SPEC EXEMPTION
0
TAX MAP:
05-124.200
|
PROP DESC: 13.1 ACRES & DWL
|
911 ADDR: 96 LADEAU RD
|
PARCEL ID: 05-124.200 SPAN: 450-142-12141
|
HOUSESITE:
271,800
ACRES:
13.10 R2 T
|GRAND LIST
3,056.00
3,056.00
-----------------------------------------------------------------------------------------------------------------------------------BARBIERO SETH T
HMSTD FILED |
MUNICIPAL
HOMESTEAD
NON-RESIDENTIAL
|LAND
84,500
21 KENDALL STATION RD
|BUILDING
129,100
|TOTAL REAL
213,600
213,600
NORWICH VT 05055
|SPEC EXEMPTION
0
TAX MAP:
12-024.000
|
PROP DESC: 1.91 ACRES & DWL
|
911 ADDR: 21 KENDALL STATION RD
|
PARCEL ID: 12-024.000 SPAN: 450-142-12612
|
HOUSESITE:
213,600
ACRES:
1.91 R1 T
|GRAND LIST
2,136.00
2,136.00
------------------------------------------------------------------------------------------------------------------------------------
06/12/2015
01:32 pm
Town of Norwich Grand List
Grand List Report (Detail)
By Name For All Parcels In All Districts
Page 14
jbynum
PARCEL INFORMATION
TAXABLE VALUATIONS / EXEMPTIONS / CONTRACTS
-----------------------------------------------------------------------------------------------------------------------------------BARLOW DAVID R
HMSTD FILED |
MUNICIPAL
HOMESTEAD
NON-RESIDENTIAL
BARLOW KATE E
|LAND
125,000
328 TURNPIKE RD
|BUILDING
193,400
|TOTAL REAL
318,400
318,400
NORWICH VT 05055
|SPEC EXEMPTION
0
TAX MAP:
10-112.000
|
PROP DESC: 1 ACRE & DWL
|
911 ADDR: 328 TURNPIKE RD
|
PARCEL ID: 10-112.000 SPAN: 450-142-12916
|
HOUSESITE:
318,400
ACRES:
1.00 R1 T
|GRAND LIST
3,184.00
3,184.00
-----------------------------------------------------------------------------------------------------------------------------------BARN FARM II LLC
|
MUNICIPAL
HOMESTEAD
NON-RESIDENTIAL
C/O BARTLETT LEBER, REG AG
|LAND
709,200
PO BOX 442
|BUILDING
0
288 US ROUTE 5 N
|TOTAL REAL
709,200
709,200
NORWICH VT 05055
|SPEC EXEMPTION
0
TAX MAP:
11-108.000
|
PROP DESC: 5.23 ACRES
|
911 ADDR: 295 US ROUTE 5 NORTH
|
PARCEL ID: 11-108.000 SPAN: 450-142-12668
|
HOUSESITE:
0
ACRES:
5.33 M
T
|GRAND LIST
7,092.00
7,092.00
-----------------------------------------------------------------------------------------------------------------------------------BARNETT ALEXANDER
HMSTD FILED |
MUNICIPAL
HOMESTEAD
NON-RESIDENTIAL
CANNER ELIZABETH
|LAND
189,800
48 PINE TREE RD
|BUILDING
389,500
|TOTAL REAL
579,300
470,268
109,032
NORWICH VT 05055
|SPEC EXEMPTION
0
0
TAX MAP:
20-028.000
|
PROP DESC: 1.5 ACRES & DWL
|
911 ADDR: 48 PINE TREE RD
|
PARCEL ID: 20-028.000 SPAN: 450-142-12584
|
HOUSESITE:
470,268
ACRES:
1.50 R1 T
|GRAND LIST
5,793.00
4,702.68
1,090.32
-----------------------------------------------------------------------------------------------------------------------------------BARRACLOUGH NICHOLA
|
MUNICIPAL
HOMESTEAD
NON-RESIDENTIAL
BARRACLOUGH STEPHEN T
|LAND
156,300
65 BEAVER MEADOW RD
|BUILDING
543,900
|TOTAL REAL
700,200
700,200
NORWICH VT 05055
|SPEC EXEMPTION
0
TAX MAP:
20-041.000
|
PROP DESC: 2.4 ACRES & DWL
|
911 ADDR: 65 BEAVER MEADOW RD
|
PARCEL ID: 20-041.000 SPAN: 450-142-12200
|
HOUSESITE:
698,400
ACRES:
2.40 R1 T
|GRAND LIST
7,002.00
7,002.00
-----------------------------------------------------------------------------------------------------------------------------------BARRETT JAMES E JR TRUSTEE
|
MUNICIPAL
HOMESTEAD
NON-RESIDENTIAL
|LAND
140,600
10 LEDYARD LN
|BUILDING
247,400
|TOTAL REAL
388,000
388,000
HANOVER NH 03755
|SPEC EXEMPTION
0
TAX MAP:
06-056.000
|
PROP DESC: 14.09 ACRES & DWL
|
911 ADDR: 275 WATERMAN HILL RD
|
PARCEL ID: 06-056.000 SPAN: 450-142-13145
|
HOUSESITE:
349,700
ACRES:
14.09 R2 NS
|GRAND LIST
3,880.00
3,880.00
------------------------------------------------------------------------------------------------------------------------------------
06/12/2015
01:32 pm
Town of Norwich Grand List
Grand List Report (Detail)
By Name For All Parcels In All Districts
Page 15
jbynum
PARCEL INFORMATION
TAXABLE VALUATIONS / EXEMPTIONS / CONTRACTS
-----------------------------------------------------------------------------------------------------------------------------------BARRY JAMES M
|
MUNICIPAL
HOMESTEAD
NON-RESIDENTIAL
KRIVIT TAMARA
|LAND
86,300
115 RUDDSBORO RD
|BUILDING
231,000
|TOTAL REAL
317,300
317,300
ETNA NH 03750
|SPEC EXEMPTION
0
TAX MAP:
12-007.000
|
PROP DESC: 3 ACRES & DWL
|
911 ADDR: 11 HEMLOCK RD
|
PARCEL ID: 12-007.000 SPAN: 450-142-13131
|
HOUSESITE:
313,700
ACRES:
3.00 R1 NS
|GRAND LIST
3,173.00
3,173.00
-----------------------------------------------------------------------------------------------------------------------------------BARTHEL MARIANNE
HMSTD FILED |
MUNICIPAL
HOMESTEAD
NON-RESIDENTIAL
BARTHEL CURT
|LAND
130,000
137 UNION VILLAGE RD
|BUILDING
186,700
|TOTAL REAL
316,700
316,700
NORWICH VT 05055
|SPEC EXEMPTION
0
TAX MAP:
10-207.200
|
PROP DESC: 2.1 ACRES & DWL
|
911 ADDR: 137 UNION VILLAGE RD
|
PARCEL ID: 10-207.200 SPAN: 450-142-13008
|
HOUSESITE:
316,200
ACRES:
2.10 R1 T
|GRAND LIST
3,167.00
3,167.00
-----------------------------------------------------------------------------------------------------------------------------------BARTHOLOW LYDIA G
HMSTD FILED |
MUNICIPAL
HOMESTEAD
NON-RESIDENTIAL
|LAND
166,800
154 ELM ST
|BUILDING
401,600
|TOTAL REAL
568,400
568,400
NORWICH VT 05055
|SPEC EXEMPTION
0
TAX MAP:
20-272.000
|
PROP DESC: 2.5 ACRES & DWL
|
911 ADDR: 154 ELM ST
|
PARCEL ID: 20-272.000 SPAN: 450-142-11959
|
HOUSESITE:
566,100
ACRES:
2.50 R1 T
|GRAND LIST
5,684.00
5,684.00
-----------------------------------------------------------------------------------------------------------------------------------BARTLETT DAVID
|
MUNICIPAL
HOMESTEAD
NON-RESIDENTIAL
MOYER JENNIFER L
|LAND
434,400
3 ROBINSON RD #6 MIDLEVELS
|BUILDING
538,800
|TOTAL REAL
973,200
973,200
HONG KONG
CHINA
|SPEC EXEMPTION
0
TAX MAP:
09-025.100
|
PROP DESC: 78.4 ACRES & DWL
|
911 ADDR: 292 TUCKER HILL RD
|CURRENT USE
203,900
203,900
PARCEL ID: 09-025.100 SPAN: 450-142-12885
|
HOUSESITE:
758,200
ACRES:
78.40 R2 NS
|GRAND LIST
7,693.00
7,693.00
-----------------------------------------------------------------------------------------------------------------------------------BARTLETT DAVID
|
MUNICIPAL
HOMESTEAD
NON-RESIDENTIAL
MOYER JENNIFER L
|LAND
344,500
3 ROBINSON RD #6 MIDLEVELS
|BUILDING
318,000
|TOTAL REAL
662,500
662,500
HONG KONG
CHINA
|SPEC EXEMPTION
0
TAX MAP:
20-183.000
|
PROP DESC: 5.1 ACRES & DWL/APT & ADDL LOT
|
911 ADDR: 59 CARPENTER ST
|
PARCEL ID: 20-183.000 SPAN: 450-142-11794
|
HOUSESITE:
497,100
ACRES:
5.06 R1 NS
|GRAND LIST
6,625.00
6,625.00
------------------------------------------------------------------------------------------------------------------------------------
06/12/2015
01:32 pm
Town of Norwich Grand List
Grand List Report (Detail)
By Name For All Parcels In All Districts
Page 16
jbynum
PARCEL INFORMATION
TAXABLE VALUATIONS / EXEMPTIONS / CONTRACTS
-----------------------------------------------------------------------------------------------------------------------------------BARTLETT FAMILY LLC
|
MUNICIPAL
HOMESTEAD
NON-RESIDENTIAL
|LAND
134,600
PO BOX 217
|BUILDING
246,600
|TOTAL REAL
381,200
381,200
SOUTH STRAFFORD VT 05070
|SPEC EXEMPTION
0
TAX MAP:
20-299.000
|
PROP DESC: 0.34 ACRE & DWL/APT
|
911 ADDR: 17 ELM ST
|
PARCEL ID: 20-299.000 SPAN: 450-142-11938
|
HOUSESITE:
381,200
ACRES:
0.34 R1 S
|GRAND LIST
3,812.00
3,812.00
-----------------------------------------------------------------------------------------------------------------------------------BARTLETT JAMES N
|
MUNICIPAL
HOMESTEAD
NON-RESIDENTIAL
BARTLETT JULIE W
|LAND
132,200
111 GROZIER RD
|BUILDING
483,700
|TOTAL REAL
615,900
615,900
CAMBRIDGE MA 02138
|SPEC EXEMPTION
0
TAX MAP:
10-212.100
|
PROP DESC: 2.59 ACRES & DWL
|
911 ADDR: 62 UNION VILLAGE RD
|
PARCEL ID: 10-212.100 SPAN: 450-142-13150
|
HOUSESITE:
613,200
ACRES:
2.59 R1 NS
|GRAND LIST
6,159.00
6,159.00
-----------------------------------------------------------------------------------------------------------------------------------BARTON PHILIP
|
MUNICIPAL
HOMESTEAD
NON-RESIDENTIAL
BARTON CELINA M
|LAND
152,500
134 GOODRICH FOUR CORNERS RD
|BUILDING
573,500
|TOTAL REAL
726,000
726,000
NORWICH VT 05055
|SPEC EXEMPTION
0
TAX MAP:
11-093.100
|
PROP DESC: 12.74 ACRES AND HOUSE
|
911 ADDR: 134 GOODRICH FOUR CORNERS RD
|
PARCEL ID: 11-093.100 SPAN: 450-142-11989
|
HOUSESITE:
488,675
ACRES:
12.74 R2 T
|GRAND LIST
7,260.00
7,260.00
-----------------------------------------------------------------------------------------------------------------------------------BATSON ANNA LUISE
HMSTD FILED |
MUNICIPAL
HOMESTEAD
NON-RESIDENTIAL
|LAND
124,600
1505 UNION VILLAGE RD
|BUILDING
230,100
|TOTAL REAL
354,700
354,700
NORWICH VT 05055
|SPEC EXEMPTION
0
TAX MAP:
05-085.000
|
PROP DESC: 9 ACRES & DWL
|
911 ADDR: 1505 UNION VILLAGE RD
|
PARCEL ID: 05-085.000 SPAN: 450-142-13071
|
HOUSESITE:
328,800
ACRES:
9.00 R2 T
|GRAND LIST
3,547.00
3,547.00
-----------------------------------------------------------------------------------------------------------------------------------BAUER KENNETH M
|
MUNICIPAL
HOMESTEAD
NON-RESIDENTIAL
CRAIG SIENNA R
|LAND
70,000
95 STOWELL RD
|BUILDING
258,200
|TOTAL REAL
328,200
328,200
NORWICH VT 05055
|SPEC EXEMPTION
0
TAX MAP:
05-034.100
|
PROP DESC: 1.3 ACRES & DWL
|
911 ADDR: 95 STOWELL RD
|
PARCEL ID: 05-034.100 SPAN: 450-142-12408
|
HOUSESITE:
328,200
ACRES:
1.30 R1 T
|GRAND LIST
3,282.00
3,282.00
------------------------------------------------------------------------------------------------------------------------------------
06/12/2015
01:32 pm
Town of Norwich Grand List
Grand List Report (Detail)
By Name For All Parcels In All Districts
Page 17
jbynum
PARCEL INFORMATION
TAXABLE VALUATIONS / EXEMPTIONS / CONTRACTS
-----------------------------------------------------------------------------------------------------------------------------------BAUM ROBERT M
|
MUNICIPAL
HOMESTEAD
NON-RESIDENTIAL
BAUM MARGARET A
|LAND
127,300
66 MCKENNA ROAD
|BUILDING
311,100
|TOTAL REAL
438,400
438,400
NORWICH VT 05055
|SPEC EXEMPTION
0
TAX MAP:
16-073.000
|
PROP DESC: 1.5 ACRES & DWL
|
911 ADDR: 66 MCKENNA RD
|
PARCEL ID: 16-073.000 SPAN: 450-142-12184
|
HOUSESITE:
438,400
ACRES:
1.50 R1 T
|GRAND LIST
4,384.00
4,384.00
-----------------------------------------------------------------------------------------------------------------------------------BAUMAN ANDREW J
HMSTD FILED |
MUNICIPAL
HOMESTEAD
NON-RESIDENTIAL
|LAND
315,800
221 NEWTON LN
|BUILDING
787,000
|TOTAL REAL
1102,800
1102,800
WHITE RIVER JUNCTION VT 05001
|SPEC EXEMPTION
0
TAX MAP:
15-037.000
|
PROP DESC: 100 ACRES & DWL
|
911 ADDR: 221 NEWTON LN
|CURRENT USE
204,100
204,100
PARCEL ID: 15-037.000 SPAN: 450-142-12792
|
HOUSESITE:
886,100
ACRES:
100.00 R2 T
|GRAND LIST
8,987.00
8,987.00
-----------------------------------------------------------------------------------------------------------------------------------BEAM RENEE TRUSTEE
|
MUNICIPAL
HOMESTEAD
NON-RESIDENTIAL
|LAND
172,900
159 EAST WALTON, APT 11F
|BUILDING
0
|TOTAL REAL
172,900
172,900
CHICAGO IL 60611
|SPEC EXEMPTION
0
TAX MAP:
04-020.400
|
PROP DESC: 10.99 ACRES
|
911 ADDR: BIRCH HILL LN
|
PARCEL ID: 04-020.400 SPAN: 450-142-12987
|
HOUSESITE:
0
ACRES:
10.99 M
NS
|GRAND LIST
1,729.00
1,729.00
-----------------------------------------------------------------------------------------------------------------------------------BEAN PHILIP
HMSTD FILED |
MUNICIPAL
HOMESTEAD
NON-RESIDENTIAL
|LAND
143,600
PO BOX 809
|BUILDING
434,600
|TOTAL REAL
578,200
578,200
NORWICH VT 05055
|SPEC EXEMPTION
0
TAX MAP:
05-074.100
|
PROP DESC: 14.8 ACRES & DWL
|
911 ADDR: 11 SHILOH LN
|
PARCEL ID: 05-074.100 SPAN: 450-142-13349
|
HOUSESITE:
535,900
ACRES:
14.80 R2 T
|GRAND LIST
5,782.00
5,782.00
-----------------------------------------------------------------------------------------------------------------------------------BEAUPRE ANGELA
HMSTD FILED |
MUNICIPAL
HOMESTEAD
NON-RESIDENTIAL
|LAND
57,200
PO BOX 576
|BUILDING
29,500
|TOTAL REAL
86,700
86,700
NORWICH VT 05055-0576
|SPEC EXEMPTION
0
TAX MAP:
03-023.000
|
PROP DESC: .6 ACRE & DOUBLE WIDE MH
|
911 ADDR: 2 MITCHELL BROOK RD
|
PARCEL ID: 03-023.000 SPAN: 450-142-12255
|
HOUSESITE:
86,700
ACRES:
0.60 MHL T
|GRAND LIST
867.00
867.00
------------------------------------------------------------------------------------------------------------------------------------
06/12/2015
01:32 pm
Town of Norwich Grand List
Grand List Report (Detail)
By Name For All Parcels In All Districts
Page 18
jbynum
PARCEL INFORMATION
TAXABLE VALUATIONS / EXEMPTIONS / CONTRACTS
-----------------------------------------------------------------------------------------------------------------------------------BEAVER MEADOW CHAPEL ASSOC
|
MUNICIPAL
HOMESTEAD
NON-RESIDENTIAL
C/O R ROYCE
|LAND
54,700
71 CHAPEL HILL RD
|BUILDING
69,700
|TOTAL REAL
124,400
124,400
NORWICH VT 05055
|SPEC EXEMPTION
0
TAX MAP:
03-052.000
|
PROP DESC: 0.4 ACRES & MEETING HOUSE; VOTED EXEMPT
|
911 ADDR: 246 CHAPEL HILL RD
|
PARCEL ID: 03-052.000 SPAN: 450-142-11804
|CONTRACTS
124,400
124,400
HOUSESITE:
0
ACRES:
0.40 C
C
|GRAND LIST
0.00
0.00
-----------------------------------------------------------------------------------------------------------------------------------BECK TIMOTHY TRUSTEE
|
MUNICIPAL
HOMESTEAD
NON-RESIDENTIAL
BECK WENDE TRUSTEE
|LAND
219,900
P O BOX 1378
|BUILDING
557,700
|TOTAL REAL
777,600
777,600
EAGLE CO 81631
|SPEC EXEMPTION
0
TAX MAP:
06-012.000
|
PROP DESC: 26 ACRES & DWL
|
911 ADDR: 304 VT ROUTE 132
|
PARCEL ID: 06-012.000 SPAN: 450-142-12770
|
HOUSESITE:
548,000
ACRES:
26.00 R2 NS
|GRAND LIST
7,776.00
7,776.00
-----------------------------------------------------------------------------------------------------------------------------------BECKER H BIRKETT
|
MUNICIPAL
HOMESTEAD
NON-RESIDENTIAL
|LAND
144,900
PO BOX 10032
|BUILDING
42,600
|TOTAL REAL
187,500
187,500
MANASSAS VA 20108
|SPEC EXEMPTION
0
TAX MAP:
10-109.200
|
PROP DESC: 15.32 ACRES & CABIN
|
911 ADDR: 440 TURNPIKE RD
|
PARCEL ID: 10-109.200 SPAN: 450-142-13276
|
HOUSESITE:
152,500
ACRES:
15.32 R2 NS
|GRAND LIST
1,875.00
1,875.00
-----------------------------------------------------------------------------------------------------------------------------------BELIS LINDA J
|
MUNICIPAL
HOMESTEAD
NON-RESIDENTIAL
BELIS ALEXIS M
|LAND
172,500
684 HEIDEN DR
|BUILDING
0
|TOTAL REAL
172,500
172,500
HUMMELSTOWN PA 17036
|SPEC EXEMPTION
0
TAX MAP:
15-028.000
|
PROP DESC: 9.1 ACRES
|
911 ADDR: BRAGG HILL RD
|
PARCEL ID: 15-028.000 SPAN: 450-142-11670
|
HOUSESITE:
0
ACRES:
9.10 M
NS
|GRAND LIST
1,725.00
1,725.00
-----------------------------------------------------------------------------------------------------------------------------------BENDER WILLIAM H
HMSTD FILED |
MUNICIPAL
HOMESTEAD
NON-RESIDENTIAL
BENDER MARY PLUNKETT KELLIHER
|LAND
203,000
1190 TURNPIKE RD
|BUILDING
311,300
|TOTAL REAL
514,300
514,300
NORWICH VT 05055
|SPEC EXEMPTION
0
TAX MAP:
04-032.200
|
PROP DESC: 27.12 ACRES & DWL
|
911 ADDR: 1190 TURNPIKE RD
|CURRENT USE
72,700
72,700
PARCEL ID: 04-032.200 SPAN: 450-142-12963
|
HOUSESITE:
438,100
ACRES:
27.12 R2 T
|GRAND LIST
4,416.00
4,416.00
------------------------------------------------------------------------------------------------------------------------------------
06/12/2015
01:32 pm
Town of Norwich Grand List
Grand List Report (Detail)
By Name For All Parcels In All Districts
Page 19
jbynum
PARCEL INFORMATION
TAXABLE VALUATIONS / EXEMPTIONS / CONTRACTS
-----------------------------------------------------------------------------------------------------------------------------------BENDER WILLIAM H
|
MUNICIPAL
HOMESTEAD
NON-RESIDENTIAL
BENDER MARY PLUNKETT KELLIHER
|LAND
144,100
1190 TURNPIKE RD
|BUILDING
0
|TOTAL REAL
144,100
144,100
NORWICH VT 05055
|SPEC EXEMPTION
0
TAX MAP:
04-032.420
|
PROP DESC: 10.10 ACRES
|
911 ADDR: TURNPIKE RD
|
PARCEL ID: 04-032.420 SPAN: 450-142-12962
|
HOUSESITE:
0
ACRES:
10.10 M
T
|GRAND LIST
1,441.00
1,441.00
-----------------------------------------------------------------------------------------------------------------------------------BENDER WILLIAM H
|
MUNICIPAL
HOMESTEAD
NON-RESIDENTIAL
|LAND
0
1190 TURNPIKE RD
|BUILDING
136,600
|TOTAL REAL
136,600
136,600
NORWICH VT 05055
|SPEC EXEMPTION
0
TAX MAP:
20-214.040
|
PROP DESC: 1820 HOUSE UNIT 4
|
911 ADDR: 326 MAIN ST 4
|
PARCEL ID: 20-214.040 SPAN: 450-142-12456
|
HOUSESITE:
0
ACRES:
0.00 C
T
|GRAND LIST
1,366.00
1,366.00
-----------------------------------------------------------------------------------------------------------------------------------BENJAMIN DANIEL S
|
MUNICIPAL
HOMESTEAD
NON-RESIDENTIAL
FROWEIN HENRIKE
|LAND
159,100
410 MAIN ST
|BUILDING
364,900
|TOTAL REAL
524,000
524,000
NORWICH VT 05055
|SPEC EXEMPTION
0
TAX MAP:
20-199.000
|
PROP DESC: .74 ACRE & DWL
|
911 ADDR: 410 MAIN ST
|
PARCEL ID: 20-199.000 SPAN: 450-142-12435
|
HOUSESITE:
524,000
ACRES:
0.74 R1 T
|GRAND LIST
5,240.00
5,240.00
-----------------------------------------------------------------------------------------------------------------------------------BENSEN STEVEN P
HMSTD FILED |
MUNICIPAL
HOMESTEAD
NON-RESIDENTIAL
BENSEN CYNTHIA ANNE
|LAND
147,200
69 PATRELL RD
|BUILDING
405,700
|TOTAL REAL
552,900
552,900
NORWICH VT 05055
|SPEC EXEMPTION
0
TAX MAP:
11-054.000
|
PROP DESC: 10.2 ACRES & DWL/APT
|
911 ADDR: 69 PATTRELL RD
|
PARCEL ID: 11-054.000 SPAN: 450-142-12498
|
HOUSESITE:
526,500
ACRES:
10.20 R2 T
|GRAND LIST
5,529.00
5,529.00
-----------------------------------------------------------------------------------------------------------------------------------BENSON HEATHER P
HMSTD FILED |
MUNICIPAL
HOMESTEAD
NON-RESIDENTIAL
BENSON REVOCABLE TRUST HEATHER P
|LAND
134,700
PO BOX 123
|BUILDING
406,700
|TOTAL REAL
541,400
541,400
NORWICH VT 05055-0123
|SPEC EXEMPTION
0
TAX MAP:
16-024.100
|
PROP DESC: 13.3 ACRES & DWL
|
911 ADDR: 8 SPUR LN
|
PARCEL ID: 16-024.100 SPAN: 450-142-11972
|
HOUSESITE:
503,200
ACRES:
13.30 R2 T
|GRAND LIST
5,414.00
5,414.00
------------------------------------------------------------------------------------------------------------------------------------
06/12/2015
01:32 pm
Town of Norwich Grand List
Grand List Report (Detail)
By Name For All Parcels In All Districts
Page 20
jbynum
PARCEL INFORMATION
TAXABLE VALUATIONS / EXEMPTIONS / CONTRACTS
-----------------------------------------------------------------------------------------------------------------------------------BERGER DAN
|
MUNICIPAL
HOMESTEAD
NON-RESIDENTIAL
KATZ LAURA
|LAND
122,500
106 VERNON STREET
|BUILDING
424,700
|TOTAL REAL
547,200
547,200
NORTHAMPTON MA 01060
|SPEC EXEMPTION
0
TAX MAP:
20-233.000
|
PROP DESC: 0.6 ACRE & DWL
|
911 ADDR: 23 CHURCH ST
|
PARCEL ID: 20-233.000 SPAN: 450-142-11843
|
HOUSESITE:
547,200
ACRES:
0.60 R1 NS
|GRAND LIST
5,472.00
5,472.00
-----------------------------------------------------------------------------------------------------------------------------------BERGERON ALBANI
HMSTD FILED |
MUNICIPAL
HOMESTEAD
NON-RESIDENTIAL
|LAND
55,600
39 KENDALL STATION RD
|BUILDING
72,800
|TOTAL REAL
128,400
128,400
NORWICH VT 05055
|SPEC EXEMPTION
0
TAX MAP:
12-025.000
|
PROP DESC: .48 ACRE & DWL
|
911 ADDR: 39 KENDALL STATION RD
|
PARCEL ID: 12-025.000 SPAN: 450-142-12614
|
HOUSESITE:
128,400
ACRES:
0.48 R1 T
|GRAND LIST
1,284.00
1,284.00
-----------------------------------------------------------------------------------------------------------------------------------BERGERON PAULINE ESTATE OF
HMSTD FILED |
MUNICIPAL
HOMESTEAD
NON-RESIDENTIAL
|LAND
168,000
56 KENDALL STATION RD
|BUILDING
78,900
|TOTAL REAL
246,900
246,900
NORWICH VT 05055
|SPEC EXEMPTION
0
TAX MAP:
12-032.000
|
PROP DESC: .52 ACRE & DWL
|
911 ADDR: 56 KENDALL STATION RD
|
PARCEL ID: 12-032.000 SPAN: 450-142-12619
|
HOUSESITE:
246,900
ACRES:
0.52 R1 T
|GRAND LIST
2,469.00
2,469.00
-----------------------------------------------------------------------------------------------------------------------------------BERGREN WENDY TRUSTEE
HMSTD FILED |
MUNICIPAL
HOMESTEAD
NON-RESIDENTIAL
BERGREN REVOCABLE TRUST WENDY
|LAND
104,000
PO BOX 1014
|BUILDING
229,700
|TOTAL REAL
333,700
333,700
NORWICH VT 05055-1014
|SPEC EXEMPTION
0
TAX MAP:
20-082.000
|
PROP DESC: .52 ACRE & DWL
|
911 ADDR: 96 HUNTLEY ST
|
PARCEL ID: 20-082.000 SPAN: 450-142-12099
|
HOUSESITE:
333,700
ACRES:
0.52 R1 T
|GRAND LIST
3,337.00
3,337.00
-----------------------------------------------------------------------------------------------------------------------------------BERLINER ALICE
|
MUNICIPAL
HOMESTEAD
NON-RESIDENTIAL
C/O KISH CONSULTING
|LAND
95,400
8 CURRIER PLACE
|BUILDING
162,800
|TOTAL REAL
258,200
258,200
HANOVER NH 03755
|SPEC EXEMPTION
0
TAX MAP:
16-055.000
|
PROP DESC: 1.2 ACRES & DWL
|
911 ADDR: 172 CHURCH ST
|
PARCEL ID: 16-055.000 SPAN: 450-142-11868
|
HOUSESITE:
258,200
ACRES:
1.20 R1 T
|GRAND LIST
2,582.00
2,582.00
------------------------------------------------------------------------------------------------------------------------------------
06/12/2015
01:32 pm
Town of Norwich Grand List
Grand List Report (Detail)
By Name For All Parcels In All Districts
Page 21
jbynum
PARCEL INFORMATION
TAXABLE VALUATIONS / EXEMPTIONS / CONTRACTS
-----------------------------------------------------------------------------------------------------------------------------------BERNAL EUGENE J
HMSTD FILED |
MUNICIPAL
HOMESTEAD
NON-RESIDENTIAL
BERNAL DEBORAH E
|LAND
127,800
359 HAWK PINE RD
|BUILDING
602,100
|TOTAL REAL
729,900
729,900
NORWICH VT 05055
|SPEC EXEMPTION
0
TAX MAP:
16-157.000
|
PROP DESC: 1.9 ACRES & DWL
|
911 ADDR: 359 HAWK PINE RD
|
PARCEL ID: 16-157.000 SPAN: 450-142-12558
|
HOUSESITE:
729,900
ACRES:
1.90 R1 T
|GRAND LIST
7,299.00
7,299.00
-----------------------------------------------------------------------------------------------------------------------------------BERNAT JAMES L
HMSTD FILED |
MUNICIPAL
HOMESTEAD
NON-RESIDENTIAL
BERNAT JUDITH EL
|LAND
139,300
48 OLD FARM RD
|BUILDING
483,100
|TOTAL REAL
622,400
622,400
NORWICH VT 05055
|SPEC EXEMPTION
0
TAX MAP:
10-126.000
|
PROP DESC: 2 ACRES & DWL
|
911 ADDR: 48 OLD FARM RD
|
PARCEL ID: 10-126.000 SPAN: 450-142-11893
|
HOUSESITE:
622,400
ACRES:
2.00 R1 T
|GRAND LIST
6,224.00
6,224.00
-----------------------------------------------------------------------------------------------------------------------------------BERRY REALTY TRUST CRR
|
MUNICIPAL
HOMESTEAD
NON-RESIDENTIAL
C/O PHYLLIS HUMEZ
|LAND
199,400
PO BOX 497
|BUILDING
101,300
|TOTAL REAL
300,700
300,700
BROOKFIELD VT 05036-0497
|SPEC EXEMPTION
0
TAX MAP:
03-035.000
|
PROP DESC: 58.0 ACRES & DWL
|
911 ADDR: 380 CHAPEL HILL RD
|CURRENT USE
120,000
120,000
PARCEL ID: 03-035.000 SPAN: 450-142-11809
|
HOUSESITE:
173,500
ACRES:
58.00 R2 S
|GRAND LIST
1,807.00
1,807.00
-----------------------------------------------------------------------------------------------------------------------------------BERRY RICHARD A
HMSTD FILED |
MUNICIPAL
HOMESTEAD
NON-RESIDENTIAL
BERRY CORAL I
|LAND
69,900
BOX 105
|BUILDING
82,500
|TOTAL REAL
152,400
152,400
WEST HARTFORD VT 05084-0105
|SPEC EXEMPTION
0
TAX MAP:
08-007.000
|
PROP DESC: 3.6 ACRES & DWL
|
911 ADDR: 745 TIGERTOWN RD
|
PARCEL ID: 08-007.000 SPAN: 450-142-12842
|
HOUSESITE:
145,900
ACRES:
3.60 R1 T
|GRAND LIST
1,524.00
1,524.00
-----------------------------------------------------------------------------------------------------------------------------------BERTHOLD CHRISTOF
HMSTD FILED |
MUNICIPAL
HOMESTEAD
NON-RESIDENTIAL
AVILA MICHELLE L
|LAND
156,700
P.O. BOX 751
|BUILDING
844,200
|TOTAL REAL
1000,900
1000,900
NORWICH VT 05055
|SPEC EXEMPTION
0
TAX MAP:
11-050.150
|
PROP DESC: 11.95 ACRES & DWL
|
911 ADDR: 833 UNION VILLAGE RD
|
PARCEL ID: 11-050.150 SPAN: 450-142-13202
|
HOUSESITE:
966,500
ACRES:
11.95 R2 T
|GRAND LIST
10,009.00
10,009.00
------------------------------------------------------------------------------------------------------------------------------------
06/12/2015
01:32 pm
Town of Norwich Grand List
Grand List Report (Detail)
By Name For All Parcels In All Districts
Page 22
jbynum
PARCEL INFORMATION
TAXABLE VALUATIONS / EXEMPTIONS / CONTRACTS
-----------------------------------------------------------------------------------------------------------------------------------BETTIGOLE RICHARD P
HMSTD FILED |
MUNICIPAL
HOMESTEAD
NON-RESIDENTIAL
BETTIGOLE ARLENE S
|LAND
33,300
1427 JERICHO ST
|BUILDING
0
|TOTAL REAL
33,300
0
33,300
WHITE RIVER JUNCTION VT 05001
|SPEC EXEMPTION
0
TAX MAP:
15-001.000
|
PROP DESC: REAR LOT 9.01 ACRES
|
911 ADDR: NEWTON LN
|CURRENT USE
32,100
32,100
PARCEL ID: 15-001.000 SPAN: 450-142-12800
|
HOUSESITE:
0
ACRES:
9.01 M
S
|GRAND LIST
12.00
12.00
-----------------------------------------------------------------------------------------------------------------------------------BHUTTA OMAR J
HMSTD FILED |
MUNICIPAL
HOMESTEAD
NON-RESIDENTIAL
BALDINI LINDSAY A
|LAND
155,800
46 DOUGLAS LN
|BUILDING
523,800
|TOTAL REAL
679,600
679,600
NORWICH VT 05055
|SPEC EXEMPTION
0
TAX MAP:
10-133.200
|
PROP DESC: 10.3 ACRES & DWL
|
911 ADDR: 46 DOUGLAS LN
|
PARCEL ID: 10-133.200 SPAN: 450-142-11911
|
HOUSESITE:
649,900
ACRES:
10.30 R2 T
|GRAND LIST
6,796.00
6,796.00
-----------------------------------------------------------------------------------------------------------------------------------BIBEAU DAVID A
HMSTD FILED |
MUNICIPAL
HOMESTEAD
NON-RESIDENTIAL
BIBEAU CAROLE E.
|LAND
111,400
21 HUNTLEY ST
|BUILDING
239,000
|TOTAL REAL
350,400
350,400
NORWICH VT 05055
|SPEC EXEMPTION
0
TAX MAP:
20-100.000
|
PROP DESC: .69 ACRE & DWL
|
911 ADDR: 21 HUNTLEY ST
|
PARCEL ID: 20-100.000 SPAN: 450-142-12084
|
HOUSESITE:
350,400
ACRES:
0.69 R1 T
|GRAND LIST
3,504.00
3,504.00
-----------------------------------------------------------------------------------------------------------------------------------BIGGS MARSHA H
HMSTD FILED |
MUNICIPAL
HOMESTEAD
NON-RESIDENTIAL
|LAND
128,000
PO BOX 206
|BUILDING
278,400
|TOTAL REAL
406,400
406,400
NORWICH VT 05055-0206
|SPEC EXEMPTION
0
TAX MAP:
20-236.000
|
PROP DESC: .58 ACRE & DWL
|
911 ADDR: 39 CHURCH ST
|
PARCEL ID: 20-236.000 SPAN: 450-142-11847
|
HOUSESITE:
406,400
ACRES:
0.58 R1 T
|GRAND LIST
4,064.00
4,064.00
-----------------------------------------------------------------------------------------------------------------------------------BIGGS MELVIN L
|
MUNICIPAL
HOMESTEAD
NON-RESIDENTIAL
BIGGS MARSHA H
|LAND
104,000
PO BOX 206
|BUILDING
0
|TOTAL REAL
104,000
104,000
NORWICH VT 05055-0206
|SPEC EXEMPTION
0
TAX MAP:
11-047.000
|
PROP DESC: 5.7 ACRES
|
911 ADDR: UNION VILLAGE RD
|
PARCEL ID: 11-047.000 SPAN: 450-142-13028
|
HOUSESITE:
0
ACRES:
5.70 M
T
|GRAND LIST
1,040.00
1,040.00
------------------------------------------------------------------------------------------------------------------------------------
06/12/2015
01:32 pm
Town of Norwich Grand List
Grand List Report (Detail)
By Name For All Parcels In All Districts
Page 23
jbynum
PARCEL INFORMATION
TAXABLE VALUATIONS / EXEMPTIONS / CONTRACTS
-----------------------------------------------------------------------------------------------------------------------------------BIGGS SARAH
HMSTD FILED |
MUNICIPAL
HOMESTEAD
NON-RESIDENTIAL
|LAND
68,500
PO BOX 206
|BUILDING
179,500
|TOTAL REAL
248,000
248,000
NORWICH VT 05055
|SPEC EXEMPTION
0
TAX MAP:
05-010.000
|
PROP DESC: .59 ACRES & DWL
|
911 ADDR: 1189 NEW BOSTON RD
|
PARCEL ID: 05-010.000 SPAN: 450-142-12356
|
HOUSESITE:
248,000
ACRES:
0.59 R1 T
|GRAND LIST
2,480.00
2,480.00
-----------------------------------------------------------------------------------------------------------------------------------BIPPART VICTORIA
|
MUNICIPAL
HOMESTEAD
NON-RESIDENTIAL
|LAND
146,200
P O BOX 304
|BUILDING
323,500
|TOTAL REAL
469,700
469,700
NORWICH VT 05055
|SPEC EXEMPTION
0
TAX MAP:
20-213.000
|
PROP DESC: .53 ACRE & DWL
|
911 ADDR: 332 MAIN ST
|
PARCEL ID: 20-213.000 SPAN: 450-142-12411
|
HOUSESITE:
469,700
ACRES:
0.53 R1 T
|GRAND LIST
4,697.00
4,697.00
-----------------------------------------------------------------------------------------------------------------------------------BIPPART VICTORIA
HMSTD FILED |
MUNICIPAL
HOMESTEAD
NON-RESIDENTIAL
|LAND
187,600
P O BOX 304
|BUILDING
575,300
|TOTAL REAL
762,900
535,800
227,100
NORWICH VT 05055
|SPEC EXEMPTION
0
0
TAX MAP:
20-303.000
|
PROP DESC: 3.8 ACRES & 2 DWL
|
911 ADDR: 47 ELM ST
|
PARCEL ID: 20-303.000 SPAN: 450-142-11947
|
HOUSESITE:
527,700
ACRES:
3.80 R1 T
|GRAND LIST
7,629.00
5,358.00
2,271.00
-----------------------------------------------------------------------------------------------------------------------------------BIRDT STUART J
|
MUNICIPAL
HOMESTEAD
NON-RESIDENTIAL
|LAND
164,700
1172 PARK AV
|BUILDING
0
|TOTAL REAL
164,700
164,700
NEW YORK NY 10128
|SPEC EXEMPTION
0
TAX MAP:
04-067.000
|
PROP DESC: 37.74 ACRES
|
911 ADDR: NEW BOSTON RD
|
PARCEL ID: 04-067.000 SPAN: 450-142-12377
|
HOUSESITE:
0
ACRES:
37.74 M
NS
|GRAND LIST
1,647.00
1,647.00
-----------------------------------------------------------------------------------------------------------------------------------BIRENBAUM DEBRA L.
HMSTD FILED |
MUNICIPAL
HOMESTEAD
NON-RESIDENTIAL
|LAND
129,000
133 BRADLEY HILL RD
|BUILDING
277,700
|TOTAL REAL
406,700
406,700
NORWICH VT 05055
|SPEC EXEMPTION
0
TAX MAP:
11-032.200
|
PROP DESC: 2.31 ACRES & DWL
|
911 ADDR: 133 BRADLEY HILL RD
|
PARCEL ID: 11-032.200 SPAN: 450-142-11637
|
HOUSESITE:
406,000
ACRES:
2.31 R1 T
|GRAND LIST
4,067.00
4,067.00
------------------------------------------------------------------------------------------------------------------------------------
06/12/2015
01:32 pm
Town of Norwich Grand List
Grand List Report (Detail)
By Name For All Parcels In All Districts
Page 24
jbynum
PARCEL INFORMATION
TAXABLE VALUATIONS / EXEMPTIONS / CONTRACTS
-----------------------------------------------------------------------------------------------------------------------------------BLACKMORE LARS P
HMSTD FILED |
MUNICIPAL
HOMESTEAD
NON-RESIDENTIAL
ADAMS LISA V
|LAND
121,100
37 TURNPIKE RD
|BUILDING
307,400
|TOTAL REAL
428,500
428,500
NORWICH VT 05055
|SPEC EXEMPTION
0
TAX MAP:
20-142.000
|
PROP DESC: .45 ACRE & DWL
|
911 ADDR: 37 TURNPIKE RD
|
PARCEL ID: 20-142.000 SPAN: 450-142-12891
|
HOUSESITE:
428,500
ACRES:
0.45 R1 T
|GRAND LIST
4,285.00
4,285.00
-----------------------------------------------------------------------------------------------------------------------------------BLAKE ELLEN F
HMSTD FILED |
MUNICIPAL
HOMESTEAD
NON-RESIDENTIAL
|LAND
181,700
PO BOX 49
|BUILDING
174,000
|TOTAL REAL
355,700
355,700
NORWICH VT 05055-0049
|SPEC EXEMPTION
0
TAX MAP:
06-070.000
|
PROP DESC: .85 ACRE & DWL
|
911 ADDR: 176 KENDALL STATION RD
|
PARCEL ID: 06-070.000 SPAN: 450-142-12628
|
HOUSESITE:
355,700
ACRES:
0.85 R1 T
|GRAND LIST
3,557.00
3,557.00
-----------------------------------------------------------------------------------------------------------------------------------BLANCHARD ERIC CUTLER TRUSTEE
HMSTD FILED |
MUNICIPAL
HOMESTEAD
NON-RESIDENTIAL
ERIC CUTLER BLANCHARD TRUST
|LAND
128,300
PO BOX 1021
|BUILDING
258,500
|TOTAL REAL
386,800
386,800
NORWICH VT 05055-1021
|SPEC EXEMPTION
0
TAX MAP:
15-056.000
|
PROP DESC: 2 ACRES & DWL
|
911 ADDR: 1 HOPSON LN
|
PARCEL ID: 15-056.000 SPAN: 450-142-12078
|
HOUSESITE:
386,800
ACRES:
2.00 R1 T
|GRAND LIST
3,868.00
3,868.00
-----------------------------------------------------------------------------------------------------------------------------------BLEEKS JUDITH A
HMSTD FILED |
MUNICIPAL
HOMESTEAD
NON-RESIDENTIAL
PURCIELLO ELIZABETH M
|LAND
83,600
128 CHAPEL HILL RD
|BUILDING
177,000
|TOTAL REAL
260,600
260,600
NORWICH VT 05055
|SPEC EXEMPTION
0
TAX MAP:
09-031.100
|
PROP DESC: 4.17 ACRES & DWL
|
911 ADDR: 128 CHAPEL HILL RD
|
PARCEL ID: 09-031.100 SPAN: 450-142-11829
|
HOUSESITE:
250,800
ACRES:
4.17 R1 T
|GRAND LIST
2,606.00
2,606.00
-----------------------------------------------------------------------------------------------------------------------------------BLOCK CLAY
HMSTD FILED |
MUNICIPAL
HOMESTEAD
NON-RESIDENTIAL
BRACK VIRGINIA
|LAND
117,500
1 CLIFF STREET
|BUILDING
385,200
|TOTAL REAL
502,700
502,700
NORWICH VT 05055
|SPEC EXEMPTION
0
TAX MAP:
20-174.000
|
PROP DESC: 0.38 ACRE & DWL
|
911 ADDR: 1 CLIFF ST
|
PARCEL ID: 20-174.000 SPAN: 450-142-11874
|
HOUSESITE:
502,700
ACRES:
0.38 R1 T
|GRAND LIST
5,027.00
5,027.00
------------------------------------------------------------------------------------------------------------------------------------
06/12/2015
01:32 pm
Town of Norwich Grand List
Grand List Report (Detail)
By Name For All Parcels In All Districts
Page 25
jbynum
PARCEL INFORMATION
TAXABLE VALUATIONS / EXEMPTIONS / CONTRACTS
-----------------------------------------------------------------------------------------------------------------------------------BLUM ELIZABETH
HMSTD FILED |
MUNICIPAL
HOMESTEAD
NON-RESIDENTIAL
KASFIR NELSON
|LAND
136,400
48 CLIFF ST
|BUILDING
284,500
|TOTAL REAL
420,900
420,900
NORWICH VT 05055
|SPEC EXEMPTION
0
TAX MAP:
20-183.010
|
PROP DESC: 0.74 ACRE & DWL
|
911 ADDR: 48 CLIFF ST
|
PARCEL ID: 20-183.010 SPAN: 450-142-11883
|
HOUSESITE:
420,900
ACRES:
0.74 R1 T
|GRAND LIST
4,209.00
4,209.00
-----------------------------------------------------------------------------------------------------------------------------------BODGE RONALD A
|
MUNICIPAL
HOMESTEAD
NON-RESIDENTIAL
BODGE CAROL M
|LAND
134,600
PO BOX 91
|BUILDING
199,700
|TOTAL REAL
334,300
334,300
PLAINFIELD NH 03781
|SPEC EXEMPTION
0
TAX MAP:
10-096.200
|
PROP DESC: 3.13 ACRES AND HOUSE
|
911 ADDR: 27 UPPER TURNPIKE RD
|
PARCEL ID: 10-096.200 SPAN: 450-142-13311
|
HOUSESITE:
334,300
ACRES:
3.13 R1 NS
|GRAND LIST
3,343.00
3,343.00
-----------------------------------------------------------------------------------------------------------------------------------BOETTIGER DEBORAH B
HMSTD FILED |
MUNICIPAL
HOMESTEAD
NON-RESIDENTIAL
|LAND
114,800
PO BOX 237
|BUILDING
152,800
|TOTAL REAL
267,600
267,600
NORWICH VT 05055-0237
|SPEC EXEMPTION
0
TAX MAP:
20-177.000
|
PROP DESC: 0.33 ACRE & DWL
|
911 ADDR: 31 CLIFF ST
|
PARCEL ID: 20-177.000 SPAN: 450-142-11880
|
HOUSESITE:
267,600
ACRES:
0.33 R1 T
|GRAND LIST
2,676.00
2,676.00
-----------------------------------------------------------------------------------------------------------------------------------BOGIE JEFFERY L
HMSTD FILED |
MUNICIPAL
HOMESTEAD
NON-RESIDENTIAL
|LAND
301,400
RR #1
|BUILDING
442,600
|TOTAL REAL
744,000
524,700
219,300
EAST THETFORD VT 05043
|SPEC EXEMPTION
0
0
TAX MAP:
12-017.000
|
PROP DESC: 107.8 ACRES & DWGL & MH & 2 ADDL LOTS
|
911 ADDR: 12 GOODELL RD
|
PARCEL ID: 12-017.000 SPAN: 450-142-12764
|
HOUSESITE:
288,300
ACRES:
107.80 F
T
|GRAND LIST
7,440.00
5,247.00
2,193.00
-----------------------------------------------------------------------------------------------------------------------------------BOGIE JEFFREY L
|
MUNICIPAL
HOMESTEAD
NON-RESIDENTIAL
|LAND
327,300
RR #1
|BUILDING
0
|TOTAL REAL
327,300
327,300
EAST THETFORD VT 05043
|SPEC EXEMPTION
0
TAX MAP:
12-047.000
|
PROP DESC: 144 ACRES
|
911 ADDR: WATERMAN HILL RD
|
PARCEL ID: 12-047.000 SPAN: 450-142-13147
|
HOUSESITE:
0
ACRES:
144.00 M
T
|GRAND LIST
3,273.00
3,273.00
------------------------------------------------------------------------------------------------------------------------------------
06/12/2015
01:32 pm
Town of Norwich Grand List
Grand List Report (Detail)
By Name For All Parcels In All Districts
Page 26
jbynum
PARCEL INFORMATION
TAXABLE VALUATIONS / EXEMPTIONS / CONTRACTS
-----------------------------------------------------------------------------------------------------------------------------------BOJANOWSKA-CANTOR LUCYNA
HMSTD FILED |
MUNICIPAL
HOMESTEAD
NON-RESIDENTIAL
|LAND
289,200
PO BOX 1270
|BUILDING
466,800
|TOTAL REAL
756,000
756,000
NORWICH VT 05055-1270
|SPEC EXEMPTION
0
TAX MAP:
15-023.100
|
PROP DESC: 31.54 ACRES & DWL
|
911 ADDR: 498 BRAGG HILL RD
|CURRENT USE
73,100
73,100
PARCEL ID: 15-023.100 SPAN: 450-142-11673
|
HOUSESITE:
667,800
ACRES:
31.54 R2 T
|GRAND LIST
6,829.00
6,829.00
-----------------------------------------------------------------------------------------------------------------------------------BOKUM NORRIS H
HMSTD FILED |
MUNICIPAL
HOMESTEAD
NON-RESIDENTIAL
|LAND
125,600
PO BOX 108
|BUILDING
216,400
|TOTAL REAL
342,000
342,000
NORWICH VT 05055-0108
|SPEC EXEMPTION
0
TAX MAP:
04-040.000
|
PROP DESC: 10 ACRES & DWL
|
911 ADDR: 761 UPPER TURNPIKE RD
|
PARCEL ID: 04-040.000 SPAN: 450-142-13125
|
HOUSESITE:
319,000
ACRES:
10.00 R2 T
|GRAND LIST
3,420.00
3,420.00
-----------------------------------------------------------------------------------------------------------------------------------BOLLINGER LEE C
|
MUNICIPAL
HOMESTEAD
NON-RESIDENTIAL
BOLLINGER JEAN MAGNANO
|LAND
286,900
614 BRAGG HILL RD
|BUILDING
776,300
|TOTAL REAL
1063,200
1063,200
NORWICH VT 05055
|SPEC EXEMPTION
0
TAX MAP:
10-012.200
|
PROP DESC: 30.7 ACRES & DWL
|
911 ADDR: 614 BRAGG HILL RD
|
PARCEL ID: 10-012.200 SPAN: 450-142-11679
|
HOUSESITE:
977,300
ACRES:
30.70 R2 NS
|GRAND LIST
10,632.00
10,632.00
-----------------------------------------------------------------------------------------------------------------------------------BOONE AND SAUNDERS TRUST
|
MUNICIPAL
HOMESTEAD
NON-RESIDENTIAL
TARASKA SHEILA
|LAND
80,800
PO BOX 116
|BUILDING
362,600
|TOTAL REAL
443,400
443,400
NORWICH VT 05055
|SPEC EXEMPTION
0
TAX MAP:
12-006.110
|
PROP DESC: 2.14 ACRES & DWL
|
911 ADDR: 139 HEMLOCK RD
|
PARCEL ID: 12-006.110 SPAN: 450-142-13277
|
HOUSESITE:
442,800
ACRES:
2.14 R1 T
|GRAND LIST
4,434.00
4,434.00
-----------------------------------------------------------------------------------------------------------------------------------BOREN JUSTIN S
HMSTD FILED |
MUNICIPAL
HOMESTEAD
NON-RESIDENTIAL
BOREN EMILY A
|LAND
97,200
92 MCKENNA ROAD
|BUILDING
197,500
|TOTAL REAL
294,700
294,700
NORWICH VT 05055
|SPEC EXEMPTION
0
TAX MAP:
16-076.000
|
PROP DESC: .92 ACRE & DWL
|
911 ADDR: 92 MCKENNA RD
|
PARCEL ID: 16-076.000 SPAN: 450-142-12190
|
HOUSESITE:
294,700
ACRES:
0.92 R1 T
|GRAND LIST
2,947.00
2,947.00
------------------------------------------------------------------------------------------------------------------------------------
06/12/2015
01:32 pm
Town of Norwich Grand List
Grand List Report (Detail)
By Name For All Parcels In All Districts
Page 27
jbynum
PARCEL INFORMATION
TAXABLE VALUATIONS / EXEMPTIONS / CONTRACTS
-----------------------------------------------------------------------------------------------------------------------------------BORNSTEIN SELMA
|
MUNICIPAL
HOMESTEAD
NON-RESIDENTIAL
|LAND
182,600
P O BOX 1054
|BUILDING
1381,700
|TOTAL REAL
1564,300
1564,300
NORWICH VT 05055
|SPEC EXEMPTION
0
TAX MAP:
11-045.300
|
PROP DESC: 8.4 ACRES & DWL
|
911 ADDR: 98 BRADLEY HILL RD
|
PARCEL ID: 11-045.300 SPAN: 450-142-11640
|
HOUSESITE:
1540,200
ACRES:
8.40 R2 T
|GRAND LIST
15,643.00
15,643.00
-----------------------------------------------------------------------------------------------------------------------------------BOS LYDIA O TRUST
HMSTD FILED |
MUNICIPAL
HOMESTEAD
NON-RESIDENTIAL
|LAND
125,500
199 HAWK PINE RD
|BUILDING
223,500
|TOTAL REAL
349,000
349,000
NORWICH VT 05055
|SPEC EXEMPTION
0
TAX MAP:
16-131.000
|
PROP DESC: 1.48 ACRES & DWL
|
911 ADDR: 199 HAWK PINE RD
|
PARCEL ID: 16-131.000 SPAN: 450-142-12543
|
HOUSESITE:
349,000
ACRES:
1.48 R1 T
|GRAND LIST
3,490.00
3,490.00
-----------------------------------------------------------------------------------------------------------------------------------BOTHE EDGAR
HMSTD FILED |
MUNICIPAL
HOMESTEAD
NON-RESIDENTIAL
BOTHE CHRISTINE
|LAND
127,000
471 HAWK PINE RD
|BUILDING
317,400
|TOTAL REAL
444,400
444,400
NORWICH VT 05055
|SPEC EXEMPTION
0
TAX MAP:
16-147.000
|
PROP DESC: 1.79 ACRES & DWL
|
911 ADDR: 471 HAWK PINE RD
|
PARCEL ID: 16-147.000 SPAN: 450-142-12572
|
HOUSESITE:
444,400
ACRES:
1.79 R1 T
|GRAND LIST
4,444.00
4,444.00
-----------------------------------------------------------------------------------------------------------------------------------BOTTARO JACK F
|
MUNICIPAL
HOMESTEAD
NON-RESIDENTIAL
BOTTARO CAROL D
|LAND
113,600
112 ELLIOTT RD
|BUILDING
0
|TOTAL REAL
113,600
113,600
TRUMBULL CT 06611
|SPEC EXEMPTION
0
TAX MAP:
09-019.000
|
PROP DESC: 27.31 ACRES
|
911 ADDR: TIGERTOWN RD
|
PARCEL ID: 09-019.000 SPAN: 450-142-12825
|
HOUSESITE:
0
ACRES:
27.31 M
NS
|GRAND LIST
1,136.00
1,136.00
-----------------------------------------------------------------------------------------------------------------------------------BOWDOIN CHARLES
HMSTD FILED |
MUNICIPAL
HOMESTEAD
NON-RESIDENTIAL
BOWDOIN CONNIE
|LAND
99,600
239 GOODRICH FOUR CORNERS RD
|BUILDING
134,200
|TOTAL REAL
233,800
233,800
NORWICH VT 05055
|SPEC EXEMPTION
0
TAX MAP:
11-116.000
|
PROP DESC: 2.01 ACRES & DWL
|
911 ADDR: 239 GOODRICH FOUR CORNERS RD
|
PARCEL ID: 11-116.000 SPAN: 450-142-11998
|
HOUSESITE:
233,700
ACRES:
2.01 R1 T
|GRAND LIST
2,338.00
2,338.00
------------------------------------------------------------------------------------------------------------------------------------
06/12/2015
01:32 pm
Town of Norwich Grand List
Grand List Report (Detail)
By Name For All Parcels In All Districts
Page 28
jbynum
PARCEL INFORMATION
TAXABLE VALUATIONS / EXEMPTIONS / CONTRACTS
-----------------------------------------------------------------------------------------------------------------------------------BOWER HUGH P H JR TRUSTEE
HMSTD FILED |
MUNICIPAL
HOMESTEAD
NON-RESIDENTIAL
HUGH P H BOWER JR TRUST
|LAND
176,100
PO BOX 317
|BUILDING
497,400
|TOTAL REAL
673,500
606,100
67,400
NORWICH VT 05055-0317
|SPEC EXEMPTION
0
0
TAX MAP:
11-199.100
|
PROP DESC: 5.59 ACRES & DWL/BARN APT
|
911 ADDR: 121 WILLEY HILL RD
|
PARCEL ID: 11-199.100 SPAN: 450-142-13159
|
HOUSESITE:
590,600
ACRES:
5.59 R1 T
|GRAND LIST
6,735.00
6,061.00
674.00
-----------------------------------------------------------------------------------------------------------------------------------BOWER SALLY C TRUSTEE
|
MUNICIPAL
HOMESTEAD
NON-RESIDENTIAL
|LAND
116,000
PO BOX 317
|BUILDING
0
|TOTAL REAL
116,000
116,000
NORWICH VT 05055-0317
|SPEC EXEMPTION
0
TAX MAP:
11-199.200
|
PROP DESC: 2.02 ACRES
|
911 ADDR: 147 WILLEY HILL RD
|
PARCEL ID: 11-199.200 SPAN: 450-142-13160
|
HOUSESITE:
0
ACRES:
2.02 M
T
|GRAND LIST
1,160.00
1,160.00
-----------------------------------------------------------------------------------------------------------------------------------BOWER SALLY C TRUSTEE
|
MUNICIPAL
HOMESTEAD
NON-RESIDENTIAL
|LAND
274,900
PO BOX 317
|BUILDING
138,000
|TOTAL REAL
412,900
412,900
NORWICH VT 05055-0317
|SPEC EXEMPTION
0
TAX MAP:
15-070.000
|
PROP DESC: 10.8 ACRES & OFFICE BLDG
|
911 ADDR: 147 US ROUTE 5 SOUTH
|
PARCEL ID: 15-070.000 SPAN: 450-142-12737
|
HOUSESITE:
0
ACRES:
10.80 C
T
|GRAND LIST
4,129.00
4,129.00
-----------------------------------------------------------------------------------------------------------------------------------BOYER WILLIAM
HMSTD FILED |
MUNICIPAL
HOMESTEAD
NON-RESIDENTIAL
BAHNG AIMEE
|LAND
125,900
386 BEAVER MEADOW RD
|BUILDING
216,000
|TOTAL REAL
341,900
341,900
NORWICH VT 05055
|SPEC EXEMPTION
0
TAX MAP:
10-035.000
|
PROP DESC: 1.2 ACRES & DWL
|
911 ADDR: 386 BEAVER MEADOW RD
|
PARCEL ID: 10-035.000 SPAN: 450-142-11586
|
HOUSESITE:
341,900
ACRES:
1.20 R1 T
|GRAND LIST
3,419.00
3,419.00
-----------------------------------------------------------------------------------------------------------------------------------BOZUWA G PAUL
|
MUNICIPAL
HOMESTEAD
NON-RESIDENTIAL
BARR COLLEEN T
|LAND
164,900
19 BRAGG HILL ROAD
|BUILDING
76,100
|TOTAL REAL
241,000
241,000
NORWICH VT 05055
|SPEC EXEMPTION
0
TAX MAP:
12-027.000
|
PROP DESC: .6 ACRE & DWL
|
911 ADDR: 102 KENDALL STATION RD
|
PARCEL ID: 12-027.000 SPAN: 450-142-12623
|
HOUSESITE:
241,000
ACRES:
0.60 R1 T
|GRAND LIST
2,410.00
2,410.00
------------------------------------------------------------------------------------------------------------------------------------
06/12/2015
01:32 pm
Town of Norwich Grand List
Grand List Report (Detail)
By Name For All Parcels In All Districts
Page 29
jbynum
PARCEL INFORMATION
TAXABLE VALUATIONS / EXEMPTIONS / CONTRACTS
-----------------------------------------------------------------------------------------------------------------------------------BOZUWA G PAUL
HMSTD FILED |
MUNICIPAL
HOMESTEAD
NON-RESIDENTIAL
BARR COLLEEN T
|LAND
125,900
19 BRAGG HILL RD
|BUILDING
418,900
|TOTAL REAL
544,800
544,800
NORWICH VT 05055
|SPEC EXEMPTION
0
TAX MAP:
20-052.200
|
PROP DESC: 2.85 ACRES & DWL
|
911 ADDR: 19 BRAGG HILL RD
|
PARCEL ID: 20-052.200 SPAN: 450-142-11658
|
HOUSESITE:
541,000
ACRES:
2.85 R1 T
|GRAND LIST
5,448.00
5,448.00
-----------------------------------------------------------------------------------------------------------------------------------BRANDT JUERGEN
|
MUNICIPAL
HOMESTEAD
NON-RESIDENTIAL
ENGL SABINE
|LAND
107,800
C/O HAWK NORTH LTD MGMT
|BUILDING
0
106 VT ROUTE 107
|TOTAL REAL
107,800
107,800
STOCKBRIDGE VT 05772-6701
|SPEC EXEMPTION
0
TAX MAP:
16-133.000
|
PROP DESC: 3.11 ACRES
|
911 ADDR: HAWK PINE RD
|
PARCEL ID: 16-133.000 SPAN: 450-142-12545
|
HOUSESITE:
0
ACRES:
3.11 M
S
|GRAND LIST
1,078.00
1,078.00
-----------------------------------------------------------------------------------------------------------------------------------BRAUN KATHLEEN L
HMSTD FILED |
MUNICIPAL
HOMESTEAD
NON-RESIDENTIAL
BRAUN CHARLES L
|LAND
0
23 HERITAGE LN UNIT 3
|BUILDING
289,700
|TOTAL REAL
289,700
289,700
NORWICH VT 05055
|SPEC EXEMPTION
0
TAX MAP:
20-043.300
|
PROP DESC: UNIT 3 HERITAGE TOWNHOUSES
|
911 ADDR: 23 HERITAGE LN
|
PARCEL ID: 20-043.300 SPAN: 450-142-11753
|
HOUSESITE:
289,700
ACRES:
0.00 O
T
|GRAND LIST
2,897.00
2,897.00
-----------------------------------------------------------------------------------------------------------------------------------BRECHBUHL HANS
HMSTD FILED |
MUNICIPAL
HOMESTEAD
NON-RESIDENTIAL
BRECHBUHL ANN A
|LAND
200,800
37 LOVELAND RD
|BUILDING
472,100
|TOTAL REAL
672,900
586,500
86,400
NORWICH VT 05055
|SPEC EXEMPTION
0
0
TAX MAP:
16-111.000
|
PROP DESC: 4.8 ACRES & 2 DWLS INCL 1 ADDL LOT
|
911 ADDR: 37 LOVELAND RD
|
PARCEL ID: 16-111.000 SPAN: 450-142-12162
|
HOUSESITE:
484,300
ACRES:
4.80 R1 T
|GRAND LIST
6,729.00
5,865.00
864.00
-----------------------------------------------------------------------------------------------------------------------------------BREED MARTINA F TRUSTEE
HMSTD FILED |
MUNICIPAL
HOMESTEAD
NON-RESIDENTIAL
|LAND
131,400
398 HAWK PINE RD
|BUILDING
354,700
|TOTAL REAL
486,100
486,100
NORWICH VT 05055
|SPEC EXEMPTION
0
TAX MAP:
20-180.000
|
PROP DESC: 2.7 ACRES & DWL
|
911 ADDR: 398 HAWK PINE RD
|
PARCEL ID: 20-180.000 SPAN: 450-142-12564
|
HOUSESITE:
483,000
ACRES:
2.70 R1 T
|GRAND LIST
4,861.00
4,861.00
------------------------------------------------------------------------------------------------------------------------------------
06/12/2015
01:32 pm
Town of Norwich Grand List
Grand List Report (Detail)
By Name For All Parcels In All Districts
Page 30
jbynum
PARCEL INFORMATION
TAXABLE VALUATIONS / EXEMPTIONS / CONTRACTS
-----------------------------------------------------------------------------------------------------------------------------------BRENDEL JOHN J JR
HMSTD FILED |
MUNICIPAL
HOMESTEAD
NON-RESIDENTIAL
BRENDEL MEGAN S
|LAND
227,500
658 BRAGG HILL RD
|BUILDING
428,100
|TOTAL REAL
655,600
655,600
NORWICH VT 05055
|SPEC EXEMPTION
0
TAX MAP:
10-011.200
|
PROP DESC: 10.01 ACRES & DWL
|
911 ADDR: 658 BRAGG HILL RD
|
PARCEL ID: 10-011.200 SPAN: 450-142-11683
|
HOUSESITE:
629,700
ACRES:
10.01 R2 T
|GRAND LIST
6,556.00
6,556.00
-----------------------------------------------------------------------------------------------------------------------------------BRENNAN FRANK
|
MUNICIPAL
HOMESTEAD
NON-RESIDENTIAL
BRENNAN CAROLYN H
|LAND
126,100
11 DOUGLAS RIDGE RD
|BUILDING
387,400
|TOTAL REAL
513,500
513,500
NORWICH VT 05055
|SPEC EXEMPTION
0
TAX MAP:
10-148.000
|
PROP DESC: 1.8 ACRES & DWL
|
911 ADDR: 11 DOUGLAS RIDGE
|
PARCEL ID: 10-148.000 SPAN: 450-142-11903
|
HOUSESITE:
513,500
ACRES:
1.80 R1 T
|GRAND LIST
5,135.00
5,135.00
-----------------------------------------------------------------------------------------------------------------------------------BRIDGE SUSAN
HMSTD FILED |
MUNICIPAL
HOMESTEAD
NON-RESIDENTIAL
|LAND
270,000
PO BOX 774
|BUILDING
222,000
|TOTAL REAL
492,000
418,600
73,400
NORWICH VT 05055-0774
|SPEC EXEMPTION
0
0
TAX MAP:
05-023.000
|
PROP DESC: 26.28 ACRES & 2 DWLS & 2 ADDL LOTS
|
911 ADDR: 143 NORFORD LAKE RD
|
PARCEL ID: 05-023.000 SPAN: 450-142-12398
|
HOUSESITE:
250,900
ACRES:
26.28 R2 T
|GRAND LIST
4,920.00
4,186.00
734.00
-----------------------------------------------------------------------------------------------------------------------------------BRIGHAM JOHN
|
MUNICIPAL
HOMESTEAD
NON-RESIDENTIAL
DENAULT DEANNA
|LAND
104,000
57 HUNTLEY ST
|BUILDING
276,800
|TOTAL REAL
380,800
380,800
NORWICH VT 05055
|SPEC EXEMPTION
0
TAX MAP:
20-069.100
|
PROP DESC: .52 ACRES & DWL
|
911 ADDR: 57 HUNTLEY ST
|
PARCEL ID: 20-069.100 SPAN: 450-142-12100
|
HOUSESITE:
380,800
ACRES:
0.52 R1 T
|GRAND LIST
3,808.00
3,808.00
-----------------------------------------------------------------------------------------------------------------------------------BRINK PETER H
HMSTD FILED |
MUNICIPAL
HOMESTEAD
NON-RESIDENTIAL
BRINK SUSAN G
|LAND
159,700
428 HAWK PINE RD
|BUILDING
484,600
|TOTAL REAL
644,300
644,300
NORWICH VT 05055-9630
|SPEC EXEMPTION
0
TAX MAP:
16-144.000
|
PROP DESC: 2.4 ACRES & DWL
|
911 ADDR: 428 HAWK PINE RD
|
PARCEL ID: 16-144.000 SPAN: 450-142-12567
|
HOUSESITE:
642,900
ACRES:
2.40 R1 T
|GRAND LIST
6,443.00
6,443.00
------------------------------------------------------------------------------------------------------------------------------------
06/12/2015
01:32 pm
Town of Norwich Grand List
Grand List Report (Detail)
By Name For All Parcels In All Districts
Page 31
jbynum
PARCEL INFORMATION
TAXABLE VALUATIONS / EXEMPTIONS / CONTRACTS
-----------------------------------------------------------------------------------------------------------------------------------BRINK PETER H REV TRUST
|
MUNICIPAL
HOMESTEAD
NON-RESIDENTIAL
BRINK SUSAN G REV TRUST
|LAND
93,500
428 HAWK PINE ROAD
|BUILDING
166,300
|TOTAL REAL
259,800
259,800
NORWICH VT 05055
|SPEC EXEMPTION
0
TAX MAP:
20-292.000
|
PROP DESC: .28 ACRE & DWL
|
911 ADDR: 6 JONES CIR
|
PARCEL ID: 20-292.000 SPAN: 450-142-12103
|
HOUSESITE:
259,800
ACRES:
0.28 R1 T
|GRAND LIST
2,598.00
2,598.00
-----------------------------------------------------------------------------------------------------------------------------------BRINTON ERICA M
HMSTD FILED |
MUNICIPAL
HOMESTEAD
NON-RESIDENTIAL
|LAND
109,600
31 HAZEN ST
|BUILDING
134,300
|TOTAL REAL
243,900
243,900
NORWICH VT 05055
|SPEC EXEMPTION
0
TAX MAP:
20-195.000
|
PROP DESC: 0.23 ACRE & DWL
|
911 ADDR: 31 HAZEN ST
|
PARCEL ID: 20-195.000 SPAN: 450-142-12028
|
HOUSESITE:
243,900
ACRES:
0.23 R1 T
|GRAND LIST
2,439.00
2,439.00
-----------------------------------------------------------------------------------------------------------------------------------BRISSON EDWARD M
HMSTD FILED |
MUNICIPAL
HOMESTEAD
NON-RESIDENTIAL
BRISSON PAMELA J
|LAND
132,600
PO BOX 327
|BUILDING
325,600
|TOTAL REAL
458,200
458,200
NORWICH VT 05055-0327
|SPEC EXEMPTION
0
TAX MAP:
15-003.000
|
PROP DESC: 11.61 ACRES & DWL
|
911 ADDR: 640 NEWTON LN
|
PARCEL ID: 15-003.000 SPAN: 450-142-12795
|
HOUSESITE:
428,100
ACRES:
11.61 R2 T
|GRAND LIST
4,582.00
4,582.00
-----------------------------------------------------------------------------------------------------------------------------------BRITTON BARBARA G TRUST
|
MUNICIPAL
HOMESTEAD
NON-RESIDENTIAL
|LAND
15,500
C/O DOUGLAS BRIITTON
|BUILDING
0
22 BRIGHAM HILL ROAD
|TOTAL REAL
15,500
15,500
NORWICH VT 05055
|SPEC EXEMPTION
0
TAX MAP:
16-088.000
|
PROP DESC: 4.05 ACRES
|
911 ADDR: MCKENNA RD
|
PARCEL ID: 16-088.000 SPAN: 450-142-12181
|
HOUSESITE:
0
ACRES:
4.05 M
NS
|GRAND LIST
155.00
155.00
-----------------------------------------------------------------------------------------------------------------------------------BRITTON GLENN P
HMSTD FILED |
MUNICIPAL
HOMESTEAD
NON-RESIDENTIAL
BRITTON JANE F
|LAND
96,100
31 HUNTLEY ST
|BUILDING
247,100
|TOTAL REAL
343,200
343,200
NORWICH VT 05055
|SPEC EXEMPTION
0
TAX MAP:
20-101.000
|
PROP DESC: .34 ACRE & DWL
|
911 ADDR: 31 HUNTLEY ST
|
PARCEL ID: 20-101.000 SPAN: 450-142-12086
|
HOUSESITE:
343,200
ACRES:
0.34 R1 T
|GRAND LIST
3,432.00
3,432.00
------------------------------------------------------------------------------------------------------------------------------------
06/12/2015
01:32 pm
Town of Norwich Grand List
Grand List Report (Detail)
By Name For All Parcels In All Districts
Page 32
jbynum
PARCEL INFORMATION
TAXABLE VALUATIONS / EXEMPTIONS / CONTRACTS
-----------------------------------------------------------------------------------------------------------------------------------BRITTON REVOCABLE TRUST
HMSTD FILED |
MUNICIPAL
HOMESTEAD
NON-RESIDENTIAL
KATHERINE FISHER
|LAND
159,600
22 BRIGHAM HILL RD
|BUILDING
651,900
|TOTAL REAL
811,500
811,500
NORWICH VT 05055
|SPEC EXEMPTION
0
TAX MAP:
10-036.100
|
PROP DESC: 10.8 ACRES & DWL
|
911 ADDR: 22 BRIGHAM HILL RD
|
PARCEL ID: 10-036.100 SPAN: 450-142-11703
|
HOUSESITE:
780,400
ACRES:
10.80 R2 T
|GRAND LIST
8,115.00
8,115.00
-----------------------------------------------------------------------------------------------------------------------------------BRITTON SALLY TRUSTEE
HMSTD FILED |
MUNICIPAL
HOMESTEAD
NON-RESIDENTIAL
|LAND
132,400
32 DOUGLAS RIDGE
|BUILDING
423,000
|TOTAL REAL
555,400
555,400
NORWICH VT 05055
|SPEC EXEMPTION
0
TAX MAP:
10-153.000
|
PROP DESC: 3.6 ACRES & DWL
|
911 ADDR: 32 DOUGLAS RIDGE
|
PARCEL ID: 10-153.000 SPAN: 450-142-11898
|
HOUSESITE:
550,000
ACRES:
3.60 R1 T
|GRAND LIST
5,554.00
5,554.00
-----------------------------------------------------------------------------------------------------------------------------------BRITTON TRUST ALLEN H
|
MUNICIPAL
HOMESTEAD
NON-RESIDENTIAL
|LAND
185,600
C/O DOUGLAS BRITTON
|BUILDING
43,100
22 BRIGHAM HILL ROAD
|TOTAL REAL
228,700
228,700
NORWICH VT 05055
|SPEC EXEMPTION
0
TAX MAP:
11-152.100
|
PROP DESC: 37 ACRES & GARAGE
|
911 ADDR: GOODRICH FOUR CORNERS RD
|
PARCEL ID: 11-152.100 SPAN: 450-142-13186
|
HOUSESITE:
0
ACRES:
37.00 M
NS
|GRAND LIST
2,287.00
2,287.00
-----------------------------------------------------------------------------------------------------------------------------------BROCHU CLAUDETTE J
HMSTD FILED |
MUNICIPAL
HOMESTEAD
NON-RESIDENTIAL
|LAND
126,600
714 UPPER TURNPIKE RD
|BUILDING
185,800
|TOTAL REAL
312,400
312,400
NORWICH VT 05055
|SPEC EXEMPTION
0
TAX MAP:
04-045.000
|
PROP DESC: 10.4 ACRES & DWL
|
911 ADDR: 714 UPPER TURNPIKE RD
|
PARCEL ID: 04-045.000 SPAN: 450-142-13123
|
HOUSESITE:
288,400
ACRES:
10.40 R2 T
|GRAND LIST
3,124.00
3,124.00
-----------------------------------------------------------------------------------------------------------------------------------BROOKS RICHARD L
|
MUNICIPAL
HOMESTEAD
NON-RESIDENTIAL
BROOKS ROBIN
|LAND
156,000
P O BOX 1075
|BUILDING
547,300
|TOTAL REAL
703,300
703,300
NORWICH VT 05055
|SPEC EXEMPTION
0
TAX MAP:
20-301.000
|
PROP DESC: 0.69 ACRE & DWL
|
911 ADDR: 31 ELM ST
|
PARCEL ID: 20-301.000 SPAN: 450-142-11943
|
HOUSESITE:
703,300
ACRES:
0.69 R1 T
|GRAND LIST
7,033.00
7,033.00
------------------------------------------------------------------------------------------------------------------------------------
06/12/2015
01:32 pm
Town of Norwich Grand List
Grand List Report (Detail)
By Name For All Parcels In All Districts
Page 33
jbynum
PARCEL INFORMATION
TAXABLE VALUATIONS / EXEMPTIONS / CONTRACTS
-----------------------------------------------------------------------------------------------------------------------------------BROOKS RICHARD O
HMSTD FILED |
MUNICIPAL
HOMESTEAD
NON-RESIDENTIAL
BROOKS MOLLIE B
|LAND
150,500
PO BOX 147
|BUILDING
517,100
|TOTAL REAL
667,600
521,672
145,928
NORWICH VT 05055-0147
|SPEC EXEMPTION
0
0
TAX MAP:
16-029.000
|
PROP DESC: 1.12 ACRES & DWL
|
911 ADDR: 89 CHURCH ST
|
PARCEL ID: 16-029.000 SPAN: 450-142-11855
|
HOUSESITE:
521,672
ACRES:
1.12 R1 T
|GRAND LIST
6,676.00
5,216.72
1,459.28
-----------------------------------------------------------------------------------------------------------------------------------BROTHERS THOMAS
|
MUNICIPAL
HOMESTEAD
NON-RESIDENTIAL
JACHIMIAK TEKLA
|LAND
115,000
1113 WATTS ST
|BUILDING
100,500
|TOTAL REAL
215,500
215,500
DURHAM NC 27701
|SPEC EXEMPTION
0
TAX MAP:
15-004.000
|
PROP DESC: 5.31 ACRES & DWL
|
911 ADDR: 690 NEWTON LN
|
PARCEL ID: 15-004.000 SPAN: 450-142-12796
|
HOUSESITE:
203,900
ACRES:
5.31 R1 NS
|GRAND LIST
2,155.00
2,155.00
-----------------------------------------------------------------------------------------------------------------------------------BROWN ARNOLD C
HMSTD FILED |
MUNICIPAL
HOMESTEAD
NON-RESIDENTIAL
BROWN ANNETTE G
|LAND
157,500
280 NORFORD LAKE RD
|BUILDING
253,800
|TOTAL REAL
411,300
411,300
NORWICH VT 05055
|SPEC EXEMPTION
0
TAX MAP:
05-032.000
|
PROP DESC: 19.5 ACRES & DWL
|
911 ADDR: 280 NORFORD LAKE RD
|
PARCEL ID: 05-032.000 SPAN: 450-142-12401
|
HOUSESITE:
356,000
ACRES:
19.50 R2 T
|GRAND LIST
4,113.00
4,113.00
-----------------------------------------------------------------------------------------------------------------------------------BROWN CAMERON
HMSTD FILED |
MUNICIPAL
HOMESTEAD
NON-RESIDENTIAL
BROWN LESLIE
|LAND
170,800
946 BEAVER MEADOW RD
|BUILDING
285,200
|TOTAL REAL
456,000
456,000
NORWICH VT 05055
|SPEC EXEMPTION
0
TAX MAP:
10-031.100
|
PROP DESC: 14.85AC & DWL
|
911 ADDR: 946 BEAVER MEADOW RD
|
PARCEL ID: 10-031.100 SPAN: 450-142-11595
|
HOUSESITE:
413,500
ACRES:
14.85 R2 T
|GRAND LIST
4,560.00
4,560.00
-----------------------------------------------------------------------------------------------------------------------------------BROWN CHRISTOPHER A
|
MUNICIPAL
HOMESTEAD
NON-RESIDENTIAL
|LAND
139,500
80 SALISBURY ST
|BUILDING
490,700
|TOTAL REAL
630,200
630,200
WORCESTER MA 01609
|SPEC EXEMPTION
0
TAX MAP:
20-016.000
|
PROP DESC: .80 ACRE & DWL
|
911 ADDR: 192 ELM ST
|
PARCEL ID: 20-016.000 SPAN: 450-142-11962
|
HOUSESITE:
630,200
ACRES:
0.80 R1 NS
|GRAND LIST
6,302.00
6,302.00
------------------------------------------------------------------------------------------------------------------------------------
06/12/2015
01:32 pm
Town of Norwich Grand List
Grand List Report (Detail)
By Name For All Parcels In All Districts
Page 34
jbynum
PARCEL INFORMATION
TAXABLE VALUATIONS / EXEMPTIONS / CONTRACTS
-----------------------------------------------------------------------------------------------------------------------------------BROWN GRETA TRUSTEE
|
MUNICIPAL
HOMESTEAD
NON-RESIDENTIAL
MURPHY LOUIS G JR TRUSTEE
|LAND
119,600
99 EAST SAKONNET POINT RD
|BUILDING
271,700
|TOTAL REAL
391,300
391,300
LITTLE COMPTON RI 02837
|SPEC EXEMPTION
0
TAX MAP:
10-054.000
|
PROP DESC: 0.54 ACRE & DWL
|
911 ADDR: 330 BEAVER MEADOW RD
|
PARCEL ID: 10-054.000 SPAN: 450-142-11584
|
HOUSESITE:
391,300
ACRES:
0.54 R1 NS
|GRAND LIST
3,913.00
3,913.00
-----------------------------------------------------------------------------------------------------------------------------------BROWN JAMES E
HMSTD FILED |
MUNICIPAL
HOMESTEAD
NON-RESIDENTIAL
BROWN JUDITH F
|LAND
159,500
PO BOX 1025
|BUILDING
278,800
|TOTAL REAL
438,300
438,300
NORWICH VT 05055-1025
|SPEC EXEMPTION
0
TAX MAP:
05-150.000
|
PROP DESC: 27.5 ACRES & DWL
|
911 ADDR: 788 NEW BOSTON RD
|
PARCEL ID: 05-150.000 SPAN: 450-142-12314
|
HOUSESITE:
376,500
ACRES:
27.50 R2 T
|GRAND LIST
4,383.00
4,383.00
-----------------------------------------------------------------------------------------------------------------------------------BROWN KEITH
HMSTD FILED |
MUNICIPAL
HOMESTEAD
NON-RESIDENTIAL
|LAND
136,400
256 HOPSON RD
|BUILDING
308,500
|TOTAL REAL
444,900
444,900
NORWICH VT 05055
|SPEC EXEMPTION
0
TAX MAP:
20-002.000
|
PROP DESC: 5 ACRES & DWL
|
911 ADDR: 256 HOPSON RD
|
PARCEL ID: 20-002.000 SPAN: 450-142-12066
|
HOUSESITE:
431,400
ACRES:
5.00 R1 T
|GRAND LIST
4,449.00
4,449.00
-----------------------------------------------------------------------------------------------------------------------------------BROWN KRISTIN M
|
MUNICIPAL
HOMESTEAD
NON-RESIDENTIAL
|LAND
184,900
31 CHURCH ST
|BUILDING
0
|TOTAL REAL
184,900
184,900
NORWICH VT 05055
|SPEC EXEMPTION
0
TAX MAP:
15-013.000
|
PROP DESC: 25 ACRES
|
911 ADDR: HAPPY HILL RD
|
PARCEL ID: 15-013.000 SPAN: 450-142-12020
|
HOUSESITE:
0
ACRES:
25.00 M
T
|GRAND LIST
1,849.00
1,849.00
-----------------------------------------------------------------------------------------------------------------------------------BROWN LINDA LEA KELLY TRUST
HMSTD FILED |
MUNICIPAL
HOMESTEAD
NON-RESIDENTIAL
|LAND
73,800
95 CHAPEL HILL RD
|BUILDING
215,200
|TOTAL REAL
289,000
289,000
NORWICH VT 05055-5507
|SPEC EXEMPTION
0
TAX MAP:
09-012.000
|
PROP DESC: 2 ACRES & DWL
|
911 ADDR: 95 CHAPEL HILL RD
|
PARCEL ID: 09-012.000 SPAN: 450-142-11833
|
HOUSESITE:
289,000
ACRES:
2.00 R1 T
|GRAND LIST
2,890.00
2,890.00
------------------------------------------------------------------------------------------------------------------------------------
06/12/2015
01:32 pm
Town of Norwich Grand List
Grand List Report (Detail)
By Name For All Parcels In All Districts
Page 35
jbynum
PARCEL INFORMATION
TAXABLE VALUATIONS / EXEMPTIONS / CONTRACTS
-----------------------------------------------------------------------------------------------------------------------------------BROWN RANDALL P
|
MUNICIPAL
HOMESTEAD
NON-RESIDENTIAL
|LAND
93,100
200 WILEY CT
|BUILDING
0
|TOTAL REAL
93,100
93,100
TURLOCK CA 95382-1729
|SPEC EXEMPTION
0
TAX MAP:
05-152.000
|
PROP DESC: 20.10 ACRES
|
911 ADDR: NEW BOSTON RD
|
PARCEL ID: 05-152.000 SPAN: 450-142-12312
|
HOUSESITE:
0
ACRES:
20.10 M
NS
|GRAND LIST
931.00
931.00
-----------------------------------------------------------------------------------------------------------------------------------BROWN THOMAS
HMSTD FILED |
MUNICIPAL
HOMESTEAD
NON-RESIDENTIAL
BROWN CLAIRE
|LAND
120,800
PO BOX 665
|BUILDING
206,100
|TOTAL REAL
326,900
326,900
NORWICH VT 05055-0665
|SPEC EXEMPTION
0
TAX MAP:
05-153.000
|
PROP DESC: 7.4 ACRES & DWL
|
911 ADDR: 734 NEW BOSTON RD
|
PARCEL ID: 05-153.000 SPAN: 450-142-12311
|
HOUSESITE:
310,000
ACRES:
7.40 R2 T
|GRAND LIST
3,269.00
3,269.00
-----------------------------------------------------------------------------------------------------------------------------------BROWNELL TIMOTHY
HMSTD FILED |
MUNICIPAL
HOMESTEAD
NON-RESIDENTIAL
WATERS MARJORIE
|LAND
103,600
30 LOVELAND RD
|BUILDING
230,300
|TOTAL REAL
333,900
333,900
NORWICH VT 05055-9766
|SPEC EXEMPTION
0
TAX MAP:
16-116.410
|
PROP DESC: 3.95 ACRES
|
911 ADDR: 30 LOVELAND RD
|
PARCEL ID: 16-116.410 SPAN: 450-142-13188
|CONTRACTS
19,800
19,800
HOUSESITE:
325,100
ACRES:
3.95 R1 T
|GRAND LIST
3,141.00
3,141.00
-----------------------------------------------------------------------------------------------------------------------------------BROWNLOW MARY B
HMSTD FILED |
MUNICIPAL
HOMESTEAD
NON-RESIDENTIAL
|LAND
151,800
288 BEAVER MEADOW RD
|BUILDING
447,400
|TOTAL REAL
599,200
453,000
146,200
NORWICH VT 05055
|SPEC EXEMPTION
0
0
TAX MAP:
10-056.000
|
PROP DESC: 1.4 ACRES & DWL
|
911 ADDR: 288 BEAVER MEADOW RD
|
PARCEL ID: 10-056.000 SPAN: 450-142-12219
|
HOUSESITE:
453,000
ACRES:
1.40 R1 T
|GRAND LIST
5,992.00
4,530.00
1,462.00
-----------------------------------------------------------------------------------------------------------------------------------BUCCI DAVID
HMSTD FILED |
MUNICIPAL
HOMESTEAD
NON-RESIDENTIAL
BUCCI CATHERINE
|LAND
134,000
829 TURNPIKE RD
|BUILDING
372,900
|TOTAL REAL
506,900
506,900
NORWICH VT 05055
|SPEC EXEMPTION
0
TAX MAP:
10-087.000
|
PROP DESC: 3 ACRES & DWL
|
911 ADDR: 829 TURNPIKE RD
|
PARCEL ID: 10-087.000 SPAN: 450-142-12940
|
HOUSESITE:
502,400
ACRES:
3.00 R1 T
|GRAND LIST
5,069.00
5,069.00
------------------------------------------------------------------------------------------------------------------------------------
06/12/2015
01:32 pm
Town of Norwich Grand List
Grand List Report (Detail)
By Name For All Parcels In All Districts
Page 36
jbynum
PARCEL INFORMATION
TAXABLE VALUATIONS / EXEMPTIONS / CONTRACTS
-----------------------------------------------------------------------------------------------------------------------------------BUELL CHARLES C
HMSTD FILED |
MUNICIPAL
HOMESTEAD
NON-RESIDENTIAL
BUELL SYBIL R
|LAND
0
P O BOX 1208
|BUILDING
225,400
|TOTAL REAL
225,400
225,400
NORWICH VT 05055
|SPEC EXEMPTION
0
TAX MAP:
15-055.010
|
PROP DESC: 40 NORWICH MEADOW UNIT 10
|
911 ADDR: 40 NORWICH MEADOWS 10
|
PARCEL ID: 15-055.010 SPAN: 450-142-11746
|
HOUSESITE:
225,400
ACRES:
0.00 O
T
|GRAND LIST
2,254.00
2,254.00
-----------------------------------------------------------------------------------------------------------------------------------BUKOWSKI MICHAEL
HMSTD FILED |
MUNICIPAL
HOMESTEAD
NON-RESIDENTIAL
|LAND
88,000
PO BOX 225
|BUILDING
132,100
|TOTAL REAL
220,100
220,100
NORWICH VT 05055
|SPEC EXEMPTION
0
TAX MAP:
03-005.000
|
PROP DESC: 8 ACRES & DWL
|
911 ADDR: 139 CHAPEL HILL RD
|
PARCEL ID: 03-005.000 SPAN: 450-142-11826
|
HOUSESITE:
201,700
ACRES:
8.00 R2 T
|GRAND LIST
2,201.00
2,201.00
-----------------------------------------------------------------------------------------------------------------------------------BULL PINE REALTY LLC
|
MUNICIPAL
HOMESTEAD
NON-RESIDENTIAL
C/O J L DURST
|LAND
496,500
844 NEW BOSTON RD
|BUILDING
727,300
|TOTAL REAL
1223,800
1223,800
NORWICH VT 05055-9671
|SPEC EXEMPTION
0
TAX MAP:
05-146.000
|
PROP DESC: 51.91 ACRES & DWL INCL 2 ADDNL LOTS
|
911 ADDR: 200 BARBARA LEE LN
|
PARCEL ID: 05-146.000 SPAN: 450-142-13293
|
HOUSESITE:
852,800
ACRES:
51.91 R2 C
|GRAND LIST
12,238.00
12,238.00
-----------------------------------------------------------------------------------------------------------------------------------BULLOCK IAN DONALD
|
MUNICIPAL
HOMESTEAD
NON-RESIDENTIAL
PULLEN MARTHA MARY
|LAND
96,100
53 SAWYER MOUNTAIN RD
|BUILDING
126,500
|TOTAL REAL
222,600
222,600
STRAFFORD VT 05072-9733
|SPEC EXEMPTION
0
TAX MAP:
20-085.000
|
PROP DESC: .34 ACRE & DWL
|
911 ADDR: 76 HUNTLEY ST
|
PARCEL ID: 20-085.000 SPAN: 450-142-12094
|
HOUSESITE:
222,600
ACRES:
0.34 R1 S
|GRAND LIST
2,226.00
2,226.00
-----------------------------------------------------------------------------------------------------------------------------------BURKOT LOUIS
HMSTD FILED |
MUNICIPAL
HOMESTEAD
NON-RESIDENTIAL
LASKARIS MARIA
|LAND
97,000
79 HUNTLEY ST
|BUILDING
264,300
|TOTAL REAL
361,300
361,300
NORWICH VT 05055
|SPEC EXEMPTION
0
TAX MAP:
20-105.000
|
PROP DESC: .36 ACRE & DWL
|
911 ADDR: 79 HUNTLEY ST
|
PARCEL ID: 20-105.000 SPAN: 450-142-12095
|
HOUSESITE:
361,300
ACRES:
0.36 R1 T
|GRAND LIST
3,613.00
3,613.00
------------------------------------------------------------------------------------------------------------------------------------
06/12/2015
01:32 pm
Town of Norwich Grand List
Grand List Report (Detail)
By Name For All Parcels In All Districts
Page 37
jbynum
PARCEL INFORMATION
TAXABLE VALUATIONS / EXEMPTIONS / CONTRACTS
-----------------------------------------------------------------------------------------------------------------------------------BURNHAM DAVID H
|
MUNICIPAL
HOMESTEAD
NON-RESIDENTIAL
BURNHAM FRANCES M P
|LAND
126,200
30 ATLANTIC DR
|BUILDING
0
|TOTAL REAL
126,200
126,200
COHASSET MA 02025
|SPEC EXEMPTION
0
TAX MAP:
20-060.000
|
PROP DESC: 4.3 ACRES
|
911 ADDR: DUTTON HILL
|
PARCEL ID: 20-060.000 SPAN: 450-142-11919
|
HOUSESITE:
0
ACRES:
4.30 M
NS
|GRAND LIST
1,262.00
1,262.00
-----------------------------------------------------------------------------------------------------------------------------------BURNHAM ROBERT A
HMSTD FILED |
MUNICIPAL
HOMESTEAD
NON-RESIDENTIAL
SABADOSA KATHRYN A
|LAND
114,800
PO BOX 582
|BUILDING
270,700
|TOTAL REAL
385,500
385,500
NORWICH VT 05055-0582
|SPEC EXEMPTION
0
TAX MAP:
20-127.000
|
PROP DESC: .33 ACRE & DWL
|
911 ADDR: 21 TRUMBULL LN
|
PARCEL ID: 20-127.000 SPAN: 450-142-12873
|
HOUSESITE:
385,500
ACRES:
0.33 R1 T
|GRAND LIST
3,855.00
3,855.00
-----------------------------------------------------------------------------------------------------------------------------------BURNS MATTHEW
|
MUNICIPAL
HOMESTEAD
NON-RESIDENTIAL
|LAND
119,700
82 TURNPIKE RD
|BUILDING
346,200
|TOTAL REAL
465,900
465,900
NORWICH VT 05055
|SPEC EXEMPTION
0
TAX MAP:
10-198.000
|
PROP DESC: 1.2 ACRE & DWL
|
911 ADDR: 82 TURNPIKE RD
|
PARCEL ID: 10-198.000 SPAN: 450-142-12898
|
HOUSESITE:
465,900
ACRES:
1.20 R1 T
|GRAND LIST
4,659.00
4,659.00
-----------------------------------------------------------------------------------------------------------------------------------BURRISS REID
HMSTD FILED |
MUNICIPAL
HOMESTEAD
NON-RESIDENTIAL
BURRISS LOIS T
|LAND
69,800
PO BOX 126
|BUILDING
185,700
|TOTAL REAL
255,500
255,500
WEST HARTFORD VT 05084-0126
|SPEC EXEMPTION
0
TAX MAP:
08-005.000
|
PROP DESC: 1.9 ACRES & DWL
|
911 ADDR: 689 TIGERTOWN RD
|
PARCEL ID: 08-005.000 SPAN: 450-142-12841
|
HOUSESITE:
255,500
ACRES:
1.90 R1 T
|GRAND LIST
2,555.00
2,555.00
-----------------------------------------------------------------------------------------------------------------------------------BUSHELL ROBERT
HMSTD FILED |
MUNICIPAL
HOMESTEAD
NON-RESIDENTIAL
LAMPERTI NOELLE
|LAND
85,900
252 UPPER LOVELAND RD
|BUILDING
385,300
|TOTAL REAL
471,200
471,200
NORWICH VT 05055
|SPEC EXEMPTION
0
TAX MAP:
11-159.100
|
PROP DESC: 5.14 ACRES & DWL
|
911 ADDR: 252 UPPER LOVELAND RD
|
PARCEL ID: 11-159.100 SPAN: 450-142-13227
|
HOUSESITE:
458,600
ACRES:
5.14 R1 T
|GRAND LIST
4,712.00
4,712.00
------------------------------------------------------------------------------------------------------------------------------------
06/12/2015
01:32 pm
Town of Norwich Grand List
Grand List Report (Detail)
By Name For All Parcels In All Districts
Page 38
jbynum
PARCEL INFORMATION
TAXABLE VALUATIONS / EXEMPTIONS / CONTRACTS
-----------------------------------------------------------------------------------------------------------------------------------BUTLER JUDITH W TRUST
HMSTD FILED |
MUNICIPAL
HOMESTEAD
NON-RESIDENTIAL
|LAND
95,300
37 SARGENT ST
|BUILDING
198,500
|TOTAL REAL
293,800
293,800
NORWICH VT 05055
|SPEC EXEMPTION
0
TAX MAP:
20-091.000
|
PROP DESC: .32 ACRE & DWL
|
911 ADDR: 37 SARGENT ST
|
PARCEL ID: 20-091.000 SPAN: 450-142-12791
|
HOUSESITE:
293,800
ACRES:
0.32 R1 T
|GRAND LIST
2,938.00
2,938.00
-----------------------------------------------------------------------------------------------------------------------------------BUTLER MARTIN
HMSTD FILED |
MUNICIPAL
HOMESTEAD
NON-RESIDENTIAL
BUTLER JILL R
|LAND
223,000
56 DOUGLAS LN
|BUILDING
605,100
|TOTAL REAL
828,100
828,100
NORWICH VT 05055
|SPEC EXEMPTION
0
TAX MAP:
10-133.300
|
PROP DESC: 23.7 ACRES & DWL
|
911 ADDR: 56 DOUGLAS LN
|
PARCEL ID: 10-133.300 SPAN: 450-142-11910
|
HOUSESITE:
761,300
ACRES:
23.70 R2 T
|GRAND LIST
8,281.00
8,281.00
-----------------------------------------------------------------------------------------------------------------------------------BUTLER SHEPARD
HMSTD FILED |
MUNICIPAL
HOMESTEAD
NON-RESIDENTIAL
|LAND
145,600
1635 TUCKER HILL RD
|BUILDING
258,300
|TOTAL REAL
403,900
403,900
THETFORD CENTER VT 05075
|SPEC EXEMPTION
0
TAX MAP:
20-200.000
|
PROP DESC: .52 ACRE & DWL
|
911 ADDR: 400 MAIN ST
|
PARCEL ID: 20-200.000 SPAN: 450-142-12433
|
HOUSESITE:
403,900
ACRES:
0.52 R1 T
|GRAND LIST
4,039.00
4,039.00
-----------------------------------------------------------------------------------------------------------------------------------BUTTERLY JOHN
HMSTD FILED |
MUNICIPAL
HOMESTEAD
NON-RESIDENTIAL
BUTTERLY LYNN
|LAND
163,300
196 DOUGLAS RD
|BUILDING
939,500
|TOTAL REAL
1102,800
1102,800
NORWICH VT 05055-9649
|SPEC EXEMPTION
0
TAX MAP:
10-144.200
|
PROP DESC: 10.1 ACRES & DWL
|
911 ADDR: 196 DOUGLAS RD
|
PARCEL ID: 10-144.200 SPAN: 450-142-11917
|
HOUSESITE:
1077,900
ACRES:
10.10 R2 T
|GRAND LIST
11,028.00
11,028.00
-----------------------------------------------------------------------------------------------------------------------------------BYNUM JONATHAN
HMSTD FILED |
MUNICIPAL
HOMESTEAD
NON-RESIDENTIAL
BYNUM JULIE
|LAND
124,900
95 MEETINGHOUSE RD
|BUILDING
438,000
|TOTAL REAL
562,900
562,900
NORWICH VT 05055
|SPEC EXEMPTION
0
TAX MAP:
05-132.000
|
PROP DESC: 10.1 ACRES & DWL
|
911 ADDR: 95 MEETINGHOUSE RD
|
PARCEL ID: 05-132.000 SPAN: 450-142-12345
|
HOUSESITE:
539,600
ACRES:
10.10 R2 T
|GRAND LIST
5,629.00
5,629.00
------------------------------------------------------------------------------------------------------------------------------------
06/12/2015
01:32 pm
Town of Norwich Grand List
Grand List Report (Detail)
By Name For All Parcels In All Districts
Page 39
jbynum
PARCEL INFORMATION
TAXABLE VALUATIONS / EXEMPTIONS / CONTRACTS
-----------------------------------------------------------------------------------------------------------------------------------BYRD AMES 2001 REVOCABLE TRUST
HMSTD FILED |
MUNICIPAL
HOMESTEAD
NON-RESIDENTIAL
|LAND
136,000
44 TILDEN HILL RD
|BUILDING
451,300
|TOTAL REAL
587,300
587,300
NORWICH VT 05055-9572
|SPEC EXEMPTION
0
TAX MAP:
10-068.000
|
PROP DESC: 4 ACRES & DWL
|
911 ADDR: 44 TILDEN HILL RD
|
PARCEL ID: 10-068.000 SPAN: 450-142-12855
|
HOUSESITE:
578,300
ACRES:
4.00 R1 T
|GRAND LIST
5,873.00
5,873.00
-----------------------------------------------------------------------------------------------------------------------------------CABRI MARIA
|
MUNICIPAL
HOMESTEAD
NON-RESIDENTIAL
|LAND
109,600
PO BOX 281
|BUILDING
175,300
|TOTAL REAL
284,900
284,900
SOUTH STRAFFORD VT 05070-0281
|SPEC EXEMPTION
0
TAX MAP:
20-184.000
|
PROP DESC: .23 ACRE & DWL
|
911 ADDR: 38 CLIFF ST
|
PARCEL ID: 20-184.000 SPAN: 450-142-11881
|
HOUSESITE:
284,900
ACRES:
0.23 R1 S
|GRAND LIST
2,849.00
2,849.00
-----------------------------------------------------------------------------------------------------------------------------------CADIGAN DORIS
|
MUNICIPAL
HOMESTEAD
NON-RESIDENTIAL
CADIGAN ROBERT
|LAND
98,100
107 BACON ST
|BUILDING
182,300
|TOTAL REAL
280,400
280,400
NATICK MA 01760
|SPEC EXEMPTION
0
TAX MAP:
05-056.000
|
PROP DESC: 1.85 ACRES & DWL/APT
|
911 ADDR: 65 ACADEMY RD
|
PARCEL ID: 05-056.000 SPAN: 450-142-13074
|
HOUSESITE:
232,100
ACRES:
1.85 R1 NS
|GRAND LIST
2,804.00
2,804.00
-----------------------------------------------------------------------------------------------------------------------------------CADOW CONSTANCE
HMSTD FILED |
MUNICIPAL
HOMESTEAD
NON-RESIDENTIAL
|LAND
154,200
65 CARPENTER ST
|BUILDING
181,000
|TOTAL REAL
335,200
335,200
NORWICH VT 05055
|SPEC EXEMPTION
0
TAX MAP:
16-031.000
|
PROP DESC: 0.66 ACRE & DWL
|
911 ADDR: 65 CARPENTER ST
|
PARCEL ID: 16-031.000 SPAN: 450-142-11796
|
HOUSESITE:
335,200
ACRES:
0.66 R1 T
|GRAND LIST
3,352.00
3,352.00
-----------------------------------------------------------------------------------------------------------------------------------CADOW KENNETH M
HMSTD FILED |
MUNICIPAL
HOMESTEAD
NON-RESIDENTIAL
CADOW LISA L.
|LAND
180,400
261 RTE 132
|BUILDING
506,000
|TOTAL REAL
686,400
650,980
35,420
NORWICH VT 05055
|SPEC EXEMPTION
0
0
TAX MAP:
06-054.000
|
PROP DESC: 12.84 ACRES & DWL
|
911 ADDR: 261 VT ROUTE 132
|
PARCEL ID: 06-054.000 SPAN: 450-142-12769
|
HOUSESITE:
617,780
ACRES:
12.84 R2 T
|GRAND LIST
6,864.00
6,509.80
354.20
------------------------------------------------------------------------------------------------------------------------------------
06/12/2015
01:32 pm
Town of Norwich Grand List
Grand List Report (Detail)
By Name For All Parcels In All Districts
Page 40
jbynum
PARCEL INFORMATION
TAXABLE VALUATIONS / EXEMPTIONS / CONTRACTS
-----------------------------------------------------------------------------------------------------------------------------------CAHILLANE SARA
|
MUNICIPAL
HOMESTEAD
NON-RESIDENTIAL
|LAND
63,200
8 NORTH ST
|BUILDING
0
|TOTAL REAL
63,200
63,200
WHATELY MA 01093
|SPEC EXEMPTION
0
TAX MAP:
09-006.000
|
PROP DESC: 2.7 ACRES
|
911 ADDR: RUELLA RD
|
PARCEL ID: 09-006.000 SPAN: 450-142-12268
|
HOUSESITE:
0
ACRES:
2.70 M
NS
|GRAND LIST
632.00
632.00
-----------------------------------------------------------------------------------------------------------------------------------CAHOON MICHAEL L TRUSTEE
HMSTD FILED |
MUNICIPAL
HOMESTEAD
NON-RESIDENTIAL
CAHOON SASHA C TRUSTEE
|LAND
121,500
370 NEW BOSTON RD
|BUILDING
408,500
|TOTAL REAL
530,000
530,000
NORWICH VT 05055
|SPEC EXEMPTION
0
TAX MAP:
10-176.000
|
PROP DESC: 7.7 ACRES & DWL
|
911 ADDR: 370 NEW BOSTON RD
|
PARCEL ID: 10-176.000 SPAN: 450-142-12282
|
HOUSESITE:
512,400
ACRES:
7.70 R2 T
|GRAND LIST
5,300.00
5,300.00
-----------------------------------------------------------------------------------------------------------------------------------CALANDRELLA LEONARD N
HMSTD FILED |
MUNICIPAL
HOMESTEAD
NON-RESIDENTIAL
MCDONOUGH CHRISTINE M
|LAND
96,600
66 HUNTLEY ST
|BUILDING
241,500
|TOTAL REAL
338,100
338,100
NORWICH VT 05055
|SPEC EXEMPTION
0
TAX MAP:
20-086.000
|
PROP DESC: .35 ACRE & DWL
|
911 ADDR: 66 HUNTLEY ST
|
PARCEL ID: 20-086.000 SPAN: 450-142-12092
|
HOUSESITE:
338,100
ACRES:
0.35 R1 T
|GRAND LIST
3,381.00
3,381.00
-----------------------------------------------------------------------------------------------------------------------------------CALLAGHAN ANDREW CAREY
|
MUNICIPAL
HOMESTEAD
NON-RESIDENTIAL
CALLAGHAN DEBORAH A
|LAND
215,400
9 NORTH PARK STREET
|BUILDING
1185,500
|TOTAL REAL
1400,900
1400,900
HANOVER NH 03755
|SPEC EXEMPTION
0
TAX MAP:
10-188.000
|
PROP DESC: 7.5 ACRES & DWL
|
911 ADDR: 16 OLCOTT RD
|
PARCEL ID: 10-188.000 SPAN: 450-142-13013
|
HOUSESITE:
1379,400
ACRES:
7.50 R2 T
|GRAND LIST
14,009.00
14,009.00
-----------------------------------------------------------------------------------------------------------------------------------CALLAGHAN DEBORAH A
|
MUNICIPAL
HOMESTEAD
NON-RESIDENTIAL
|LAND
235,800
9 NORTH PARK STREET
|BUILDING
0
|TOTAL REAL
235,800
235,800
HANOVER NH 03755
|SPEC EXEMPTION
0
TAX MAP:
10-189.000
|
PROP DESC: 31.4 ACRES
|
911 ADDR: OLCOTT RD
|
PARCEL ID: 10-189.000 SPAN: 450-142-13012
|
HOUSESITE:
0
ACRES:
33.00 M
T
|GRAND LIST
2,358.00
2,358.00
------------------------------------------------------------------------------------------------------------------------------------
06/12/2015
01:32 pm
Town of Norwich Grand List
Grand List Report (Detail)
By Name For All Parcels In All Districts
Page 41
jbynum
PARCEL INFORMATION
TAXABLE VALUATIONS / EXEMPTIONS / CONTRACTS
-----------------------------------------------------------------------------------------------------------------------------------CALLAHAN CLARK R
HMSTD FILED |
MUNICIPAL
HOMESTEAD
NON-RESIDENTIAL
CALLAHAN THERA S
|LAND
129,500
85 DOUGLAS RD
|BUILDING
418,000
|TOTAL REAL
547,500
547,500
NORWICH VT 05055
|SPEC EXEMPTION
0
TAX MAP:
10-128.000
|
PROP DESC: 2 ACRES & DWL
|
911 ADDR: 85 DOUGLAS RD
|
PARCEL ID: 10-128.000 SPAN: 450-142-11896
|
HOUSESITE:
547,500
ACRES:
2.00 R1 T
|GRAND LIST
5,475.00
5,475.00
-----------------------------------------------------------------------------------------------------------------------------------CALLAWAY DAVID B
HMSTD FILED |
MUNICIPAL
HOMESTEAD
NON-RESIDENTIAL
|LAND
90,800
169 CHURCH ST
|BUILDING
173,200
|TOTAL REAL
264,000
264,000
NORWICH VT 05055
|SPEC EXEMPTION
0
TAX MAP:
16-018.000
|
PROP DESC: 1.12 ACRE & DWL
|
911 ADDR: 169 CHURCH ST
|
PARCEL ID: 16-018.000 SPAN: 450-142-11866
|
HOUSESITE:
264,000
ACRES:
1.12 R1 T
|GRAND LIST
2,640.00
2,640.00
-----------------------------------------------------------------------------------------------------------------------------------CALLOWAY COLIN
HMSTD FILED |
MUNICIPAL
HOMESTEAD
NON-RESIDENTIAL
CALLOWAY MARCIA
|LAND
128,300
PO BOX 1207
|BUILDING
325,200
|TOTAL REAL
453,500
453,500
NORWICH VT 05055-1207
|SPEC EXEMPTION
0
TAX MAP:
15-058.000
|
PROP DESC: 2 ACRES & DWL
|
911 ADDR: 17 HOPSON LN
|
PARCEL ID: 15-058.000 SPAN: 450-142-12080
|
HOUSESITE:
453,500
ACRES:
2.00 R1 T
|GRAND LIST
4,535.00
4,535.00
-----------------------------------------------------------------------------------------------------------------------------------CALSBEEK RYAN G
HMSTD FILED |
MUNICIPAL
HOMESTEAD
NON-RESIDENTIAL
CALSBEEK BRITTNY L
|LAND
153,200
1407 TURNPIKE RD
|BUILDING
218,700
|TOTAL REAL
371,900
371,900
NORWICH VT 05055
|SPEC EXEMPTION
0
TAX MAP:
04-007.000
|
PROP DESC: 10.1 ACRES & DWL
|
911 ADDR: 1407 TURNPIKE RD
|
PARCEL ID: 04-007.000 SPAN: 450-142-12979
|
HOUSESITE:
345,700
ACRES:
10.10 R2 T
|GRAND LIST
3,719.00
3,719.00
-----------------------------------------------------------------------------------------------------------------------------------CAMERON CYNTHIA J
HMSTD FILED |
MUNICIPAL
HOMESTEAD
NON-RESIDENTIAL
|LAND
73,300
122 MITCHELL BROOK RD
|BUILDING
120,500
|TOTAL REAL
193,800
193,800
SHARON VT 05065
|SPEC EXEMPTION
0
TAX MAP:
03-014.000
|
PROP DESC: 1.9 ACRES & DWL
|
911 ADDR: 122 MITCHELL BROOK RD
|
PARCEL ID: 03-014.000 SPAN: 450-142-12265
|
HOUSESITE:
193,800
ACRES:
1.90 R1 T
|GRAND LIST
1,938.00
1,938.00
------------------------------------------------------------------------------------------------------------------------------------
06/12/2015
01:32 pm
Town of Norwich Grand List
Grand List Report (Detail)
By Name For All Parcels In All Districts
Page 42
jbynum
PARCEL INFORMATION
TAXABLE VALUATIONS / EXEMPTIONS / CONTRACTS
-----------------------------------------------------------------------------------------------------------------------------------CAMPBELL ANDREW
HMSTD FILED |
MUNICIPAL
HOMESTEAD
NON-RESIDENTIAL
ZAK SUSAN
|LAND
129,900
948 TURNPIKE RD
|BUILDING
381,500
|TOTAL REAL
511,400
511,400
NORWICH VT 05055
|SPEC EXEMPTION
0
TAX MAP:
10-094.000
|
PROP DESC: 2.5 ACRES & DWL
|
911 ADDR: 948 TURNPIKE RD
|
PARCEL ID: 10-094.000 SPAN: 450-142-12949
|
HOUSESITE:
509,400
ACRES:
2.50 R1 T
|GRAND LIST
5,114.00
5,114.00
-----------------------------------------------------------------------------------------------------------------------------------CAMPBELL COLIN D TRUSTEE
|
MUNICIPAL
HOMESTEAD
NON-RESIDENTIAL
ROSEMARY G CAMPBELL LIVING TR
|LAND
244,300
53 LYME RD
|BUILDING
35,000
|TOTAL REAL
279,300
279,300
HANOVER NH 03755-1216
|SPEC EXEMPTION
0
TAX MAP:
03-027.000
|
PROP DESC: 78.8 ACRES & DWL
|
911 ADDR: 65 SUGARHOUSE RD
|
PARCEL ID: 03-027.000 SPAN: 450-142-12253
|
HOUSESITE:
106,400
ACRES:
78.80 S2 NS
|GRAND LIST
2,793.00
2,793.00
-----------------------------------------------------------------------------------------------------------------------------------CAMPBELL DOUGLAS
HMSTD FILED |
MUNICIPAL
HOMESTEAD
NON-RESIDENTIAL
CAMPBELL BETTY
|LAND
112,800
8 NORFORD LAKE RD
|BUILDING
174,800
|TOTAL REAL
287,600
287,600
NORWICH VT 05055-9657
|SPEC EXEMPTION
0
TAX MAP:
05-126.000
|
PROP DESC: 6.9 ACRES & DWL
|
911 ADDR: 8 NORFORD LAKE RD
|
PARCEL ID: 05-126.000 SPAN: 450-142-12148
|
HOUSESITE:
277,800
ACRES:
6.90 R2 T
|GRAND LIST
2,876.00
2,876.00
-----------------------------------------------------------------------------------------------------------------------------------CAMPFIELD JUSTIN M
HMSTD FILED |
MUNICIPAL
HOMESTEAD
NON-RESIDENTIAL
CAMPFIELD LAURA H
|LAND
101,400
69 HUNTLEY ST
|BUILDING
281,300
|TOTAL REAL
382,700
382,700
NORWICH VT 05055
|SPEC EXEMPTION
0
TAX MAP:
20-069.200
|
PROP DESC: .46 ACRES & DWL
|
911 ADDR: 69 HUNTLEY ST
|
PARCEL ID: 20-069.200 SPAN: 450-142-12101
|
HOUSESITE:
382,700
ACRES:
0.46 R1 T
|GRAND LIST
3,827.00
3,827.00
-----------------------------------------------------------------------------------------------------------------------------------CANADA LAURA
HMSTD FILED |
MUNICIPAL
HOMESTEAD
NON-RESIDENTIAL
|LAND
176,300
741 PATTRELL RD
|BUILDING
353,000
|TOTAL REAL
529,300
529,300
NORWICH VT 05055
|SPEC EXEMPTION
0
TAX MAP:
05-112.000
|
PROP DESC: 17.31 ACRES & DWL
|
911 ADDR: 741 PATTRELL RD
|
PARCEL ID: 05-112.000 SPAN: 450-142-12517
|
HOUSESITE:
480,000
ACRES:
17.31 R2 T
|GRAND LIST
5,293.00
5,293.00
------------------------------------------------------------------------------------------------------------------------------------
06/12/2015
01:32 pm
Town of Norwich Grand List
Grand List Report (Detail)
By Name For All Parcels In All Districts
Page 43
jbynum
PARCEL INFORMATION
TAXABLE VALUATIONS / EXEMPTIONS / CONTRACTS
-----------------------------------------------------------------------------------------------------------------------------------CANDON JOHN C
HMSTD FILED |
MUNICIPAL
HOMESTEAD
NON-RESIDENTIAL
CANDON MARTHA P
|LAND
119,000
PO BOX 45
|BUILDING
263,100
|TOTAL REAL
382,100
382,100
NORWICH VT 05055-0045
|SPEC EXEMPTION
0
TAX MAP:
20-107.000
|
PROP DESC: .41 ACRE & DWL
|
911 ADDR: 196 BEAVER MEADOW RD
|
PARCEL ID: 20-107.000 SPAN: 450-142-12215
|
HOUSESITE:
382,100
ACRES:
0.41 R1 T
|GRAND LIST
3,821.00
3,821.00
-----------------------------------------------------------------------------------------------------------------------------------CANDON THOMAS
HMSTD FILED |
MUNICIPAL
HOMESTEAD
NON-RESIDENTIAL
CANDON SAMATHA
|LAND
115,300
1183 UNION VILLAGE RD
|BUILDING
327,300
|TOTAL REAL
442,600
397,300
45,300
NORWICH VT 05055
|SPEC EXEMPTION
0
0
TAX MAP:
05-075.000
|
PROP DESC: 5.74 ACRES & DWL/APT
|
911 ADDR: 1183 UNION VILLAGE RD
|
PARCEL ID: 05-075.000 SPAN: 450-142-13056
|
HOUSESITE:
381,300
ACRES:
5.74 R1 T
|GRAND LIST
4,426.00
3,973.00
453.00
-----------------------------------------------------------------------------------------------------------------------------------CANTLIN HEATHER
HMSTD FILED |
MUNICIPAL
HOMESTEAD
NON-RESIDENTIAL
|LAND
109,600
32 CLIFF ST
|BUILDING
126,800
|TOTAL REAL
236,400
236,400
NORWICH VT 05055
|SPEC EXEMPTION
0
TAX MAP:
20-185.000
|
PROP DESC: 0.23 ACRE & DWL
|
911 ADDR: 32 CLIFF ST
|
PARCEL ID: 20-185.000 SPAN: 450-142-11879
|
HOUSESITE:
236,400
ACRES:
0.23 R1 T
|GRAND LIST
2,364.00
2,364.00
-----------------------------------------------------------------------------------------------------------------------------------CANTOR MARGERY
HMSTD FILED |
MUNICIPAL
HOMESTEAD
NON-RESIDENTIAL
|LAND
136,800
P O BOX 177
|BUILDING
190,400
|TOTAL REAL
327,200
327,200
NORWICH VT 05055
|SPEC EXEMPTION
0
TAX MAP:
11-012.000
|
PROP DESC: 3.62 ACRES & DWL
|
911 ADDR: 359 UNION VILLAGE RD
|
PARCEL ID: 11-012.000 SPAN: 450-142-13015
|
HOUSESITE:
319,900
ACRES:
3.62 R1 T
|GRAND LIST
3,272.00
3,272.00
-----------------------------------------------------------------------------------------------------------------------------------CARDENALI H JAMES
HMSTD FILED |
MUNICIPAL
HOMESTEAD
NON-RESIDENTIAL
|LAND
129,200
539 BRADLEY HILL RD
|BUILDING
116,700
|TOTAL REAL
245,900
245,900
NORWICH VT 05055
|SPEC EXEMPTION
0
TAX MAP:
05-120.000
|
PROP DESC: 9.2 ACRES & DWL
|
911 ADDR: 539 BRADLEY HILL RD
|
PARCEL ID: 05-120.000 SPAN: 450-142-11652
|
HOUSESITE:
219,400
ACRES:
9.20 R2 T
|GRAND LIST
2,459.00
2,459.00
------------------------------------------------------------------------------------------------------------------------------------
06/12/2015
01:32 pm
Town of Norwich Grand List
Grand List Report (Detail)
By Name For All Parcels In All Districts
Page 44
jbynum
PARCEL INFORMATION
TAXABLE VALUATIONS / EXEMPTIONS / CONTRACTS
-----------------------------------------------------------------------------------------------------------------------------------CARLETON FAMILY TRUST BUKK G III
|
MUNICIPAL
HOMESTEAD
NON-RESIDENTIAL
KNOWLES L TRUSTEE
|LAND
209,500
21 TECHNOLOGY DR
|BUILDING
185,500
|TOTAL REAL
395,000
395,000
WEST LEBANON NH 03784-1673
|SPEC EXEMPTION
0
TAX MAP:
10-032.000
|
PROP DESC: 29.3 ACRES & DWL & ADDL LOT
|
911 ADDR: 714 BEAVER MEADOW RD
|
PARCEL ID: 10-032.000 SPAN: 450-142-11591
|
HOUSESITE:
315,000
ACRES:
29.30 R2 NS
|GRAND LIST
3,950.00
3,950.00
-----------------------------------------------------------------------------------------------------------------------------------CARLSON ELIZABETH B TRUSTEE
|
MUNICIPAL
HOMESTEAD
NON-RESIDENTIAL
ELIZABETH B CARLSON LIVING TR
|LAND
167,200
502 PLAZA RUBIO
|BUILDING
249,100
|TOTAL REAL
416,300
416,300
SANTA BARBARA CA 93103
|SPEC EXEMPTION
0
TAX MAP:
11-018.000
|
PROP DESC: 3.42 ACRES & DWL
|
911 ADDR: 66 OLD COACH RD
|
PARCEL ID: 11-018.000 SPAN: 450-142-12485
|
HOUSESITE:
409,900
ACRES:
3.42 R1 NS
|GRAND LIST
4,163.00
4,163.00
-----------------------------------------------------------------------------------------------------------------------------------CARROLL CHRISTOPHER R
HMSTD FILED |
MUNICIPAL
HOMESTEAD
NON-RESIDENTIAL
CARROLL PATRICIA J
|LAND
141,800
429 NEW BOSTON RD
|BUILDING
285,300
|TOTAL REAL
427,100
427,100
NORWICH VT 05055
|SPEC EXEMPTION
0
TAX MAP:
10-157.200
|
PROP DESC: 13.39 ACRES & DWL
|
911 ADDR: 429 NEW BOSTON RD
|
PARCEL ID: 10-157.200 SPAN: 450-142-12286
|
HOUSESITE:
388,700
ACRES:
13.39 R2 T
|GRAND LIST
4,271.00
4,271.00
-----------------------------------------------------------------------------------------------------------------------------------CARROLL JOHN
HMSTD FILED |
MUNICIPAL
HOMESTEAD
NON-RESIDENTIAL
CARROLL NANCY
|LAND
264,600
PO BOX 305
|BUILDING
706,900
|TOTAL REAL
971,500
971,500
NORWICH VT 05055-0305
|SPEC EXEMPTION
0
TAX MAP:
06-017.000
|
PROP DESC: 11.4 ACRES & DWL & 2 ADDL LOTS
|
911 ADDR: 345 CAMPBELL FLATS RD
|
PARCEL ID: 06-017.000 SPAN: 450-142-11768
|
HOUSESITE:
859,700
ACRES:
11.40 R2 T
|GRAND LIST
9,715.00
9,715.00
-----------------------------------------------------------------------------------------------------------------------------------CARTER DANIEL
HMSTD FILED |
MUNICIPAL
HOMESTEAD
NON-RESIDENTIAL
|LAND
96,400
416 HOPSON RD
|BUILDING
260,500
|TOTAL REAL
356,900
209,500
147,400
NORWICH VT 05055
|SPEC EXEMPTION
0
0
TAX MAP:
15-044.000
|
PROP DESC: 0.59 ACRE & DWLG & 2 APTS
|
911 ADDR: 416 HOPSON RD
|
PARCEL ID: 15-044.000 SPAN: 450-142-12083
|
HOUSESITE:
209,500
ACRES:
0.59 R1 T
|GRAND LIST
3,569.00
2,095.00
1,474.00
------------------------------------------------------------------------------------------------------------------------------------
06/12/2015
01:32 pm
Town of Norwich Grand List
Grand List Report (Detail)
By Name For All Parcels In All Districts
Page 45
jbynum
PARCEL INFORMATION
TAXABLE VALUATIONS / EXEMPTIONS / CONTRACTS
-----------------------------------------------------------------------------------------------------------------------------------CARTER PETER
HMSTD FILED |
MUNICIPAL
HOMESTEAD
NON-RESIDENTIAL
CARTER DEBORAH M
|LAND
151,600
55 BRAMBLE LN
|BUILDING
289,000
|TOTAL REAL
440,600
440,600
NORWICH VT 05055
|SPEC EXEMPTION
0
TAX MAP:
04-025.000
|
PROP DESC: 10 ACRES & DWL
|
911 ADDR: 55 BRAMBLE LN
|
PARCEL ID: 04-025.000 SPAN: 450-142-12976
|
HOUSESITE:
414,700
ACRES:
10.00 R2 T
|GRAND LIST
4,406.00
4,406.00
-----------------------------------------------------------------------------------------------------------------------------------CASHDAN LISA GAY TRUSTEE
HMSTD FILED |
MUNICIPAL
HOMESTEAD
NON-RESIDENTIAL
STEIN PETER RICHARD TRUSTEE
|LAND
158,100
73 NEEDHAM RD
|BUILDING
513,900
|TOTAL REAL
672,000
672,000
NORWICH VT 05055
|SPEC EXEMPTION
0
TAX MAP:
04-037.000
|
PROP DESC: 10.7 ACRES & DWL
|
911 ADDR: 73 NEEDHAM RD
|
PARCEL ID: 04-037.000 SPAN: 450-142-13128
|
HOUSESITE:
641,200
ACRES:
10.70 R2 T
|GRAND LIST
6,720.00
6,720.00
-----------------------------------------------------------------------------------------------------------------------------------CATHERWOOD EDWARD
HMSTD FILED |
MUNICIPAL
HOMESTEAD
NON-RESIDENTIAL
CATHERWOOD TERRI L
|LAND
298,300
354 DUTTON HILL RD
|BUILDING
1135,600
|TOTAL REAL
1433,900
1433,900
NORWICH VT 05055
|SPEC EXEMPTION
0
TAX MAP:
10-012.300
|
PROP DESC: 34.9 ACRES & DWL
|
911 ADDR: 354 DUTTON HILL WEST
|
PARCEL ID: 10-012.300 SPAN: 450-142-11935
|
HOUSESITE:
1336,600
ACRES:
34.90 R2 T
|GRAND LIST
14,339.00
14,339.00
-----------------------------------------------------------------------------------------------------------------------------------CAVIN HELEN E
|
MUNICIPAL
HOMESTEAD
NON-RESIDENTIAL
|LAND
127,600
PO BOX 207
|BUILDING
395,300
|TOTAL REAL
522,900
522,900
NORWICH VT 05055
|SPEC EXEMPTION
0
TAX MAP:
10-014.000
|
PROP DESC: 1.57 ACRES & DWL
|
911 ADDR: 80 GLEN RIDGE RD
|
PARCEL ID: 10-014.000 SPAN: 450-142-11982
|
HOUSESITE:
459,900
ACRES:
1.57 R1 T
|GRAND LIST
5,229.00
5,229.00
-----------------------------------------------------------------------------------------------------------------------------------CHAMPLIN SUZANNE
HMSTD FILED |
MUNICIPAL
HOMESTEAD
NON-RESIDENTIAL
|LAND
90,400
34 JONES CIR
|BUILDING
180,700
|TOTAL REAL
271,100
271,100
NORWICH VT 05055-9468
|SPEC EXEMPTION
0
TAX MAP:
20-284.000
|
PROP DESC: .21 ACRE & DWL
|
911 ADDR: 34 JONES CIR
|
PARCEL ID: 20-284.000 SPAN: 450-142-12112
|
HOUSESITE:
271,100
ACRES:
0.21 R1 T
|GRAND LIST
2,711.00
2,711.00
------------------------------------------------------------------------------------------------------------------------------------
06/12/2015
01:32 pm
Town of Norwich Grand List
Grand List Report (Detail)
By Name For All Parcels In All Districts
Page 46
jbynum
PARCEL INFORMATION
TAXABLE VALUATIONS / EXEMPTIONS / CONTRACTS
-----------------------------------------------------------------------------------------------------------------------------------CHAPMAN CYNTHIA M
|
MUNICIPAL
HOMESTEAD
NON-RESIDENTIAL
|LAND
151,900
PO BOX 615
|BUILDING
818,900
|TOTAL REAL
970,800
970,800
NORWICH VT 05055-0615
|SPEC EXEMPTION
0
TAX MAP:
05-108.000
|
PROP DESC: 10.7 ACRES & DWL
|
911 ADDR: 165 PATTRELL RD
|
PARCEL ID: 05-108.000 SPAN: 450-142-12504
|
HOUSESITE:
940,000
ACRES:
10.70 R2 T
|GRAND LIST
9,708.00
9,708.00
-----------------------------------------------------------------------------------------------------------------------------------CHARKINS HOPE E
HMSTD FILED |
MUNICIPAL
HOMESTEAD
NON-RESIDENTIAL
|LAND
88,900
PO BOX 683
|BUILDING
225,300
|TOTAL REAL
314,200
314,200
NORWICH VT 05055-0683
|SPEC EXEMPTION
0
TAX MAP:
20-090.000
|
PROP DESC: .40 ACRE & DWL
|
911 ADDR: 35 SARGENT ST
|
PARCEL ID: 20-090.000 SPAN: 450-142-12789
|
HOUSESITE:
314,200
ACRES:
0.40 R1 T
|GRAND LIST
3,142.00
3,142.00
-----------------------------------------------------------------------------------------------------------------------------------CHASE MAUREEN
|
MUNICIPAL
HOMESTEAD
NON-RESIDENTIAL
|LAND
0
31 STARLAKE LN
|BUILDING
104,700
|TOTAL REAL
104,700
104,700
NORWICH VT 05055
|SPEC EXEMPTION
0
TAX MAP:
12-003.220
|
PROP DESC: DWELLING ONLY LOT 2
|
911 ADDR: 31 STARLAKE LN
|
PARCEL ID: 12-003.220 SPAN: 450-142-12690
|
HOUSESITE:
104,700
ACRES:
0.00 R1 T
|GRAND LIST
1,047.00
1,047.00
-----------------------------------------------------------------------------------------------------------------------------------CHASE NANCY
HMSTD FILED |
MUNICIPAL
HOMESTEAD
NON-RESIDENTIAL
|LAND
141,200
PO BOX 684
|BUILDING
358,700
|TOTAL REAL
499,900
499,900
NORWICH VT 05055-0684
|SPEC EXEMPTION
0
TAX MAP:
11-052.200
|
PROP DESC: 15 ACRES & DWL
|
911 ADDR: 913 UNION VILLAGE RD
|
PARCEL ID: 11-052.200 SPAN: 450-142-13040
|
HOUSESITE:
457,000
ACRES:
15.00 R2 T
|GRAND LIST
4,999.00
4,999.00
-----------------------------------------------------------------------------------------------------------------------------------CHEEKS TERESA L REV LIV TRUST
|
MUNICIPAL
HOMESTEAD
NON-RESIDENTIAL
|LAND
83,900
P O BOX 5
|BUILDING
238,200
|TOTAL REAL
322,100
322,100
BARNARD VT 05091
|SPEC EXEMPTION
0
TAX MAP:
16-019.200
|
PROP DESC: 0.8 ACRE & DWL
|
911 ADDR: 153 CHURCH ST
|
PARCEL ID: 16-019.200 SPAN: 450-142-11864
|
HOUSESITE:
322,100
ACRES:
0.80 R1 S
|GRAND LIST
3,221.00
3,221.00
------------------------------------------------------------------------------------------------------------------------------------
06/12/2015
01:32 pm
Town of Norwich Grand List
Grand List Report (Detail)
By Name For All Parcels In All Districts
Page 47
jbynum
PARCEL INFORMATION
TAXABLE VALUATIONS / EXEMPTIONS / CONTRACTS
-----------------------------------------------------------------------------------------------------------------------------------CHENEY MARGARET R
HMSTD FILED |
MUNICIPAL
HOMESTEAD
NON-RESIDENTIAL
WELCH PETER
|LAND
285,000
PO BOX 521
|BUILDING
517,100
|TOTAL REAL
802,100
802,100
NORWICH VT 05055-0521
|SPEC EXEMPTION
0
TAX MAP:
10-012.100
|
PROP DESC: 30 ACRES & DWL
|
911 ADDR: 608 BRAGG HILL RD
|CURRENT USE
24,700
24,700
PARCEL ID: 10-012.100 SPAN: 450-142-11678
|
HOUSESITE:
718,100
ACRES:
30.00 R2 T
|GRAND LIST
7,774.00
7,774.00
-----------------------------------------------------------------------------------------------------------------------------------CHILDS EDWIN
HMSTD FILED |
MUNICIPAL
HOMESTEAD
NON-RESIDENTIAL
CHILDS JOYCE
|LAND
247,100
PO BOX 171
|BUILDING
324,400
|TOTAL REAL
571,500
571,500
NORWICH VT 05055-0171
|SPEC EXEMPTION
0
TAX MAP:
04-016.000
|
PROP DESC: 85.94 ACRES & DWL INCL 2 ADDL LOTS
|
911 ADDR: 1745 TURNPIKE RD
|CURRENT USE
145,500
145,500
PARCEL ID: 04-016.000 SPAN: 450-142-12999
|
HOUSESITE:
411,300
ACRES:
85.94 R2 T
|GRAND LIST
4,260.00
4,260.00
-----------------------------------------------------------------------------------------------------------------------------------CHIPMAN JONATHAN W
HMSTD FILED |
MUNICIPAL
HOMESTEAD
NON-RESIDENTIAL
RENNIE HOPE W
|LAND
128,600
185 TURNPIKE RD
|BUILDING
190,000
|TOTAL REAL
318,600
318,600
NORWICH VT 05055
|SPEC EXEMPTION
0
TAX MAP:
10-061.000
|
PROP DESC: 1.8 ACRES & DWL
|
911 ADDR: 185 TURNPIKE RD
|
PARCEL ID: 10-061.000 SPAN: 450-142-12904
|
HOUSESITE:
318,600
ACRES:
1.80 R1 T
|GRAND LIST
3,186.00
3,186.00
-----------------------------------------------------------------------------------------------------------------------------------CHOI BYUNG KWON
HMSTD FILED |
MUNICIPAL
HOMESTEAD
NON-RESIDENTIAL
CHOI MI YOO
|LAND
129,600
101 BRIGHAM HILL
|BUILDING
186,600
|TOTAL REAL
316,200
316,200
NORWICH VT 05055
|SPEC EXEMPTION
0
TAX MAP:
10-039.100
|
PROP DESC: 2.01 ACRES & DWL
|
911 ADDR: 101 BRIGHAM HILL RD
|
PARCEL ID: 10-039.100 SPAN: 450-142-11709
|
HOUSESITE:
316,100
ACRES:
2.01 R1 T
|GRAND LIST
3,162.00
3,162.00
-----------------------------------------------------------------------------------------------------------------------------------CHOU TONY
|
MUNICIPAL
HOMESTEAD
NON-RESIDENTIAL
LI FEN
|LAND
72,900
217 CHURCH ST
|BUILDING
132,900
|TOTAL REAL
205,800
205,800
NORWICH VT 05055
|SPEC EXEMPTION
0
TAX MAP:
16-016.000
|
PROP DESC: 0.45 ACRE & DWL
|
911 ADDR: 217 CHURCH ST
|
PARCEL ID: 16-016.000 SPAN: 450-142-11871
|
HOUSESITE:
205,800
ACRES:
0.45 R1 T
|GRAND LIST
2,058.00
2,058.00
------------------------------------------------------------------------------------------------------------------------------------
06/12/2015
01:32 pm
Town of Norwich Grand List
Grand List Report (Detail)
By Name For All Parcels In All Districts
Page 48
jbynum
PARCEL INFORMATION
TAXABLE VALUATIONS / EXEMPTIONS / CONTRACTS
-----------------------------------------------------------------------------------------------------------------------------------CHOW TIMOTHY
HMSTD FILED |
MUNICIPAL
HOMESTEAD
NON-RESIDENTIAL
CHOW LYNNE
|LAND
192,900
164 KENDALL STATION RD
|BUILDING
263,400
|TOTAL REAL
456,300
456,300
NORWICH VT 05055
|SPEC EXEMPTION
0
TAX MAP:
06-069.000
|
PROP DESC: 1.25 ACRES & DWELLING
|
911 ADDR: 164 KENDALL STATION RD
|
PARCEL ID: 06-069.000 SPAN: 450-142-12627
|
HOUSESITE:
456,300
ACRES:
1.25 R1 T
|GRAND LIST
4,563.00
4,563.00
-----------------------------------------------------------------------------------------------------------------------------------CHRISTAKIS ERIKA
|
MUNICIPAL
HOMESTEAD
NON-RESIDENTIAL
CHRISTAKIS NICHOLAS A
|LAND
190,100
88 BLAKE RD
|BUILDING
778,100
|TOTAL REAL
968,200
968,200
HAMDEN CT 06517-3402
|SPEC EXEMPTION
0
TAX MAP:
05-095.100
|
PROP DESC: 11.1 ACRES & DWL
|
911 ADDR: 641 PATTRELL RD
|
PARCEL ID: 05-095.100 SPAN: 450-142-12511
|
HOUSESITE:
720,600
ACRES:
11.10 R2 NS
|GRAND LIST
9,682.00
9,682.00
-----------------------------------------------------------------------------------------------------------------------------------CHRISTIANO ANN
HMSTD FILED |
MUNICIPAL
HOMESTEAD
NON-RESIDENTIAL
|LAND
99,400
1328 NEW BOSTON RD
|BUILDING
238,200
|TOTAL REAL
337,600
337,600
NORWICH VT 05055
|SPEC EXEMPTION
0
TAX MAP:
05-012.000
|
PROP DESC: 4.37 ACRES & DWL & ADDL LOT
|
911 ADDR: 1328 NEW BOSTON RD
|
PARCEL ID: 05-012.000 SPAN: 450-142-12365
|
HOUSESITE:
326,900
ACRES:
4.37 R1 T
|GRAND LIST
3,376.00
3,376.00
-----------------------------------------------------------------------------------------------------------------------------------CHRISTIE JACQUELINE LISA
HMSTD FILED |
MUNICIPAL
HOMESTEAD
NON-RESIDENTIAL
TRIMBLE CHRISTOPHER R
|LAND
132,800
BOX 795
|BUILDING
522,600
|TOTAL REAL
655,400
655,400
NORWICH VT 05055
|SPEC EXEMPTION
0
TAX MAP:
20-058.200
|
PROP DESC: 3 ACRES
|
911 ADDR: 159 DUTTON HILL
|
PARCEL ID: 20-058.200 SPAN: 450-142-13230
|
HOUSESITE:
650,900
ACRES:
3.00 R1 T
|GRAND LIST
6,554.00
6,554.00
-----------------------------------------------------------------------------------------------------------------------------------CHU JEFFREY
HMSTD FILED |
MUNICIPAL
HOMESTEAD
NON-RESIDENTIAL
CHU NICOLE
|LAND
138,600
96 WILLEY HILL RD
|BUILDING
317,000
|TOTAL REAL
455,600
455,600
NORWICH VT 05055
|SPEC EXEMPTION
0
TAX MAP:
11-195.000
|
PROP DESC: 4.03 ACRES & DWL
|
911 ADDR: 96 WILLEY HILL RD
|
PARCEL ID: 11-195.000 SPAN: 450-142-13155
|
HOUSESITE:
446,500
ACRES:
4.03 R1 T
|GRAND LIST
4,556.00
4,556.00
------------------------------------------------------------------------------------------------------------------------------------
06/12/2015
01:32 pm
Town of Norwich Grand List
Grand List Report (Detail)
By Name For All Parcels In All Districts
Page 49
jbynum
PARCEL INFORMATION
TAXABLE VALUATIONS / EXEMPTIONS / CONTRACTS
-----------------------------------------------------------------------------------------------------------------------------------CICCOTELLI ERNEST J
HMSTD FILED |
MUNICIPAL
HOMESTEAD
NON-RESIDENTIAL
CICCOTELLI ETHAN J & DYLAN W
|LAND
179,100
PO BOX 562
|BUILDING
148,600
|TOTAL REAL
327,700
327,700
NORWICH VT 05055
|SPEC EXEMPTION
0
TAX MAP:
09-017.000
|
PROP DESC: 58 ACRES & DWL
|
911 ADDR: 49 TIGERTOWN RD
|CURRENT USE
112,700
112,700
PARCEL ID: 09-017.000 SPAN: 450-142-12823
|
HOUSESITE:
207,800
ACRES:
58.00 R2 T
|GRAND LIST
2,150.00
2,150.00
-----------------------------------------------------------------------------------------------------------------------------------CIMINI CHRISTINE N
HMSTD FILED |
MUNICIPAL
HOMESTEAD
NON-RESIDENTIAL
WEST JESSICA L
|LAND
130,700
69 MEETINGHOUSE RD
|BUILDING
490,200
|TOTAL REAL
620,900
620,900
NORWICH VT 05055-1191
|SPEC EXEMPTION
0
TAX MAP:
05-131.000
|
PROP DESC: 10.1 ACRES & DWL
|
911 ADDR: 69 MEETINGHOUSE RD
|
PARCEL ID: 05-131.000 SPAN: 450-142-12346
|
HOUSESITE:
591,800
ACRES:
10.10 R2 T
|GRAND LIST
6,209.00
6,209.00
-----------------------------------------------------------------------------------------------------------------------------------CLAPP CHRISTOPHER L TRUSTEE
|
MUNICIPAL
HOMESTEAD
NON-RESIDENTIAL
CLAPP ASHLEY T TRUSTEE
|LAND
284,100
37 CHURCH ST
|BUILDING
0
|TOTAL REAL
284,100
284,100
NORWICH VT 05055
|SPEC EXEMPTION
0
TAX MAP:
04-009.000
|
PROP DESC: 77.4 ACRES
|
911 ADDR: TURNPIKE RD
|CURRENT USE
274,200
274,200
PARCEL ID: 04-009.000 SPAN: 450-142-12980
|
HOUSESITE:
0
ACRES:
77.40 M
T
|GRAND LIST
99.00
99.00
-----------------------------------------------------------------------------------------------------------------------------------CLAPP CHRISTOPHER L TRUSTEE
HMSTD FILED |
MUNICIPAL
HOMESTEAD
NON-RESIDENTIAL
CLAPP ASHLEY T TRUSTEE
|LAND
111,700
37 CHURCH ST
|BUILDING
673,100
|TOTAL REAL
784,800
784,800
NORWICH VT 05055
|SPEC EXEMPTION
0
TAX MAP:
20-235.000
|
PROP DESC: .27 ACRE & DWLG/APT
|
911 ADDR: 37 CHURCH ST
|
PARCEL ID: 20-235.000 SPAN: 450-142-11845
|
HOUSESITE:
784,800
ACRES:
0.27 R1 T
|GRAND LIST
7,848.00
7,848.00
-----------------------------------------------------------------------------------------------------------------------------------CLAPP GORDON A
HMSTD FILED |
MUNICIPAL
HOMESTEAD
NON-RESIDENTIAL
|LAND
125,500
862 UNION VILLAGE ROAD
|BUILDING
385,400
|TOTAL REAL
510,900
510,900
NORWICH VT 05055
|SPEC EXEMPTION
0
TAX MAP:
11-050.120
|
PROP DESC: 6 ACRES & DWL
|
911 ADDR: 862 UNION VILLAGE RD
|
PARCEL ID: 11-050.120 SPAN: 450-142-13033
|
HOUSESITE:
494,100
ACRES:
6.00 R2 T
|GRAND LIST
5,109.00
5,109.00
------------------------------------------------------------------------------------------------------------------------------------
06/12/2015
01:32 pm
Town of Norwich Grand List
Grand List Report (Detail)
By Name For All Parcels In All Districts
Page 50
jbynum
PARCEL INFORMATION
TAXABLE VALUATIONS / EXEMPTIONS / CONTRACTS
-----------------------------------------------------------------------------------------------------------------------------------CLARK GEORGE
HMSTD FILED |
MUNICIPAL
HOMESTEAD
NON-RESIDENTIAL
|LAND
141,300
PO BOX 1226
|BUILDING
313,900
|TOTAL REAL
455,200
455,200
NORWICH VT 05055-1226
|SPEC EXEMPTION
0
TAX MAP:
20-279.000
|
PROP DESC: 0.45 ACRE & DWL
|
911 ADDR: 48 ELM ST
|
PARCEL ID: 20-279.000 SPAN: 450-142-11948
|
HOUSESITE:
455,200
ACRES:
0.45 R1 T
|GRAND LIST
4,552.00
4,552.00
-----------------------------------------------------------------------------------------------------------------------------------CLARKSON ROGER
|
MUNICIPAL
HOMESTEAD
NON-RESIDENTIAL
|LAND
122,200
PO BOX 5001
|BUILDING
256,800
|TOTAL REAL
379,000
379,000
HANOVER NH 03755
|SPEC EXEMPTION
0
TAX MAP:
11-101.000
|
PROP DESC: 2.01 ACRES & DWL
|
911 ADDR: 50 BUTTERNUT RD
|
PARCEL ID: 11-101.000 SPAN: 450-142-11723
|
HOUSESITE:
378,900
ACRES:
2.01 R1 NS
|GRAND LIST
3,790.00
3,790.00
-----------------------------------------------------------------------------------------------------------------------------------CLARKSON ROGER TRUSTEE
|
MUNICIPAL
HOMESTEAD
NON-RESIDENTIAL
|LAND
82,400
PO BOX A1
|BUILDING
163,400
|TOTAL REAL
245,800
245,800
HANOVER NH 03755
|SPEC EXEMPTION
0
TAX MAP:
15-040.000
|
PROP DESC: .75 ACRE & DWL
|
911 ADDR: 318 US ROUTE 5 SOUTH
|
PARCEL ID: 15-040.000 SPAN: 450-142-12745
|
HOUSESITE:
245,800
ACRES:
0.75 R1 NS
|GRAND LIST
2,458.00
2,458.00
-----------------------------------------------------------------------------------------------------------------------------------CLELAND MONIQUE
HMSTD FILED |
MUNICIPAL
HOMESTEAD
NON-RESIDENTIAL
|LAND
196,800
PO BOX 217
|BUILDING
231,400
|TOTAL REAL
428,200
428,200
NORWICH VT 05055-0217
|SPEC EXEMPTION
0
TAX MAP:
06-022.000
|
PROP DESC: 31.3 ACRES & DWL
|
911 ADDR: 467 CAMPBELL FLATS RD
|
PARCEL ID: 06-022.000 SPAN: 450-142-11774
|
HOUSESITE:
358,200
ACRES:
31.30 R2 T
|GRAND LIST
4,282.00
4,282.00
-----------------------------------------------------------------------------------------------------------------------------------CLEMENT CHARLES
HMSTD FILED |
MUNICIPAL
HOMESTEAD
NON-RESIDENTIAL
CLEMENT KRISTIN W
|LAND
101,300
PO BOX 882
|BUILDING
296,300
|TOTAL REAL
397,600
397,600
NORWICH VT 05055-0882
|SPEC EXEMPTION
0
TAX MAP:
06-003.300
|
PROP DESC: 4 ACRES & DWL
|
911 ADDR: 80 WATERMAN HILL RD
|
PARCEL ID: 06-003.300 SPAN: 450-142-13140
|
HOUSESITE:
389,500
ACRES:
4.00 R1 T
|GRAND LIST
3,976.00
3,976.00
------------------------------------------------------------------------------------------------------------------------------------
06/12/2015
01:32 pm
Town of Norwich Grand List
Grand List Report (Detail)
By Name For All Parcels In All Districts
Page 51
jbynum
PARCEL INFORMATION
TAXABLE VALUATIONS / EXEMPTIONS / CONTRACTS
-----------------------------------------------------------------------------------------------------------------------------------CLIFFORD KEITH
HMSTD FILED |
MUNICIPAL
HOMESTEAD
NON-RESIDENTIAL
|LAND
113,500
PO BOX 458
|BUILDING
116,600
|TOTAL REAL
230,100
172,100
58,000
NORWICH VT 05055-0458
|SPEC EXEMPTION
0
0
TAX MAP:
04-060.100
|
PROP DESC: 12.1 ACRES & DWL/APT
|
911 ADDR: 1421 NEW BOSTON RD
|
PARCEL ID: 04-060.100 SPAN: 450-142-12371
|
HOUSESITE:
146,400
ACRES:
10.00 R2 T
|GRAND LIST
2,301.00
1,721.00
580.00
-----------------------------------------------------------------------------------------------------------------------------------CLIFFORD KEITH
|
MUNICIPAL
HOMESTEAD
NON-RESIDENTIAL
|LAND
91,300
PO BOX 458
|BUILDING
0
|TOTAL REAL
91,300
91,300
NORWICH VT 05055-0458
|SPEC EXEMPTION
0
TAX MAP:
05-137.200
|
PROP DESC: 2.45 ACRES
|
911 ADDR: 1004 NEW BOSTON RD
|
PARCEL ID: 05-137.200 SPAN: 450-142-13199
|
HOUSESITE:
0
ACRES:
2.45 M
T
|GRAND LIST
913.00
913.00
-----------------------------------------------------------------------------------------------------------------------------------CLIFFORD PROPERTIES INC
|
MUNICIPAL
HOMESTEAD
NON-RESIDENTIAL
C/O JOE HOLLAND
|LAND
94,000
PO BOX 850
|BUILDING
537,100
|TOTAL REAL
631,100
631,100
NORWICH VT 05055-0850
|SPEC EXEMPTION
0
TAX MAP:
15-043.000
|
PROP DESC: .97 ACRE & OFFICE /10 APT
|
911 ADDR: 256 US ROUTE 5 SOUTH
|
PARCEL ID: 15-043.000 SPAN: 450-142-12742
|
HOUSESITE:
0
ACRES:
0.97 CA C
|GRAND LIST
6,311.00
6,311.00
-----------------------------------------------------------------------------------------------------------------------------------CLIFFORD PROPERTIES INC
|
MUNICIPAL
HOMESTEAD
NON-RESIDENTIAL
C/O JOE HOLLAND
|LAND
135,200
PO BOX 850
|BUILDING
204,200
|TOTAL REAL
339,400
339,400
NORWICH VT 05055-0850
|SPEC EXEMPTION
0
TAX MAP:
15-061.000
|
PROP DESC: 12.8 ACRES & 3 APT DWL
|
911 ADDR: 132 US ROUTE 5 SOUTH
|
PARCEL ID: 15-061.000 SPAN: 450-142-12736
|
HOUSESITE:
302,600
ACRES:
12.80 R2 C
|GRAND LIST
3,394.00
3,394.00
-----------------------------------------------------------------------------------------------------------------------------------CLIFFORD PROPERTIES INC
|
MUNICIPAL
HOMESTEAD
NON-RESIDENTIAL
C/O JOE HOLLAND
|LAND
194,600
PO BOX 850
|BUILDING
429,200
|TOTAL REAL
623,800
623,800
NORWICH VT 05055-0850
|SPEC EXEMPTION
0
TAX MAP:
15-062.000
|
PROP DESC: 3.03 ACRES & 5 BLDGS (6 APTS)
|
911 ADDR: 112 US ROUTE 5 SOUTH
|
PARCEL ID: 15-062.000 SPAN: 450-142-12734
|
HOUSESITE:
0
ACRES:
3.03 CA C
|GRAND LIST
6,238.00
6,238.00
------------------------------------------------------------------------------------------------------------------------------------
06/12/2015
01:32 pm
Town of Norwich Grand List
Grand List Report (Detail)
By Name For All Parcels In All Districts
Page 52
jbynum
PARCEL INFORMATION
TAXABLE VALUATIONS / EXEMPTIONS / CONTRACTS
-----------------------------------------------------------------------------------------------------------------------------------CLOSE STUART T
|
MUNICIPAL
HOMESTEAD
NON-RESIDENTIAL
BROWN KRISTIN M
|LAND
121,100
31 CHURCH STREET
|BUILDING
174,100
|TOTAL REAL
295,200
295,200
NORWICH VT 05055
|SPEC EXEMPTION
0
TAX MAP:
20-144.000
|
PROP DESC: .45 ACRE & DWL
|
911 ADDR: 49 TURNPIKE RD
|
PARCEL ID: 20-144.000 SPAN: 450-142-12893
|
HOUSESITE:
295,200
ACRES:
0.45 R1 T
|GRAND LIST
2,952.00
2,952.00
-----------------------------------------------------------------------------------------------------------------------------------CLOSE STUART T
HMSTD FILED |
MUNICIPAL
HOMESTEAD
NON-RESIDENTIAL
BROWN KRISTIN
|LAND
131,100
31 CHURCH ST
|BUILDING
368,300
|TOTAL REAL
499,400
499,400
NORWICH VT 05055
|SPEC EXEMPTION
0
TAX MAP:
20-234.000
|
PROP DESC: .64 ACRE & DWL
|
911 ADDR: 31 CHURCH ST
|
PARCEL ID: 20-234.000 SPAN: 450-142-11844
|
HOUSESITE:
499,400
ACRES:
0.64 R1 T
|GRAND LIST
4,994.00
4,994.00
-----------------------------------------------------------------------------------------------------------------------------------CLUTHE ELEONORE
|
MUNICIPAL
HOMESTEAD
NON-RESIDENTIAL
|LAND
166,600
80 HICKORY RIDGE
|BUILDING
453,800
|TOTAL REAL
620,400
620,400
NORWICH VT 05055
|SPEC EXEMPTION
0
TAX MAP:
20-008.000
|
PROP DESC: 5.6 ACRES & DWL
|
911 ADDR: 80 HICKORY RIDGE
|
PARCEL ID: 20-008.000 SPAN: 450-142-12035
|
HOUSESITE:
362,900
ACRES:
5.60 R1 T
|GRAND LIST
6,204.00
6,204.00
-----------------------------------------------------------------------------------------------------------------------------------COBB JACEY P
|
MUNICIPAL
HOMESTEAD
NON-RESIDENTIAL
BECKETT ROBERT T
|LAND
95,400
44 AZALEA CIRCLE UNIT 9
|BUILDING
0
|TOTAL REAL
95,400
95,400
WHITE RIVER JCT VT 05001
|SPEC EXEMPTION
0
TAX MAP:
05-076.100
|
PROP DESC: 10.5 ACRES
|
911 ADDR: UNION VILLAGE RD
|
PARCEL ID: 05-076.100 SPAN: 450-142-13325
|
HOUSESITE:
0
ACRES:
10.50 M
S
|GRAND LIST
954.00
954.00
-----------------------------------------------------------------------------------------------------------------------------------COCHRAN NANCY
HMSTD FILED |
MUNICIPAL
HOMESTEAD
NON-RESIDENTIAL
FISHER ELLIOT
|LAND
777,500
915 WALLACE RD
|BUILDING
566,100
|TOTAL REAL
1343,600
1343,600
WHITE RIVER JUNCTION VT 05001
|SPEC EXEMPTION
0
TAX MAP:
14-008.000
|
PROP DESC: 249 ACRES & DWL
|
911 ADDR: 915 WALLACE RD
|CURRENT USE
538,400
538,400
PARCEL ID: 14-008.000 SPAN: 450-142-12816
|
HOUSESITE:
667,800
ACRES:
249.00 R2 T
|GRAND LIST
8,052.00
8,052.00
------------------------------------------------------------------------------------------------------------------------------------
06/12/2015
01:32 pm
Town of Norwich Grand List
Grand List Report (Detail)
By Name For All Parcels In All Districts
Page 53
jbynum
PARCEL INFORMATION
TAXABLE VALUATIONS / EXEMPTIONS / CONTRACTS
-----------------------------------------------------------------------------------------------------------------------------------COCHRAN THOMAS
HMSTD FILED |
MUNICIPAL
HOMESTEAD
NON-RESIDENTIAL
CLUFF TANYA
|LAND
107,300
91 STAGECOACH RD
|BUILDING
336,500
|TOTAL REAL
443,800
443,800
NORWICH VT 05055
|SPEC EXEMPTION
0
TAX MAP:
03-054.130
|
PROP DESC: 3.07 ACRES & DWL
|
911 ADDR: 91 STAGECOACH RD
|
PARCEL ID: 03-054.130 SPAN: 450-142-13191
|
HOUSESITE:
439,000
ACRES:
3.07 R1 T
|GRAND LIST
4,438.00
4,438.00
-----------------------------------------------------------------------------------------------------------------------------------COFFEY DAVID J
|
MUNICIPAL
HOMESTEAD
NON-RESIDENTIAL
COFFEY ALINE K
|LAND
135,300
202 UPPER TURNPIKE RD
|BUILDING
609,700
|TOTAL REAL
745,000
745,000
NORWICH VT 05055
|SPEC EXEMPTION
0
TAX MAP:
10-140.000
|
PROP DESC: 11.4 ACRES & DWL
|
911 ADDR: 202 UPPER TURNPIKE RD
|
PARCEL ID: 10-140.000 SPAN: 450-142-13117
|
HOUSESITE:
712,200
ACRES:
11.40 R2 T
|GRAND LIST
7,450.00
7,450.00
-----------------------------------------------------------------------------------------------------------------------------------COFFEY MARY B
HMSTD FILED |
MUNICIPAL
HOMESTEAD
NON-RESIDENTIAL
COFFEY EDWARD L III
|LAND
107,500
PO BOX 1323
|BUILDING
216,100
|TOTAL REAL
323,600
323,600
NORWICH VT 05055
|SPEC EXEMPTION
0
TAX MAP:
05-107.000
|
PROP DESC: .9 ACRE & DWL
|
911 ADDR: 139 PATTRELL RD
|
PARCEL ID: 05-107.000 SPAN: 450-142-12502
|
HOUSESITE:
323,600
ACRES:
0.90 R1 T
|GRAND LIST
3,236.00
3,236.00
-----------------------------------------------------------------------------------------------------------------------------------COHEN RICHARD L
HMSTD FILED |
MUNICIPAL
HOMESTEAD
NON-RESIDENTIAL
TYPROWICZ ANNA C
|LAND
118,200
PO BOX 1244
|BUILDING
426,500
|TOTAL REAL
544,700
544,700
NORWICH VT 05055-1244
|SPEC EXEMPTION
0
TAX MAP:
05-022.000
|
PROP DESC: 5.4 ACRES & DWL
|
911 ADDR: 85 NORFORD LAKE RD
|
PARCEL ID: 05-022.000 SPAN: 450-142-12394
|
HOUSESITE:
529,900
ACRES:
5.40 R1 T
|GRAND LIST
5,447.00
5,447.00
-----------------------------------------------------------------------------------------------------------------------------------COLACCHIO THOMAS A
HMSTD FILED |
MUNICIPAL
HOMESTEAD
NON-RESIDENTIAL
COLACCHIO MARIE D
|LAND
116,900
44 FOUR WHEEL DR
|BUILDING
505,800
|TOTAL REAL
622,700
622,700
NORWICH VT 05055
|SPEC EXEMPTION
0
TAX MAP:
16-019.000
|
PROP DESC: 5.3 ACRES & DWL
|
911 ADDR: 44 FOUR WHEEL DR
|
PARCEL ID: 16-019.000 SPAN: 450-142-11970
|
HOUSESITE:
608,200
ACRES:
5.30 R1 T
|GRAND LIST
6,227.00
6,227.00
------------------------------------------------------------------------------------------------------------------------------------
06/12/2015
01:32 pm
Town of Norwich Grand List
Grand List Report (Detail)
By Name For All Parcels In All Districts
Page 54
jbynum
PARCEL INFORMATION
TAXABLE VALUATIONS / EXEMPTIONS / CONTRACTS
-----------------------------------------------------------------------------------------------------------------------------------COLE BERNARD F J
HMSTD FILED |
MUNICIPAL
HOMESTEAD
NON-RESIDENTIAL
COBB JANET L
|LAND
151,400
312 KERWIN HILL RD
|BUILDING
335,200
|TOTAL REAL
486,600
486,600
NORWICH VT 05055
|SPEC EXEMPTION
0
TAX MAP:
05-114.200
|
PROP DESC: 10.4 ACRES & DWL
|
911 ADDR: 312 KERWIN HILL RD
|
PARCEL ID: 05-114.200 SPAN: 450-142-12125
|
HOUSESITE:
462,600
ACRES:
10.40 R2 T
|GRAND LIST
4,866.00
4,866.00
-----------------------------------------------------------------------------------------------------------------------------------COLE NANCY ANN
|
MUNICIPAL
HOMESTEAD
NON-RESIDENTIAL
COLE DOUGLAS G
|LAND
222,400
61 OLD SUDBURY RD
|BUILDING
507,600
|TOTAL REAL
730,000
730,000
WAYLAND MA 01778
|SPEC EXEMPTION
0
TAX MAP:
09-044.000
|
PROP DESC: 21.55 ACRES & DWL
|
911 ADDR: 1062 BRAGG HILL RD
|
PARCEL ID: 09-044.000 SPAN: 450-142-11695
|
HOUSESITE:
669,100
ACRES:
21.55 R2 NS
|GRAND LIST
7,300.00
7,300.00
-----------------------------------------------------------------------------------------------------------------------------------COLLIER PETER J
HMSTD FILED |
MUNICIPAL
HOMESTEAD
NON-RESIDENTIAL
COLLIER CAROL B
|LAND
128,600
259 NEW BOSTON RD
|BUILDING
210,100
|TOTAL REAL
338,700
338,700
NORWICH VT 05055
|SPEC EXEMPTION
0
TAX MAP:
10-118.000
|
PROP DESC: 1.8 ACRES & DWL
|
911 ADDR: 259 NEW BOSTON RD
|
PARCEL ID: 10-118.000 SPAN: 450-142-12278
|
HOUSESITE:
338,700
ACRES:
1.80 R1 T
|GRAND LIST
3,387.00
3,387.00
-----------------------------------------------------------------------------------------------------------------------------------COLLINS BRENDAN W
|
MUNICIPAL
HOMESTEAD
NON-RESIDENTIAL
COLLINS MARLENE
|LAND
51,000
7 SKYLARK ROAD
|BUILDING
117,000
|TOTAL REAL
168,000
168,000
LEBANON NH 03766
|SPEC EXEMPTION
0
TAX MAP:
16-013.000
|
PROP DESC: .6 ACRE & DWL
|
911 ADDR: 55 UPPER LOVELAND RD
|
PARCEL ID: 16-013.000 SPAN: 450-142-13081
|
HOUSESITE:
168,000
ACRES:
0.60 R1 NS
|GRAND LIST
1,680.00
1,680.00
-----------------------------------------------------------------------------------------------------------------------------------COLLINS MATTHEW A
HMSTD FILED |
MUNICIPAL
HOMESTEAD
NON-RESIDENTIAL
COLLINS JILL H
|LAND
201,900
271 BRIGHAM HILL RD
|BUILDING
627,100
|TOTAL REAL
829,000
829,000
NORWICH VT 05055
|SPEC EXEMPTION
0
TAX MAP:
10-046.200
|
PROP DESC: 6.2 ACRES & DWL
|
911 ADDR: 271 BRIGHAM HILL RD
|
PARCEL ID: 10-046.200 SPAN: 450-142-11714
|
HOUSESITE:
811,600
ACRES:
6.20 R2 T
|GRAND LIST
8,290.00
8,290.00
------------------------------------------------------------------------------------------------------------------------------------
06/12/2015
01:32 pm
Town of Norwich Grand List
Grand List Report (Detail)
By Name For All Parcels In All Districts
Page 55
jbynum
PARCEL INFORMATION
TAXABLE VALUATIONS / EXEMPTIONS / CONTRACTS
-----------------------------------------------------------------------------------------------------------------------------------COMCAST, PROPERTY TAX DEPT
|
MUNICIPAL
HOMESTEAD
NON-RESIDENTIAL
|EQUIPMENT
1264,600
1 COMCAST CENTER, 32ND FLOOR
|
|PERSONAL
1264,600
1264,600
PHILAPDELPHIA PA 19103
|
TAX MAP:
70-008.000
|
PROP DESC: CABLE TELEVISION
|
911 ADDR: TOWNWIDE
|
PARCEL ID: 70-008.000 SPAN: 450-142-13166
|CONTRACTS
1264,600
HOUSESITE:
0
ACRES:
0.00
|GRAND LIST
0.00
12,646.00
-----------------------------------------------------------------------------------------------------------------------------------COMI RICHARD J
HMSTD FILED |
MUNICIPAL
HOMESTEAD
NON-RESIDENTIAL
COLLINS DEBORAH A
|LAND
123,300
97 CHURCH ST
|BUILDING
289,300
|TOTAL REAL
412,600
412,600
NORWICH VT 05055
|SPEC EXEMPTION
0
TAX MAP:
16-028.000
|
PROP DESC: .96 ACRE & DWL
|
911 ADDR: 97 CHURCH ST
|
PARCEL ID: 16-028.000 SPAN: 450-142-11857
|
HOUSESITE:
412,600
ACRES:
0.96 R1 T
|GRAND LIST
4,126.00
4,126.00
-----------------------------------------------------------------------------------------------------------------------------------CONN & PASSUMPSIC RAILROAD ASS
|
MUNICIPAL
HOMESTEAD
NON-RESIDENTIAL
|LAND
76,200
C/O DOUGLAS BRITTON
|BUILDING
103,100
22 BRIGHAM HILL ROAD
|TOTAL REAL
179,300
179,300
NORWICH VT 05055
|SPEC EXEMPTION
0
TAX MAP:
16-092.000
|
PROP DESC: .32 ACRE & RAILROAD BLDG
|
911 ADDR: 18 LEDYARD LN
|
PARCEL ID: 16-092.000 SPAN: 450-142-12635
|
HOUSESITE:
0
ACRES:
0.32 C
C
|GRAND LIST
1,793.00
1,793.00
-----------------------------------------------------------------------------------------------------------------------------------CONNIFF JESSE
|
MUNICIPAL
HOMESTEAD
NON-RESIDENTIAL
|LAND
185,200
2024 CEMETERY ST
|BUILDING
0
|TOTAL REAL
185,200
185,200
BROOKFIELD VT 05036-9677
|SPEC EXEMPTION
0
TAX MAP:
09-062.000
|
PROP DESC: 68.9 ACRES
|
911 ADDR: PODUNK RD
|CURRENT USE
176,400
176,400
PARCEL ID: 09-062.000 SPAN: 450-142-12604
|
HOUSESITE:
0
ACRES:
68.90 M
S
|GRAND LIST
88.00
88.00
-----------------------------------------------------------------------------------------------------------------------------------CONNORS JUSTIN
HMSTD FILED |
MUNICIPAL
HOMESTEAD
NON-RESIDENTIAL
MURPHY KRISTEN
|LAND
65,800
PO BOX 51
|BUILDING
199,700
|TOTAL REAL
265,500
265,500
HARTFORD VT 05047
|SPEC EXEMPTION
0
TAX MAP:
09-053.000
|
PROP DESC: 1 ACRE & DWL
|
911 ADDR: 497 TIGERTOWN RD
|
PARCEL ID: 09-053.000 SPAN: 450-142-12835
|
HOUSESITE:
265,500
ACRES:
1.00 R1 T
|GRAND LIST
2,655.00
2,655.00
------------------------------------------------------------------------------------------------------------------------------------
06/12/2015
01:32 pm
Town of Norwich Grand List
Grand List Report (Detail)
By Name For All Parcels In All Districts
Page 56
jbynum
PARCEL INFORMATION
TAXABLE VALUATIONS / EXEMPTIONS / CONTRACTS
-----------------------------------------------------------------------------------------------------------------------------------CONRAD BRUCE
|
MUNICIPAL
HOMESTEAD
NON-RESIDENTIAL
CONRAD MARY ANN
|LAND
184,100
RFD BOX 12
|BUILDING
0
|TOTAL REAL
184,100
184,100
WEST HARTFORD VT 05084
|SPEC EXEMPTION
0
TAX MAP:
08-008.000
|
PROP DESC: 57 ACRES
|
911 ADDR: TIGERTOWN RD
|
PARCEL ID: 08-008.000 SPAN: 450-142-12843
|
HOUSESITE:
0
ACRES:
57.00 M
S
|GRAND LIST
1,841.00
1,841.00
-----------------------------------------------------------------------------------------------------------------------------------COOK ANNE L
HMSTD FILED |
MUNICIPAL
HOMESTEAD
NON-RESIDENTIAL
|LAND
111,800
916 RT 132
|BUILDING
389,700
|TOTAL REAL
501,500
501,500
NORWICH VT 05055
|SPEC EXEMPTION
0
TAX MAP:
05-054.100
|
PROP DESC: 4.74 ACRES & DWL
|
911 ADDR: 916 VT ROUTE 132
|
PARCEL ID: 05-054.100 SPAN: 450-142-12782
|
HOUSESITE:
489,200
ACRES:
4.74 R1 T
|GRAND LIST
5,015.00
5,015.00
-----------------------------------------------------------------------------------------------------------------------------------COOK BECKY J
HMSTD FILED |
MUNICIPAL
HOMESTEAD
NON-RESIDENTIAL
BOZE THEODORE V
|LAND
130,700
PO BOX 432
|BUILDING
122,500
|TOTAL REAL
253,200
253,200
NORWICH VT 05055-0432
|SPEC EXEMPTION
0
TAX MAP:
11-045.200
|
PROP DESC: 12.5 ACRES & DWL
|
911 ADDR: 673 UNION VILLAGE RD
|
PARCEL ID: 11-045.200 SPAN: 450-142-13025
|
HOUSESITE:
220,900
ACRES:
12.50 R2 T
|GRAND LIST
2,532.00
2,532.00
-----------------------------------------------------------------------------------------------------------------------------------COOK BRIAN
HMSTD FILED |
MUNICIPAL
HOMESTEAD
NON-RESIDENTIAL
MCGOWAN ANNE
|LAND
114,300
47 BULLOCK RD
|BUILDING
227,400
|TOTAL REAL
341,700
341,700
NORWICH VT 05055
|SPEC EXEMPTION
0
TAX MAP:
11-087.100
|
PROP DESC: 11.96 ACRES & DWL
|
911 ADDR: 47 BULLOCK RD
|
PARCEL ID: 11-087.100 SPAN: 450-142-11730
|
HOUSESITE:
314,200
ACRES:
11.96 R2 T
|GRAND LIST
3,417.00
3,417.00
-----------------------------------------------------------------------------------------------------------------------------------COOK DANIEL
HMSTD FILED |
MUNICIPAL
HOMESTEAD
NON-RESIDENTIAL
COOK DEBRA
|LAND
140,900
581 UNION VILLAGE RD
|BUILDING
135,200
|TOTAL REAL
276,100
276,100
NORWICH VT 05055
|SPEC EXEMPTION
0
TAX MAP:
11-046.000
|
PROP DESC: 14.9 ACRES & DWL
|
911 ADDR: 581 UNION VILLAGE RD
|
PARCEL ID: 11-046.000 SPAN: 450-142-13023
|
HOUSESITE:
233,500
ACRES:
14.90 R2 T
|GRAND LIST
2,761.00
2,761.00
------------------------------------------------------------------------------------------------------------------------------------
06/12/2015
01:32 pm
Town of Norwich Grand List
Grand List Report (Detail)
By Name For All Parcels In All Districts
Page 57
jbynum
PARCEL INFORMATION
TAXABLE VALUATIONS / EXEMPTIONS / CONTRACTS
-----------------------------------------------------------------------------------------------------------------------------------COOK HOWARD L
HMSTD FILED |
MUNICIPAL
HOMESTEAD
NON-RESIDENTIAL
COOK CONSTANCE B
|LAND
346,800
899 TURNPIKE RD
|BUILDING
229,900
|TOTAL REAL
576,700
576,700
NORWICH VT 05055
|SPEC EXEMPTION
0
TAX MAP:
10-090.000
|
PROP DESC: 105 ACRES & DWL
|
911 ADDR: 899 TURNPIKE RD
|CURRENT USE
207,800
207,800
PARCEL ID: 10-090.000 SPAN: 450-142-12947
|
HOUSESITE:
350,300
ACRES:
105.00 R2 T
|GRAND LIST
3,689.00
3,689.00
-----------------------------------------------------------------------------------------------------------------------------------COOK JAMES C
|
MUNICIPAL
HOMESTEAD
NON-RESIDENTIAL
COOK SARAH A
|LAND
59,400
81 UPPER LOVELAND RD
|BUILDING
169,100
|TOTAL REAL
228,500
228,500
NORWICH VT 05055
|SPEC EXEMPTION
0
TAX MAP:
16-012.200
|
PROP DESC: 1.03 ACRES & DWL
|
911 ADDR: 81 UPPER LOVELAND RD
|
PARCEL ID: 16-012.200 SPAN: 450-142-13082
|
HOUSESITE:
228,500
ACRES:
1.03 R1 T
|GRAND LIST
2,285.00
2,285.00
-----------------------------------------------------------------------------------------------------------------------------------COOK JASON VAN
|
MUNICIPAL
HOMESTEAD
NON-RESIDENTIAL
|LAND
86,700
1581 RTE 14 POBOX 96
|BUILDING
5,600
|TOTAL REAL
92,300
92,300
HARTFORD VT 05047
|SPEC EXEMPTION
0
TAX MAP:
05-034.200
|
PROP DESC: 2.45 ACRES
|
911 ADDR: NORFORD LAKE RD
|
PARCEL ID: 05-034.200 SPAN: 450-142-13267
|
HOUSESITE:
0
ACRES:
2.45 M
T
|GRAND LIST
923.00
923.00
-----------------------------------------------------------------------------------------------------------------------------------COOK LINDA
HMSTD FILED |
MUNICIPAL
HOMESTEAD
NON-RESIDENTIAL
|LAND
136,300
PO BOX 828
|BUILDING
129,900
|TOTAL REAL
266,200
191,600
74,600
NORWICH VT 05055
|SPEC EXEMPTION
0
0
TAX MAP:
16-100.000
|
PROP DESC: .68 ACRES & 2 DWL INCL 2 ADDL LOTS
|
911 ADDR: 147 RIVER RD
|
PARCEL ID: 16-100.000 SPAN: 450-142-13366
|
HOUSESITE:
191,600
ACRES:
0.68 R1 T
|GRAND LIST
2,662.00
1,916.00
746.00
-----------------------------------------------------------------------------------------------------------------------------------COOK RUTH REVOCABLE TRUST OF
|
MUNICIPAL
HOMESTEAD
NON-RESIDENTIAL
|LAND
99,900
PO BOX 59
|BUILDING
0
|TOTAL REAL
99,900
99,900
HARTFORD VT 05047
|SPEC EXEMPTION
0
TAX MAP:
16-059.010
|
PROP DESC: 4.2 ACRES
|
911 ADDR: CHURCH ST
|
PARCEL ID: 16-059.010 SPAN: 450-142-12657
|
HOUSESITE:
0
ACRES:
4.20 M
T
|GRAND LIST
999.00
999.00
------------------------------------------------------------------------------------------------------------------------------------
06/12/2015
01:32 pm
Town of Norwich Grand List
Grand List Report (Detail)
By Name For All Parcels In All Districts
Page 58
jbynum
PARCEL INFORMATION
TAXABLE VALUATIONS / EXEMPTIONS / CONTRACTS
-----------------------------------------------------------------------------------------------------------------------------------COOK RUTH REVOCABLE TRUST OF
|
MUNICIPAL
HOMESTEAD
NON-RESIDENTIAL
|LAND
126,000
PO BOX 59
|BUILDING
0
|TOTAL REAL
126,000
126,000
HARTFORD VT 05047
|SPEC EXEMPTION
0
TAX MAP:
16-066.200
|
PROP DESC: 24.45 ACRES
|
911 ADDR: RIVER RD
|
PARCEL ID: 16-066.200 SPAN: 450-142-12649
|
HOUSESITE:
0
ACRES:
24.45 M
T
|GRAND LIST
1,260.00
1,260.00
-----------------------------------------------------------------------------------------------------------------------------------COOK TODD M
|
MUNICIPAL
HOMESTEAD
NON-RESIDENTIAL
|LAND
322,600
6 MIDLAND RD
|BUILDING
807,000
|TOTAL REAL
1129,600
1129,600
WELLESLEY MA 02482
|SPEC EXEMPTION
0
TAX MAP:
05-074.000
|
PROP DESC: 82 ACRES & DWL
|
911 ADDR: 1196 UNION VILLAGE RD
|
PARCEL ID: 05-074.000 SPAN: 450-142-13057
|
HOUSESITE:
904,800
ACRES:
82.00 R2 NS
|GRAND LIST
11,296.00
11,296.00
-----------------------------------------------------------------------------------------------------------------------------------COOK TRUST OF LEONARD
|
MUNICIPAL
HOMESTEAD
NON-RESIDENTIAL
C/O CATHY COOK PARKER
|LAND
195,000
PO BOX 59
|BUILDING
828,200
|TOTAL REAL
1023,200
1023,200
HARTFORD VT 05047-0059
|SPEC EXEMPTION
0
TAX MAP:
16-060.000
|
PROP DESC: 34.7 ACRES DWLS AND COMM BLDGS
|
911 ADDR: 269 RIVER RD
|
PARCEL ID: 16-060.000 SPAN: 450-142-12655
|
HOUSESITE:
489,800
ACRES:
34.78 R2 S
|GRAND LIST
10,232.00
10,232.00
-----------------------------------------------------------------------------------------------------------------------------------COOK VAN W
HMSTD FILED |
MUNICIPAL
HOMESTEAD
NON-RESIDENTIAL
COOK ROSALYN F
|LAND
104,400
128 NORFORD LAKE RD
|BUILDING
112,700
|TOTAL REAL
217,100
217,100
NORWICH VT 05055
|SPEC EXEMPTION
0
TAX MAP:
05-035.000
|
PROP DESC: 2.2 ACRES & DWL
|
911 ADDR: 128 NORFORD LAKE RD
|
PARCEL ID: 05-035.000 SPAN: 450-142-12397
|
HOUSESITE:
216,200
ACRES:
2.20 R1 T
|GRAND LIST
2,171.00
2,171.00
-----------------------------------------------------------------------------------------------------------------------------------COOK YVONNE
|
MUNICIPAL
HOMESTEAD
NON-RESIDENTIAL
|LAND
577,100
108 NORFORD LAKE RD
|BUILDING
36,700
|TOTAL REAL
613,800
613,800
NORWICH VT 05055
|SPEC EXEMPTION
0
TAX MAP:
05-034.000
|
PROP DESC: 181 ACRES & MH INCL 2 ADDL LOTS
|
911 ADDR: 108 NORFORD LAKE RD
|CURRENT USE
332,200
332,200
PARCEL ID: 05-034.000 SPAN: 450-142-12395
|
HOUSESITE:
138,500
ACRES:
181.00 MHL T
|GRAND LIST
2,816.00
2,816.00
------------------------------------------------------------------------------------------------------------------------------------
06/12/2015
01:32 pm
Town of Norwich Grand List
Grand List Report (Detail)
By Name For All Parcels In All Districts
Page 59
jbynum
PARCEL INFORMATION
TAXABLE VALUATIONS / EXEMPTIONS / CONTRACTS
-----------------------------------------------------------------------------------------------------------------------------------COONEY BRENDAN
|
MUNICIPAL
HOMESTEAD
NON-RESIDENTIAL
|LAND
150,400
149 HOPSON RD
|BUILDING
197,400
|TOTAL REAL
347,800
347,800
NORWICH VT 05055
|SPEC EXEMPTION
0
TAX MAP:
20-269.000
|
PROP DESC: 1.1 ACRES & DWL/APT
|
911 ADDR: 149 HOPSON RD
|
PARCEL ID: 20-269.000 SPAN: 450-142-12059
|
HOUSESITE:
274,000
ACRES:
1.10 R1 T
|GRAND LIST
3,478.00
3,478.00
-----------------------------------------------------------------------------------------------------------------------------------CORTESE CHRISTOPHER A
|
MUNICIPAL
HOMESTEAD
NON-RESIDENTIAL
CORTESE KIRA M
|LAND
63,600
4 COURT AV
|BUILDING
0
|TOTAL REAL
63,600
63,600
BARRINGTON RI 02806-1505
|SPEC EXEMPTION
0
TAX MAP:
03-012.100
|
PROP DESC: 10 ACRES
|
911 ADDR: MITCHELL BROOK RD
|
PARCEL ID: 03-012.100 SPAN: 450-142-11617
|
HOUSESITE:
0
ACRES:
10.00 M
NS
|GRAND LIST
636.00
636.00
-----------------------------------------------------------------------------------------------------------------------------------COYNER KARL B
|
MUNICIPAL
HOMESTEAD
NON-RESIDENTIAL
|LAND
0
86 PLEASANT ST
|BUILDING
204,300
|TOTAL REAL
204,300
204,300
ARLINGTON MA 02476
|SPEC EXEMPTION
0
TAX MAP:
15-055.006
|
PROP DESC: 52 NORWICH MEADOWS UNIT 6
|
911 ADDR: 52 NORWICH MEADOWS 6
|
PARCEL ID: 15-055.006 SPAN: 450-142-11742
|
HOUSESITE:
204,300
ACRES:
0.00 O
NS
|GRAND LIST
2,043.00
2,043.00
-----------------------------------------------------------------------------------------------------------------------------------CRACKNELL KENNETH R
HMSTD FILED |
MUNICIPAL
HOMESTEAD
NON-RESIDENTIAL
WHITE SUSAN J
|LAND
144,400
P.O. BOX 1085
|BUILDING
560,200
|TOTAL REAL
704,600
599,600
105,000
NORWICH VT 05055
|SPEC EXEMPTION
0
0
TAX MAP:
20-212.000
|
PROP DESC: .5 ACRE & DWL/APT
|
911 ADDR: 338 MAIN ST
|
PARCEL ID: 20-212.000 SPAN: 450-142-12412
|
HOUSESITE:
599,600
ACRES:
0.50 R1 T
|GRAND LIST
7,046.00
5,996.00
1,050.00
-----------------------------------------------------------------------------------------------------------------------------------CRAMER ROBERT A
HMSTD FILED |
MUNICIPAL
HOMESTEAD
NON-RESIDENTIAL
CRAMER KARI L
|LAND
129,100
550 NEW BOSTON RD
|BUILDING
332,300
|TOTAL REAL
461,400
461,400
NORWICH VT 05055
|SPEC EXEMPTION
0
TAX MAP:
10-168.400
|
PROP DESC: 13.7 ACRES & DWL
|
911 ADDR: 550 NEW BOSTON RD
|
PARCEL ID: 10-168.400 SPAN: 450-142-12303
|
HOUSESITE:
430,000
ACRES:
13.70 R2 T
|GRAND LIST
4,614.00
4,614.00
------------------------------------------------------------------------------------------------------------------------------------
06/12/2015
01:32 pm
Town of Norwich Grand List
Grand List Report (Detail)
By Name For All Parcels In All Districts
Page 60
jbynum
PARCEL INFORMATION
TAXABLE VALUATIONS / EXEMPTIONS / CONTRACTS
-----------------------------------------------------------------------------------------------------------------------------------CRANDELL NATHAN
HMSTD FILED |
MUNICIPAL
HOMESTEAD
NON-RESIDENTIAL
CRANDELL CHRISTINE
|LAND
127,700
64 GLEN RIDGE ROAD
|BUILDING
205,400
|TOTAL REAL
333,100
333,100
NORWICH VT 05055-0484
|SPEC EXEMPTION
0
TAX MAP:
10-015.000
|
PROP DESC: 1.76 ACRES & DWL
|
911 ADDR: 64 GLEN RIDGE RD
|
PARCEL ID: 10-015.000 SPAN: 450-142-11981
|
HOUSESITE:
333,100
ACRES:
1.76 R1 T
|GRAND LIST
3,331.00
3,331.00
-----------------------------------------------------------------------------------------------------------------------------------CRAWFORD CYNTHIA
HMSTD FILED |
MUNICIPAL
HOMESTEAD
NON-RESIDENTIAL
CRIPPS WAYNE
|LAND
126,500
PO BOX 347
|BUILDING
117,600
|TOTAL REAL
244,100
244,100
NORWICH VT 05055-0347
|SPEC EXEMPTION
0
TAX MAP:
09-016.000
|
PROP DESC: 27.44 ACRES & DWL
|
911 ADDR: 47 TIGERTOWN RD
|CURRENT USE
58,300
58,300
PARCEL ID: 09-016.000 SPAN: 450-142-12822
|
HOUSESITE:
182,500
ACRES:
27.44 R2 T
|GRAND LIST
1,858.00
1,858.00
-----------------------------------------------------------------------------------------------------------------------------------CRAWFORD FREDERIK O
HMSTD FILED |
MUNICIPAL
HOMESTEAD
NON-RESIDENTIAL
CRAWFORD SOPHIA J
|LAND
207,000
PO BOX 482
|BUILDING
825,800
|TOTAL REAL
1032,800
1032,800
NORWICH VT 05055-0482
|SPEC EXEMPTION
0
TAX MAP:
09-043.100
|
PROP DESC: 10.15 ACRES AND DWL AND BARN
|
911 ADDR: 1282 BRAGG HILL RD
|
PARCEL ID: 09-043.100 SPAN: 450-142-11699
|
HOUSESITE:
1003,600
ACRES:
10.15 R2 T
|GRAND LIST
10,328.00
10,328.00
-----------------------------------------------------------------------------------------------------------------------------------CRESSMAN NANCY TRUSTEE
HMSTD FILED |
MUNICIPAL
HOMESTEAD
NON-RESIDENTIAL
|LAND
107,200
729 UNION VILLAGE RD
|BUILDING
248,900
|TOTAL REAL
356,100
356,100
NORWICH VT 05055-9639
|SPEC EXEMPTION
0
TAX MAP:
11-048.000
|
PROP DESC: 3.72 ACRES & DWL
|
911 ADDR: 729 UNION VILLAGE RD
|
PARCEL ID: 11-048.000 SPAN: 450-142-13029
|
HOUSESITE:
348,400
ACRES:
3.72 R1 T
|GRAND LIST
3,561.00
3,561.00
-----------------------------------------------------------------------------------------------------------------------------------CREWE ANNE
HMSTD FILED |
MUNICIPAL
HOMESTEAD
NON-RESIDENTIAL
|LAND
541,100
655 RTE 132
|BUILDING
473,400
|TOTAL REAL
1014,500
907,300
107,200
NORWICH VT 05055
|SPEC EXEMPTION
0
0
TAX MAP:
05-086.000
|
PROP DESC: 110.55 ACRES & DWL/1 APTS INC 1 ADDL LOT
|
911 ADDR: 655 VT ROUTE 132
|CURRENT USE
276,100
276,100
PARCEL ID: 05-086.000 SPAN: 450-142-12779
|
HOUSESITE:
494,000
ACRES:
110.55 R2 T
|GRAND LIST
7,384.00
6,312.00
1,072.00
------------------------------------------------------------------------------------------------------------------------------------
06/12/2015
01:32 pm
Town of Norwich Grand List
Grand List Report (Detail)
By Name For All Parcels In All Districts
Page 61
jbynum
PARCEL INFORMATION
TAXABLE VALUATIONS / EXEMPTIONS / CONTRACTS
-----------------------------------------------------------------------------------------------------------------------------------CRONAN TIMOTHY J
HMSTD FILED |
MUNICIPAL
HOMESTEAD
NON-RESIDENTIAL
CRONAN STEPHANIE L
|LAND
0
63 STARLAKE LN
|BUILDING
114,500
|TOTAL REAL
114,500
114,500
NORWICH VT 05055
|SPEC EXEMPTION
0
TAX MAP:
12-003.280
|
PROP DESC: DWELLING ONLY LOT 8
|
911 ADDR: 63 STARLAKE LN
|
PARCEL ID: 12-003.280 SPAN: 450-142-12695
|
HOUSESITE:
114,500
ACRES:
0.00 R1 T
|GRAND LIST
1,145.00
1,145.00
-----------------------------------------------------------------------------------------------------------------------------------CROSS CAMERON III
HMSTD FILED |
MUNICIPAL
HOMESTEAD
NON-RESIDENTIAL
SWIERCZYNSKI SONIA
|LAND
78,300
370 CHAPEL HILL RD
|BUILDING
147,100
|TOTAL REAL
225,400
225,400
NORWICH VT 05055
|SPEC EXEMPTION
0
TAX MAP:
03-049.000
|
PROP DESC: 3 ACRES & DWL
|
911 ADDR: 370 CHAPEL HILL RD
|
PARCEL ID: 03-049.000 SPAN: 450-142-11807
|
HOUSESITE:
220,900
ACRES:
3.00 R1 T
|GRAND LIST
2,254.00
2,254.00
-----------------------------------------------------------------------------------------------------------------------------------CROSSLEY PAMELA K
HMSTD FILED |
MUNICIPAL
HOMESTEAD
NON-RESIDENTIAL
|LAND
134,000
PO BOX 1339
|BUILDING
145,700
|TOTAL REAL
279,700
279,700
NORWICH VT 05055-1339
|SPEC EXEMPTION
0
TAX MAP:
10-074.000
|
PROP DESC: 3 ACRES & DWL
|
911 ADDR: 471 TURNPIKE RD
|
PARCEL ID: 10-074.000 SPAN: 450-142-12926
|
HOUSESITE:
275,200
ACRES:
3.00 R1 T
|GRAND LIST
2,797.00
2,797.00
-----------------------------------------------------------------------------------------------------------------------------------CROTEAU WALBURGA
HMSTD FILED |
MUNICIPAL
HOMESTEAD
NON-RESIDENTIAL
|LAND
92,600
34 WILLEY HILL RD
|BUILDING
118,200
|TOTAL REAL
210,800
210,800
NORWICH VT 05055
|SPEC EXEMPTION
0
TAX MAP:
10-215.000
|
PROP DESC: .37 ACRE & DWL
|
911 ADDR: 34 WILLEY HILL RD
|
PARCEL ID: 10-215.000 SPAN: 450-142-13151
|
HOUSESITE:
210,800
ACRES:
0.37 R1 T
|GRAND LIST
2,108.00
2,108.00
-----------------------------------------------------------------------------------------------------------------------------------CRUMBINE NANCY J
HMSTD FILED |
MUNICIPAL
HOMESTEAD
NON-RESIDENTIAL
MORRISON LAURIE J
|LAND
131,800
262 HOPSON RD
|BUILDING
264,300
|TOTAL REAL
396,100
396,100
NORWICH VT 05055
|SPEC EXEMPTION
0
TAX MAP:
20-001.000
|
PROP DESC: 2.5 ACRES & DWL
|
911 ADDR: 262 HOPSON RD
|
PARCEL ID: 20-001.000 SPAN: 450-142-12067
|
HOUSESITE:
393,800
ACRES:
2.50 R1 T
|GRAND LIST
3,961.00
3,961.00
------------------------------------------------------------------------------------------------------------------------------------
06/12/2015
01:32 pm
Town of Norwich Grand List
Grand List Report (Detail)
By Name For All Parcels In All Districts
Page 62
jbynum
PARCEL INFORMATION
TAXABLE VALUATIONS / EXEMPTIONS / CONTRACTS
-----------------------------------------------------------------------------------------------------------------------------------CRUMBINE NANCY J
|
MUNICIPAL
HOMESTEAD
NON-RESIDENTIAL
MORRISON LAURIE J
|LAND
150,000
262 HOPSON RD
|BUILDING
138,000
|TOTAL REAL
288,000
288,000
NORWICH VT 05055
|SPEC EXEMPTION
0
TAX MAP:
20-313.000
|
PROP DESC: 7.4 ACRES & DWL
|
911 ADDR: 221 HOPSON RD
|
PARCEL ID: 20-313.000 SPAN: 450-142-12064
|
HOUSESITE:
266,900
ACRES:
7.40 R2 T
|GRAND LIST
2,880.00
2,880.00
-----------------------------------------------------------------------------------------------------------------------------------CUDNEY DANA N
|
MUNICIPAL
HOMESTEAD
NON-RESIDENTIAL
CUDNEY HARLEY H
|LAND
118,400
27 PARTRIDGE HILL
|BUILDING
222,300
|TOTAL REAL
340,700
340,700
NORWICH VT 05055
|SPEC EXEMPTION
0
TAX MAP:
10-199.010
|
PROP DESC: .85 ACRE & DWL
|
911 ADDR: 27 PARTRIDGE HILL
|
PARCEL ID: 10-199.010 SPAN: 450-142-12492
|
HOUSESITE:
340,700
ACRES:
0.85 R1 T
|GRAND LIST
3,407.00
3,407.00
-----------------------------------------------------------------------------------------------------------------------------------CULLEN JOSEPH F
HMSTD FILED |
MUNICIPAL
HOMESTEAD
NON-RESIDENTIAL
CULLEN CATHERINE M
|LAND
69,400
127 CHAPEL HILL RD
|BUILDING
303,800
|TOTAL REAL
373,200
373,200
NORWICH VT 05055
|SPEC EXEMPTION
0
TAX MAP:
03-004.000
|
PROP DESC: 2 ACRES & DWL
|
911 ADDR: 127 CHAPEL HILL RD
|
PARCEL ID: 03-004.000 SPAN: 450-142-11830
|
HOUSESITE:
373,200
ACRES:
2.00 R1 T
|GRAND LIST
3,732.00
3,732.00
-----------------------------------------------------------------------------------------------------------------------------------CUNO JAMES TRUSTEE
|
MUNICIPAL
HOMESTEAD
NON-RESIDENTIAL
STEWART SARAH TRUSTEE
|LAND
163,400
1221 OCEAN AVE APT 608
|BUILDING
533,700
|TOTAL REAL
697,100
697,100
SANTA MONICA CA 90401
|SPEC EXEMPTION
0
TAX MAP:
20-130.000
|
PROP DESC: .81 ACRE & DWL
|
911 ADDR: 371 MAIN ST
|
PARCEL ID: 20-130.000 SPAN: 450-142-12425
|
HOUSESITE:
697,100
ACRES:
0.81 R1 NS
|GRAND LIST
6,971.00
6,971.00
-----------------------------------------------------------------------------------------------------------------------------------CURRIER BARBARA H
HMSTD FILED |
MUNICIPAL
HOMESTEAD
NON-RESIDENTIAL
|LAND
134,600
82 CARPENTER ST
|BUILDING
290,100
|TOTAL REAL
424,700
424,700
NORWICH VT 05055
|SPEC EXEMPTION
0
TAX MAP:
16-041.000
|
PROP DESC: 0.34 ACRE & DWL
|
911 ADDR: 82 CARPENTER ST
|
PARCEL ID: 16-041.000 SPAN: 450-142-11798
|
HOUSESITE:
424,700
ACRES:
0.34 R1 T
|GRAND LIST
4,247.00
4,247.00
------------------------------------------------------------------------------------------------------------------------------------
06/12/2015
01:32 pm
Town of Norwich Grand List
Grand List Report (Detail)
By Name For All Parcels In All Districts
Page 63
jbynum
PARCEL INFORMATION
TAXABLE VALUATIONS / EXEMPTIONS / CONTRACTS
-----------------------------------------------------------------------------------------------------------------------------------DADE W BRIAN
HMSTD FILED |
MUNICIPAL
HOMESTEAD
NON-RESIDENTIAL
DADE ERIKA F
|LAND
450,900
1208 BRAGG HILL RD
|BUILDING
1152,300
|TOTAL REAL
1603,200
1603,200
NORWICH VT 05055-9592
|SPEC EXEMPTION
0
TAX MAP:
09-043.000
|
PROP DESC: 39.56 ACRES & 2 DWLS INCL 1 ADDL LOT
|
911 ADDR: 1208 BRAGG HILL RD
|
PARCEL ID: 09-043.000 SPAN: 450-142-11698
|
HOUSESITE:
1145,300
ACRES:
39.56 R2 T
|GRAND LIST
16,032.00
16,032.00
-----------------------------------------------------------------------------------------------------------------------------------DAIGLE ANTHONY C
HMSTD FILED |
MUNICIPAL
HOMESTEAD
NON-RESIDENTIAL
STEVENSON JULIE M
|LAND
108,500
577 NEW BOSTON RD
|BUILDING
370,800
|TOTAL REAL
479,300
472,200
7,100
NORWICH VT 05055
|SPEC EXEMPTION
0
0
TAX MAP:
10-164.000
|
PROP DESC: 2.9 ACRES & DWL
|
911 ADDR: 577 NEW BOSTON RD
|
PARCEL ID: 10-164.000 SPAN: 450-142-12299
|
HOUSESITE:
468,200
ACRES:
2.90 R1 T
|GRAND LIST
4,793.00
4,722.00
71.00
-----------------------------------------------------------------------------------------------------------------------------------DALE CYNTHIA R.
HMSTD FILED |
MUNICIPAL
HOMESTEAD
NON-RESIDENTIAL
|LAND
130,100
PO BOX 896
|BUILDING
186,500
|TOTAL REAL
316,600
316,600
NORWICH VT 05055-0896
|SPEC EXEMPTION
0
TAX MAP:
20-156.000
|VETERAN
40,000
40,000
PROP DESC: .62 ACRES & DWL
|
911 ADDR: 484 MAIN ST
|
PARCEL ID: 20-156.000 SPAN: 450-142-12446
|
HOUSESITE:
316,600
ACRES:
0.62 R1 T
|GRAND LIST
2,766.00
2,766.00
-----------------------------------------------------------------------------------------------------------------------------------DALIPI RESUL
|
MUNICIPAL
HOMESTEAD
NON-RESIDENTIAL
|LAND
76,800
2 MISTY VALE ROAD
|BUILDING
1,000
|TOTAL REAL
77,800
77,800
SANDY HOOK CT 06482
|SPEC EXEMPTION
0
TAX MAP:
03-026.000
|
PROP DESC: 4.7 ACRES & DWL
|
911 ADDR: 1802 BEAVER MEADOW RD
|
PARCEL ID: 03-026.000 SPAN: 450-142-11620
|
HOUSESITE:
71,700
ACRES:
4.70 R1 NS
|GRAND LIST
778.00
778.00
-----------------------------------------------------------------------------------------------------------------------------------DANILEK CHRISTOPHER D
HMSTD FILED |
MUNICIPAL
HOMESTEAD
NON-RESIDENTIAL
DANILEK LINDA P
|LAND
113,600
70 SUNDBACK LN
|BUILDING
473,700
|TOTAL REAL
587,300
587,300
NORWICH VT 05055
|SPEC EXEMPTION
0
TAX MAP:
10-168.200
|
PROP DESC: 4.47 ACRES & DWL
|
911 ADDR: 70 SUNDBACK LN
|
PARCEL ID: 10-168.200 SPAN: 450-142-13182
|
HOUSESITE:
576,200
ACRES:
4.47 R1 T
|GRAND LIST
5,873.00
5,873.00
------------------------------------------------------------------------------------------------------------------------------------
06/12/2015
01:32 pm
Town of Norwich Grand List
Grand List Report (Detail)
By Name For All Parcels In All Districts
Page 64
jbynum
PARCEL INFORMATION
TAXABLE VALUATIONS / EXEMPTIONS / CONTRACTS
-----------------------------------------------------------------------------------------------------------------------------------DAPRILE FRANK J
HMSTD FILED |
MUNICIPAL
HOMESTEAD
NON-RESIDENTIAL
|LAND
82,400
112 CHAPEL HILL RD
|BUILDING
123,500
|TOTAL REAL
205,900
205,900
NORWICH VT 05055-5505
|SPEC EXEMPTION
0
TAX MAP:
09-013.000
|
PROP DESC: 3.91 ACRES & DWL
|
911 ADDR: 112 CHAPEL HILL RD
|
PARCEL ID: 09-013.000 SPAN: 450-142-11832
|
HOUSESITE:
197,300
ACRES:
3.91 R1 T
|GRAND LIST
2,059.00
2,059.00
-----------------------------------------------------------------------------------------------------------------------------------DARTMOUTH COLLEGE
|
MUNICIPAL
HOMESTEAD
NON-RESIDENTIAL
C/O REAL ESTATE OFFICE
|LAND
186,900
P O BOX 5188
|BUILDING
0
|TOTAL REAL
186,900
186,900
HANOVER NH 03755
|SPEC EXEMPTION
0
TAX MAP:
11-061.000
|
PROP DESC: 35.3 ACRES
|
911 ADDR: UNION VILLAGE RD
|
PARCEL ID: 11-061.000 SPAN: 450-142-13053
|
HOUSESITE:
0
ACRES:
35.30 M
C
|GRAND LIST
1,869.00
1,869.00
-----------------------------------------------------------------------------------------------------------------------------------DARTMOUTH COLLEGE
|
MUNICIPAL
HOMESTEAD
NON-RESIDENTIAL
C/O REAL ESTATE OFFICE
|LAND
168,800
P O BOX 5188
|BUILDING
0
|TOTAL REAL
168,800
168,800
HANOVER NH 03755
|SPEC EXEMPTION
0
TAX MAP:
15-080.000
|
PROP DESC: 28.65 ACRES & ADDL LOT (NV)
|
911 ADDR: US ROUTE 5 SOUTH
|
PARCEL ID: 15-080.000 SPAN: 450-142-12479
|
HOUSESITE:
0
ACRES:
28.65 M
C
|GRAND LIST
1,688.00
1,688.00
-----------------------------------------------------------------------------------------------------------------------------------DARTMOUTH COLLEGE
|
MUNICIPAL
HOMESTEAD
NON-RESIDENTIAL
C/O REAL ESTATE OFFICE
|LAND
80,100
P O BOX 5188
|BUILDING
16,800
|TOTAL REAL
96,900
96,900
HANOVER NH 03755
|SPEC EXEMPTION
0
TAX MAP:
16-091.000
|
PROP DESC: .43 ACRE & WAREHOUSE
|
911 ADDR: 12 LEDYARD LN
|
PARCEL ID: 16-091.000 SPAN: 450-142-12636
|
HOUSESITE:
0
ACRES:
0.43 C
C
|GRAND LIST
969.00
969.00
-----------------------------------------------------------------------------------------------------------------------------------DARTMOUTH COLLEGE
|
MUNICIPAL
HOMESTEAD
NON-RESIDENTIAL
C/O REAL ESTATE OFFICE
|LAND
62,000
P O BOX 5188
|BUILDING
0
|TOTAL REAL
62,000
62,000
HANOVER NH 03755
|SPEC EXEMPTION
0
TAX MAP:
16-093.000
|
PROP DESC: .11 ACRE
|
911 ADDR: RIVER RD
|
PARCEL ID: 16-093.000 SPAN: 450-142-12634
|
HOUSESITE:
0
ACRES:
0.11 M
C
|GRAND LIST
620.00
620.00
------------------------------------------------------------------------------------------------------------------------------------
06/12/2015
01:32 pm
Town of Norwich Grand List
Grand List Report (Detail)
By Name For All Parcels In All Districts
Page 65
jbynum
PARCEL INFORMATION
TAXABLE VALUATIONS / EXEMPTIONS / CONTRACTS
-----------------------------------------------------------------------------------------------------------------------------------DARTMOUTH COLLEGE
|
MUNICIPAL
HOMESTEAD
NON-RESIDENTIAL
C/O REAL ESTATE OFFICE
|LAND
95,500
P O BOX 5188
|BUILDING
40,400
|TOTAL REAL
135,900
135,900
HANOVER NH 03755
|SPEC EXEMPTION
0
TAX MAP:
16-094.000
|
PROP DESC: .87 ACRE & WAREHOUSE
|
911 ADDR: 11 LEDYARD LN
|
PARCEL ID: 16-094.000 SPAN: 450-142-12633
|
HOUSESITE:
0
ACRES:
0.87 C
C
|GRAND LIST
1,359.00
1,359.00
-----------------------------------------------------------------------------------------------------------------------------------DARTMOUTH COLLEGE
|
MUNICIPAL
HOMESTEAD
NON-RESIDENTIAL
C/O REAL ESTATE OFFICE
|LAND
72,700
P O BOX 5188
|BUILDING
163,500
|TOTAL REAL
236,200
236,200
HANOVER NH 03755
|SPEC EXEMPTION
0
TAX MAP:
16-095.000
|
PROP DESC: .22 ACRE & POTTERY BLDG
|
911 ADDR: 2 LEDYARD LN
|
PARCEL ID: 16-095.000 SPAN: 450-142-12637
|
HOUSESITE:
0
ACRES:
0.22 C
C
|GRAND LIST
2,362.00
2,362.00
-----------------------------------------------------------------------------------------------------------------------------------DARTMOUTH COLLEGE
|
MUNICIPAL
HOMESTEAD
NON-RESIDENTIAL
C/O REAL ESTATE OFFICE
|LAND
73,100
P O BOX 5188
|BUILDING
68,100
|TOTAL REAL
141,200
141,200
HANOVER NH 03755-5188
|SPEC EXEMPTION
0
TAX MAP:
16-096.000
|
PROP DESC: .23 ACRE & WAREHOUSE
|
911 ADDR: 15 RIVER RD
|
PARCEL ID: 16-096.000 SPAN: 450-142-12638
|
HOUSESITE:
0
ACRES:
0.23 C
C
|GRAND LIST
1,412.00
1,412.00
-----------------------------------------------------------------------------------------------------------------------------------DARTMOUTH COLLEGE
|
MUNICIPAL
HOMESTEAD
NON-RESIDENTIAL
C/O REAL ESTATE OFFICE
|LAND
71,400
P O BOX 5188
|BUILDING
0
|TOTAL REAL
71,400
71,400
HANOVER NH 03755
|SPEC EXEMPTION
0
TAX MAP:
16-097.000
|
PROP DESC: .41 ACRE
|
911 ADDR: 21 RIVER RD
|
PARCEL ID: 16-097.000 SPAN: 450-142-12639
|
HOUSESITE:
0
ACRES:
0.41 M
C
|GRAND LIST
714.00
714.00
-----------------------------------------------------------------------------------------------------------------------------------DARTMOUTH COLLEGE
|
MUNICIPAL
HOMESTEAD
NON-RESIDENTIAL
C/O REAL ESTATE OFFICE
|LAND
46,300
P O BOX 5188
|BUILDING
400
|TOTAL REAL
46,700
46,700
HANOVER NH 03755
|SPEC EXEMPTION
0
TAX MAP:
16-098.000
|
PROP DESC: 2.45 ACRES & SHED
|
911 ADDR: 31 RIVER RD
|
PARCEL ID: 16-098.000 SPAN: 450-142-12640
|
HOUSESITE:
0
ACRES:
2.45 M
C
|GRAND LIST
467.00
467.00
------------------------------------------------------------------------------------------------------------------------------------
06/12/2015
01:32 pm
Town of Norwich Grand List
Grand List Report (Detail)
By Name For All Parcels In All Districts
Page 66
jbynum
PARCEL INFORMATION
TAXABLE VALUATIONS / EXEMPTIONS / CONTRACTS
-----------------------------------------------------------------------------------------------------------------------------------DAVIES MARIE-HELENE V
|
MUNICIPAL
HOMESTEAD
NON-RESIDENTIAL
|LAND
0
120 MCCOSH CIR
|BUILDING
172,800
|TOTAL REAL
172,800
172,800
PRINCETON NJ 08540-5657
|SPEC EXEMPTION
0
TAX MAP:
15-055.008
|
PROP DESC: 43 NORWICH MEADOWS UNIT 8 & POOL
|
911 ADDR: 43 NORWICH MEADOWS 8
|
PARCEL ID: 15-055.008 SPAN: 450-142-11744
|
HOUSESITE:
172,800
ACRES:
0.00 O
NS
|GRAND LIST
1,728.00
1,728.00
-----------------------------------------------------------------------------------------------------------------------------------DAVIS MARCIA A
HMSTD FILED |
MUNICIPAL
HOMESTEAD
NON-RESIDENTIAL
|LAND
108,000
PO BOX 1232
|BUILDING
181,200
|TOTAL REAL
289,200
229,734
59,466
NORWICH VT 05055
|SPEC EXEMPTION
0
0
TAX MAP:
20-189.000
|
PROP DESC: .2 ACRE & DWL/APT
|
911 ADDR: 32 HAZEN ST
|
PARCEL ID: 20-189.000 SPAN: 450-142-12027
|
HOUSESITE:
229,734
ACRES:
0.20 R1 T
|GRAND LIST
2,892.00
2,297.34
594.66
-----------------------------------------------------------------------------------------------------------------------------------DAVIS NORWOOD H III
HMSTD FILED |
MUNICIPAL
HOMESTEAD
NON-RESIDENTIAL
DAVIS NICOLE BUTTERS
|LAND
228,900
162 DOUGLAS RD
|BUILDING
940,800
|TOTAL REAL
1169,700
1169,700
NORWICH VT 05055
|SPEC EXEMPTION
0
TAX MAP:
10-144.000
|
PROP DESC: 32.6 ACRES & DWL
|
911 ADDR: 162 DOUGLAS RD
|
PARCEL ID: 10-144.000 SPAN: 450-142-11915
|
HOUSESITE:
1078,600
ACRES:
32.60 R2 T
|GRAND LIST
11,697.00
11,697.00
-----------------------------------------------------------------------------------------------------------------------------------DAVIS THOMAS H
HMSTD FILED |
MUNICIPAL
HOMESTEAD
NON-RESIDENTIAL
DAVIS ROBIN
|LAND
131,700
150 UPPER TURNPIKE RD
|BUILDING
337,100
|TOTAL REAL
468,800
468,800
NORWICH VT 05055
|SPEC EXEMPTION
0
TAX MAP:
10-142.000
|
PROP DESC: 10.1 ACRES & DWL
|
911 ADDR: 150 UPPER TURNPIKE RD
|
PARCEL ID: 10-142.000 SPAN: 450-142-13113
|
HOUSESITE:
439,700
ACRES:
10.10 R2 T
|GRAND LIST
4,688.00
4,688.00
-----------------------------------------------------------------------------------------------------------------------------------DAVIS WILLIAM G III
HMSTD FILED |
MUNICIPAL
HOMESTEAD
NON-RESIDENTIAL
DICKENSON JULIA TAIT
|LAND
126,400
28 HOPSON RD
|BUILDING
263,800
|TOTAL REAL
390,200
390,200
NORWICH VT 05055
|SPEC EXEMPTION
0
TAX MAP:
20-036.000
|
PROP DESC: .55 ACRE & DWL
|
911 ADDR: 28 HOPSON RD
|
PARCEL ID: 20-036.000 SPAN: 450-142-12238
|
HOUSESITE:
390,200
ACRES:
0.55 R1 T
|GRAND LIST
3,902.00
3,902.00
------------------------------------------------------------------------------------------------------------------------------------
06/12/2015
01:32 pm
Town of Norwich Grand List
Grand List Report (Detail)
By Name For All Parcels In All Districts
Page 67
jbynum
PARCEL INFORMATION
TAXABLE VALUATIONS / EXEMPTIONS / CONTRACTS
-----------------------------------------------------------------------------------------------------------------------------------DEAN NANCY H
HMSTD FILED |
MUNICIPAL
HOMESTEAD
NON-RESIDENTIAL
|LAND
131,200
PO BOX 318
|BUILDING
362,500
|TOTAL REAL
493,700
493,700
NORWICH VT 05055-0318
|SPEC EXEMPTION
0
TAX MAP:
11-192.000
|
PROP DESC: 3.16 ACRES & DWL
|
911 ADDR: 5 PENNY LN
|
PARCEL ID: 11-192.000 SPAN: 450-142-12526
|
HOUSESITE:
489,500
ACRES:
3.16 R1 T
|GRAND LIST
4,937.00
4,937.00
-----------------------------------------------------------------------------------------------------------------------------------DEGASTA GARY M
HMSTD FILED |
MUNICIPAL
HOMESTEAD
NON-RESIDENTIAL
DEGASTA FRANCIS R
|LAND
131,200
386 HAWK PINE RD
|BUILDING
417,400
|TOTAL REAL
548,600
548,600
NORWICH VT 05055
|SPEC EXEMPTION
0
TAX MAP:
20-181.000
|
PROP DESC: 2.64 ACRES & DWL
|
911 ADDR: 386 HAWK PINE RD
|
PARCEL ID: 20-181.000 SPAN: 450-142-12563
|
HOUSESITE:
545,700
ACRES:
2.64 R1 T
|GRAND LIST
5,486.00
5,486.00
-----------------------------------------------------------------------------------------------------------------------------------DELL ALEXANDRIA
HMSTD FILED |
MUNICIPAL
HOMESTEAD
NON-RESIDENTIAL
|LAND
58,900
249 CHAPEL HILL RD
|BUILDING
121,900
|TOTAL REAL
180,800
180,800
NORWICH VT 05055-5504
|SPEC EXEMPTION
0
TAX MAP:
03-033.000
|
PROP DESC: .7 ACRE & DWL
|
911 ADDR: 249 CHAPEL HILL RD
|
PARCEL ID: 03-033.000 SPAN: 450-142-11802
|
HOUSESITE:
180,800
ACRES:
0.70 R1 T
|GRAND LIST
1,808.00
1,808.00
-----------------------------------------------------------------------------------------------------------------------------------DELONG PETER A
HMSTD FILED |
MUNICIPAL
HOMESTEAD
NON-RESIDENTIAL
|LAND
220,000
102 MAPLE HILL RD
|BUILDING
414,200
|TOTAL REAL
634,200
634,200
NORWICH VT 05055
|SPEC EXEMPTION
0
TAX MAP:
11-202.000
|
PROP DESC: 22 ACRES & DWL
|
911 ADDR: 102 MAPLE HILL RD
|
PARCEL ID: 11-202.000 SPAN: 450-142-12171
|
HOUSESITE:
572,000
ACRES:
22.00 R2 T
|GRAND LIST
6,342.00
6,342.00
-----------------------------------------------------------------------------------------------------------------------------------DELONG PETER A
|
MUNICIPAL
HOMESTEAD
NON-RESIDENTIAL
|LAND
141,900
102 MAPLE HILL RD
|BUILDING
166,800
|TOTAL REAL
308,700
308,700
NORWICH VT 05055
|SPEC EXEMPTION
0
TAX MAP:
16-040.000
|
PROP DESC: .47 ACRE & DWL
|
911 ADDR: 74 CARPENTER ST
|
PARCEL ID: 16-040.000 SPAN: 450-142-11797
|
HOUSESITE:
308,700
ACRES:
0.46 R1 T
|GRAND LIST
3,087.00
3,087.00
------------------------------------------------------------------------------------------------------------------------------------
06/12/2015
01:32 pm
Town of Norwich Grand List
Grand List Report (Detail)
By Name For All Parcels In All Districts
Page 68
jbynum
PARCEL INFORMATION
TAXABLE VALUATIONS / EXEMPTIONS / CONTRACTS
-----------------------------------------------------------------------------------------------------------------------------------DELUCIA DAVID E
HMSTD FILED |
MUNICIPAL
HOMESTEAD
NON-RESIDENTIAL
DELUCIA MARGARET
|LAND
156,500
133 MAPLE HILL RD
|BUILDING
428,200
|TOTAL REAL
584,700
584,700
NORWICH VT 05055
|SPEC EXEMPTION
0
TAX MAP:
11-143.000
|
PROP DESC: 10.1 ACRES & DWL
|
911 ADDR: 133 MAPLE HILL RD
|
PARCEL ID: 11-143.000 SPAN: 450-142-12170
|
HOUSESITE:
555,600
ACRES:
10.10 R2 T
|GRAND LIST
5,847.00
5,847.00
-----------------------------------------------------------------------------------------------------------------------------------DEMARS DANIEL D
|
MUNICIPAL
HOMESTEAD
NON-RESIDENTIAL
DEMARS LESLIE R
|LAND
160,400
28 DOUGLAS RD
|BUILDING
0
|TOTAL REAL
160,400
160,400
NORWICH VT 05055
|SPEC EXEMPTION
0
TAX MAP:
05-133.100
|
PROP DESC: 27.36 ACRES
|
911 ADDR: MEETINGHOUSE RD
|CURRENT USE
65,800
65,800
PARCEL ID: 05-133.100 SPAN: 450-142-12344
|
HOUSESITE:
0
ACRES:
27.36 M
T
|GRAND LIST
946.00
946.00
-----------------------------------------------------------------------------------------------------------------------------------DEMARS DANIEL D
HMSTD FILED |
MUNICIPAL
HOMESTEAD
NON-RESIDENTIAL
DEMARS LESLIE R
|LAND
132,600
28 DOUGLAS RD
|BUILDING
354,100
|TOTAL REAL
486,700
486,700
NORWICH VT 05055
|SPEC EXEMPTION
0
TAX MAP:
10-156.000
|
PROP DESC: 2.7 ACRES & DWL
|
911 ADDR: 28 DOUGLAS RD
|
PARCEL ID: 10-156.000 SPAN: 450-142-11887
|
HOUSESITE:
483,600
ACRES:
2.70 R1 T
|GRAND LIST
4,867.00
4,867.00
-----------------------------------------------------------------------------------------------------------------------------------DEMIDENKO EUGENE
HMSTD FILED |
MUNICIPAL
HOMESTEAD
NON-RESIDENTIAL
DEMIDENKO VALENTINA
|LAND
240,000
328 HAWK PINE RD
|BUILDING
238,900
|TOTAL REAL
478,900
478,900
NORWICH VT 05055
|SPEC EXEMPTION
0
TAX MAP:
16-126.000
|
PROP DESC: 2.8 ACRES & DWL INCL 1 ADDL LOT
|
911 ADDR: 328 HAWK PINE RD
|
PARCEL ID: 16-126.000 SPAN: 450-142-12553
|
HOUSESITE:
366,400
ACRES:
2.80 R1 T
|GRAND LIST
4,789.00
4,789.00
-----------------------------------------------------------------------------------------------------------------------------------DENNIS ALBERT
|
MUNICIPAL
HOMESTEAD
NON-RESIDENTIAL
DENNIS SHIRLEY M
|LAND
66,600
PO BOX 79
|BUILDING
26,500
|TOTAL REAL
93,100
93,100
NORWICH VT 05055-0079
|SPEC EXEMPTION
0
TAX MAP:
03-002.000
|
PROP DESC: 1.2 ACRES & DWL & MOBILE HOME
|
911 ADDR: 164 CHAPEL HILL RD
|
PARCEL ID: 03-002.000 SPAN: 450-142-11825
|
HOUSESITE:
93,100
ACRES:
1.20 R1 T
|GRAND LIST
931.00
931.00
------------------------------------------------------------------------------------------------------------------------------------
06/12/2015
01:32 pm
Town of Norwich Grand List
Grand List Report (Detail)
By Name For All Parcels In All Districts
Page 69
jbynum
PARCEL INFORMATION
TAXABLE VALUATIONS / EXEMPTIONS / CONTRACTS
-----------------------------------------------------------------------------------------------------------------------------------DENNIS REV LIVING TRUST
|
MUNICIPAL
HOMESTEAD
NON-RESIDENTIAL
|LAND
90,900
877 FOREST RD
|BUILDING
137,900
|TOTAL REAL
228,800
228,800
ST GEORGE VT 05495-8048
|SPEC EXEMPTION
0
TAX MAP:
05-013.000
|
PROP DESC: 2.5 ACRES & DWL
|
911 ADDR: 1302 NEW BOSTON RD
|
PARCEL ID: 05-013.000 SPAN: 450-142-12363
|
HOUSESITE:
226,600
ACRES:
2.50 R1 S
|GRAND LIST
2,288.00
2,288.00
-----------------------------------------------------------------------------------------------------------------------------------DERKSEN PAUL D
|
MUNICIPAL
HOMESTEAD
NON-RESIDENTIAL
WOLK LEAH R
|LAND
117,700
44 PATTRELL ROAD
|BUILDING
44,500
|TOTAL REAL
162,200
162,200
NORWICH VT 05055
|SPEC EXEMPTION
0
TAX MAP:
11-057.000
|
PROP DESC: .86 ACRE & DWL
|
911 ADDR: 44 PATTRELL RD
|
PARCEL ID: 11-057.000 SPAN: 450-142-12496
|
HOUSESITE:
162,200
ACRES:
0.86 R1 T
|GRAND LIST
1,622.00
1,622.00
-----------------------------------------------------------------------------------------------------------------------------------DERRICK PATRICIA A
|
MUNICIPAL
HOMESTEAD
NON-RESIDENTIAL
DERRICK DAVID A
|LAND
120,300
PO BOX 395
|BUILDING
0
|TOTAL REAL
120,300
120,300
WILDER VT 05088-0395
|SPEC EXEMPTION
0
TAX MAP:
09-069.000
|
PROP DESC: 39.14 ACRES
|
911 ADDR: BURTON WOODS RD
|CURRENT USE
115,300
115,300
PARCEL ID: 09-069.000 SPAN: 450-142-12607
|
HOUSESITE:
0
ACRES:
39.14 M
S
|GRAND LIST
50.00
50.00
-----------------------------------------------------------------------------------------------------------------------------------DESCOGNETS ARCHER B
HMSTD FILED |
MUNICIPAL
HOMESTEAD
NON-RESIDENTIAL
DESCOGNETS GINA C
|LAND
109,600
PO BOX 209
|BUILDING
211,400
|TOTAL REAL
321,000
321,000
NORWICH VT 05055
|SPEC EXEMPTION
0
TAX MAP:
20-193.000
|
PROP DESC: 0.23 ACRE & DWL
|
911 ADDR: 11 HAZEN ST
|
PARCEL ID: 20-193.000 SPAN: 450-142-12022
|
HOUSESITE:
321,000
ACRES:
0.23 R1 T
|GRAND LIST
3,210.00
3,210.00
-----------------------------------------------------------------------------------------------------------------------------------DETAR REED
HMSTD FILED |
MUNICIPAL
HOMESTEAD
NON-RESIDENTIAL
MAUTE CHRISTINE
|LAND
154,900
PO BOX 21
|BUILDING
210,500
|TOTAL REAL
365,400
365,400
NORWICH VT 05055-0021
|SPEC EXEMPTION
0
TAX MAP:
12-034.000
|
PROP DESC: .45 ACRE & DWL
|
911 ADDR: 1 RIVER EDGE LN
|
PARCEL ID: 12-034.000 SPAN: 450-142-12618
|
HOUSESITE:
365,400
ACRES:
0.45 R1 T
|GRAND LIST
3,654.00
3,654.00
------------------------------------------------------------------------------------------------------------------------------------
06/12/2015
01:32 pm
Town of Norwich Grand List
Grand List Report (Detail)
By Name For All Parcels In All Districts
Page 70
jbynum
PARCEL INFORMATION
TAXABLE VALUATIONS / EXEMPTIONS / CONTRACTS
-----------------------------------------------------------------------------------------------------------------------------------DEUTSCHE BANK NATIONAL
|
MUNICIPAL
HOMESTEAD
NON-RESIDENTIAL
C/O AMC MORTGAGE SERVICES
|LAND
99,600
2677 N MAIN STREET SUITE 1050
|BUILDING
79,800
|TOTAL REAL
179,400
179,400
SANTA ANA CA 92705-6004
|SPEC EXEMPTION
0
TAX MAP:
08-004.400
|
PROP DESC: 10.5 ACRES & DWL
|
911 ADDR: 722 TIGERTOWN RD
|
PARCEL ID: 08-004.400 SPAN: 450-142-12847
|
HOUSESITE:
149,200
ACRES:
10.50 R2 C
|GRAND LIST
1,794.00
1,794.00
-----------------------------------------------------------------------------------------------------------------------------------DEVAUX ALFRED G
HMSTD FILED |
MUNICIPAL
HOMESTEAD
NON-RESIDENTIAL
DEVAUX ALFRED G JR
|LAND
79,200
PO BOX 65
|BUILDING
12,000
|TOTAL REAL
91,200
91,200
NORWICH VT 05055-0065
|SPEC EXEMPTION
0
TAX MAP:
16-065.000
|
PROP DESC: .79 ACRE & MOBILE HOME
|
911 ADDR: 18 CROSSING LN
|
PARCEL ID: 16-065.000 SPAN: 450-142-12651
|
HOUSESITE:
91,200
ACRES:
0.79 MHL T
|GRAND LIST
912.00
912.00
-----------------------------------------------------------------------------------------------------------------------------------DEVAUX DENNIS A
|
MUNICIPAL
HOMESTEAD
NON-RESIDENTIAL
|LAND
152,600
87 EASTVIEW DR
|BUILDING
0
|TOTAL REAL
152,600
152,600
EAST THETFORD VT 05043-4424
|SPEC EXEMPTION
0
TAX MAP:
11-071.100
|
PROP DESC: 34.8 ACRES
|
911 ADDR: 584 GOODRICH FOUR CORNERS RD
|
PARCEL ID: 11-071.100 SPAN: 450-142-12006
|
HOUSESITE:
0
ACRES:
34.80 M
S
|GRAND LIST
1,526.00
1,526.00
-----------------------------------------------------------------------------------------------------------------------------------DEWEY CAROLYN
|
MUNICIPAL
HOMESTEAD
NON-RESIDENTIAL
|LAND
102,000
PO BOX 4044
|BUILDING
372,700
|TOTAL REAL
474,700
474,700
WHITEFISH MT 59937
|SPEC EXEMPTION
0
TAX MAP:
16-071.000
|
PROP DESC: 1.44 ACRES & DWL/APT
|
911 ADDR: 44 MCKENNA RD
|
PARCEL ID: 16-071.000 SPAN: 450-142-12180
|
HOUSESITE:
474,700
ACRES:
1.44 R1 NS
|GRAND LIST
4,747.00
4,747.00
-----------------------------------------------------------------------------------------------------------------------------------DICK JOHN F III
HMSTD FILED |
MUNICIPAL
HOMESTEAD
NON-RESIDENTIAL
ARVOLD VIRGINIA H
|LAND
128,800
55 DOUGLAS RIDGE
|BUILDING
455,100
|TOTAL REAL
583,900
583,900
NORWICH VT 05055
|SPEC EXEMPTION
0
TAX MAP:
10-151.000
|
PROP DESC: 2.4 ACRES & DWL
|
911 ADDR: 55 DOUGLAS RIDGE
|
PARCEL ID: 10-151.000 SPAN: 450-142-11900
|
HOUSESITE:
582,100
ACRES:
2.40 R1 T
|GRAND LIST
5,839.00
5,839.00
------------------------------------------------------------------------------------------------------------------------------------
06/12/2015
01:32 pm
Town of Norwich Grand List
Grand List Report (Detail)
By Name For All Parcels In All Districts
Page 71
jbynum
PARCEL INFORMATION
TAXABLE VALUATIONS / EXEMPTIONS / CONTRACTS
-----------------------------------------------------------------------------------------------------------------------------------DICK JOHN F III
|
MUNICIPAL
HOMESTEAD
NON-RESIDENTIAL
ARVOLD VIRGINIA H
|LAND
19,800
55 DOUGLAS RIDGE
|BUILDING
0
|TOTAL REAL
19,800
19,800
NORWICH VT 05055
|SPEC EXEMPTION
0
TAX MAP:
10-152.000
|
PROP DESC: 4.5 ACRES
|
911 ADDR: DOUGLAS RIDGE
|
PARCEL ID: 10-152.000 SPAN: 450-142-11899
|
HOUSESITE:
0
ACRES:
4.50 M
T
|GRAND LIST
198.00
198.00
-----------------------------------------------------------------------------------------------------------------------------------DINGMAN MARY E
HMSTD FILED |
MUNICIPAL
HOMESTEAD
NON-RESIDENTIAL
LAMPERTI CLAUDIA J
|LAND
108,300
513 NEW BOSTON RD
|BUILDING
202,700
|TOTAL REAL
311,000
311,000
NORWICH VT 05055
|SPEC EXEMPTION
0
TAX MAP:
10-160.000
|
PROP DESC: 2.85 ACRES & DWL
|
911 ADDR: 513 NEW BOSTON RD
|
PARCEL ID: 10-160.000 SPAN: 450-142-12294
|
HOUSESITE:
307,200
ACRES:
2.85 R1 T
|GRAND LIST
3,110.00
3,110.00
-----------------------------------------------------------------------------------------------------------------------------------DINULOS MARY BETH
HMSTD FILED |
MUNICIPAL
HOMESTEAD
NON-RESIDENTIAL
|LAND
138,700
266 KERWIN HILL RD
|BUILDING
259,000
|TOTAL REAL
397,700
397,700
NORWICH VT 05055
|SPEC EXEMPTION
0
TAX MAP:
05-048.000
|
PROP DESC: 4.9 ACRES & DWL
|
911 ADDR: 266 KERWIN HILL RD
|
PARCEL ID: 05-048.000 SPAN: 450-142-12122
|
HOUSESITE:
387,300
ACRES:
4.90 R1 T
|GRAND LIST
3,977.00
3,977.00
-----------------------------------------------------------------------------------------------------------------------------------DISDIER ISAMARIE
HMSTD FILED |
MUNICIPAL
HOMESTEAD
NON-RESIDENTIAL
SANVILLE BRIAN
|LAND
0
49 STARLAKE LANE
|BUILDING
113,600
|TOTAL REAL
113,600
113,600
NORWICH VT 05055
|SPEC EXEMPTION
0
TAX MAP:
12-003.250
|
PROP DESC: DWELLING ONLY LOT 5
|
911 ADDR: 49 STARLAKE LN
|
PARCEL ID: 12-003.250 SPAN: 450-142-13332
|
HOUSESITE:
113,600
ACRES:
0.00 R1 T
|GRAND LIST
1,136.00
1,136.00
-----------------------------------------------------------------------------------------------------------------------------------DIXON MARK D
HMSTD FILED |
MUNICIPAL
HOMESTEAD
NON-RESIDENTIAL
HORWITZ MELISSA
|LAND
99,800
6 SPUR LANE
|BUILDING
270,000
|TOTAL REAL
369,800
369,800
NORWICH VT 05055
|SPEC EXEMPTION
0
TAX MAP:
16-023.000
|
PROP DESC: 1.4 ACRES & DWL
|
911 ADDR: 6 SPUR LN
|
PARCEL ID: 16-023.000 SPAN: 450-142-11973
|
HOUSESITE:
369,800
ACRES:
1.40 R1 T
|GRAND LIST
3,698.00
3,698.00
------------------------------------------------------------------------------------------------------------------------------------
06/12/2015
01:32 pm
Town of Norwich Grand List
Grand List Report (Detail)
By Name For All Parcels In All Districts
Page 72
jbynum
PARCEL INFORMATION
TAXABLE VALUATIONS / EXEMPTIONS / CONTRACTS
-----------------------------------------------------------------------------------------------------------------------------------DIXON VESTAL KENNETH R
HMSTD FILED |
MUNICIPAL
HOMESTEAD
NON-RESIDENTIAL
DIXON VESTAL RUTH E
|LAND
149,800
PO BOX 1072
|BUILDING
323,000
|TOTAL REAL
472,800
472,800
NORWICH VT 05055-1072
|SPEC EXEMPTION
0
TAX MAP:
11-064.000
|VETERAN
40,000
40,000
PROP DESC: 21.5 ACRES & DWL
|
911 ADDR: 63 SHILOH LN
|
PARCEL ID: 11-064.000 SPAN: 450-142-13052
|
HOUSESITE:
424,100
ACRES:
21.50 R2 T
|GRAND LIST
4,328.00
4,328.00
-----------------------------------------------------------------------------------------------------------------------------------DOBRUSHINA VICTORIA J
HMSTD FILED |
MUNICIPAL
HOMESTEAD
NON-RESIDENTIAL
PINIGIN RUSIAN N
|LAND
0
37 STARLAKE LN
|BUILDING
106,200
|TOTAL REAL
106,200
106,200
NORWICH VT 05055
|SPEC EXEMPTION
0
TAX MAP:
12-003.230
|
PROP DESC: DWELLING ONLY
LOT 3
|
911 ADDR: 37 STARLAKE LN
|
PARCEL ID: 12-003.230 SPAN: 450-142-12691
|
HOUSESITE:
106,200
ACRES:
0.00 R1 T
|GRAND LIST
1,062.00
1,062.00
-----------------------------------------------------------------------------------------------------------------------------------DOBYNS BROWN M
|
MUNICIPAL
HOMESTEAD
NON-RESIDENTIAL
DOBYNS CYNTHIA K
|LAND
69,700
PO BOX 9
|BUILDING
0
|TOTAL REAL
69,700
69,700
NORWICH VT 05055-0009
|SPEC EXEMPTION
0
TAX MAP:
03-037.000
|
PROP DESC: 7.3 ACRES
|
911 ADDR: CHAPEL HILL RD
|
PARCEL ID: 03-037.000 SPAN: 450-142-11812
|
HOUSESITE:
0
ACRES:
7.30 M
T
|GRAND LIST
697.00
697.00
-----------------------------------------------------------------------------------------------------------------------------------DOBYNS BROWN M JR
|
MUNICIPAL
HOMESTEAD
NON-RESIDENTIAL
|LAND
128,300
PO BOX 9
|BUILDING
0
|TOTAL REAL
128,300
128,300
NORWICH VT 05055-0009
|SPEC EXEMPTION
0
TAX MAP:
03-038.000
|
PROP DESC: 57 ACRES
|
911 ADDR: CHAPEL HILL RD
|
PARCEL ID: 03-038.000 SPAN: 450-142-11815
|
HOUSESITE:
0
ACRES:
58.10 M
T
|GRAND LIST
1,283.00
1,283.00
-----------------------------------------------------------------------------------------------------------------------------------DOBYNS COURTNEY
HMSTD FILED |
MUNICIPAL
HOMESTEAD
NON-RESIDENTIAL
|LAND
127,700
PO BOX 271
|BUILDING
176,500
|TOTAL REAL
304,200
304,200
NORWICH VT 05055-0271
|SPEC EXEMPTION
0
TAX MAP:
11-049.000
|
PROP DESC: 10.1 ACRES & DWL
|
911 ADDR: 741 UNION VILLAGE RD
|
PARCEL ID: 11-049.000 SPAN: 450-142-13030
|
HOUSESITE:
275,100
ACRES:
10.10 R2 T
|GRAND LIST
3,042.00
3,042.00
------------------------------------------------------------------------------------------------------------------------------------
06/12/2015
01:32 pm
Town of Norwich Grand List
Grand List Report (Detail)
By Name For All Parcels In All Districts
Page 73
jbynum
PARCEL INFORMATION
TAXABLE VALUATIONS / EXEMPTIONS / CONTRACTS
-----------------------------------------------------------------------------------------------------------------------------------DOLAN GAIL G LIVING TRUST
HMSTD FILED |
MUNICIPAL
HOMESTEAD
NON-RESIDENTIAL
|LAND
118,800
98 MCKENNA RD
|BUILDING
297,800
|TOTAL REAL
416,600
416,600
NORWICH VT 05055
|SPEC EXEMPTION
0
TAX MAP:
16-077.000
|
PROP DESC: 1.00 ACRES & DWL
|
911 ADDR: 98 MCKENNA RD
|
PARCEL ID: 16-077.000 SPAN: 450-142-12193
|
HOUSESITE:
416,600
ACRES:
1.00 R1 T
|GRAND LIST
4,166.00
4,166.00
-----------------------------------------------------------------------------------------------------------------------------------DOLAN GAIL G LIVING TRUST
|
MUNICIPAL
HOMESTEAD
NON-RESIDENTIAL
|LAND
3,700
98 MCKENNA RD
|BUILDING
0
|TOTAL REAL
3,700
3,700
NORWICH VT 05055
|SPEC EXEMPTION
0
TAX MAP:
16-081.000
|
PROP DESC: .52 ACRE
|
911 ADDR: MCKENNA RD
|
PARCEL ID: 16-081.000 SPAN: 450-142-12195
|
HOUSESITE:
0
ACRES:
0.52 M
T
|GRAND LIST
37.00
37.00
-----------------------------------------------------------------------------------------------------------------------------------DOLE SARAH HARTMAN TRUSTEE
HMSTD FILED |
MUNICIPAL
HOMESTEAD
NON-RESIDENTIAL
SARAH HARTMAN DOLE REV LIV TR
|LAND
144,700
888 BEAVER MEADOW RD
|BUILDING
450,900
|TOTAL REAL
595,600
595,600
NORWICH VT 05055
|SPEC EXEMPTION
0
TAX MAP:
10-031.220
|
PROP DESC: 5.56 ACRES & DWL
|
911 ADDR: 888 BEAVER MEADOW RD
|
PARCEL ID: 10-031.220 SPAN: 450-142-11594
|
HOUSESITE:
580,200
ACRES:
5.56 R1 T
|GRAND LIST
5,956.00
5,956.00
-----------------------------------------------------------------------------------------------------------------------------------DOMINY NATHANIEL J
|
MUNICIPAL
HOMESTEAD
NON-RESIDENTIAL
BUTLER ERIN ELIZABETH
|LAND
120,300
295 HAWK PINE RD
|BUILDING
386,000
|TOTAL REAL
506,300
506,300
NORWICH VT 05055
|SPEC EXEMPTION
0
TAX MAP:
16-153.000
|
PROP DESC: 1.76 ACRES & DWL
|
911 ADDR: 295 HAWK PINE RD
|
PARCEL ID: 16-153.000 SPAN: 450-142-12550
|
HOUSESITE:
506,300
ACRES:
1.76 R1 T
|GRAND LIST
5,063.00
5,063.00
-----------------------------------------------------------------------------------------------------------------------------------DONNELLY CRAIG L
HMSTD FILED |
MUNICIPAL
HOMESTEAD
NON-RESIDENTIAL
DONNELLY GOSHA Z
|LAND
123,200
18 FALCON LA
|BUILDING
400,400
|TOTAL REAL
523,600
523,600
NORWICH VT 05055
|SPEC EXEMPTION
0
TAX MAP:
11-175.000
|
PROP DESC: 1.16 ACRES & DWL
|
911 ADDR: 18 FALCON LN
|
PARCEL ID: 11-175.000 SPAN: 450-142-12539
|
HOUSESITE:
523,600
ACRES:
1.16 R1 T
|GRAND LIST
5,236.00
5,236.00
------------------------------------------------------------------------------------------------------------------------------------
06/12/2015
01:32 pm
Town of Norwich Grand List
Grand List Report (Detail)
By Name For All Parcels In All Districts
Page 74
jbynum
PARCEL INFORMATION
TAXABLE VALUATIONS / EXEMPTIONS / CONTRACTS
-----------------------------------------------------------------------------------------------------------------------------------DONOHUE PAUL A
HMSTD FILED |
MUNICIPAL
HOMESTEAD
NON-RESIDENTIAL
DONOHUE BOBBYE T
|LAND
103,200
17 KATE WALLACE RD
|BUILDING
253,200
|TOTAL REAL
356,400
356,400
NORWICH VT 05055
|SPEC EXEMPTION
0
TAX MAP:
09-028.000
|
PROP DESC: 2.15 ACRES & DWL
|
911 ADDR: 17 KATE WALLACE RD
|
PARCEL ID: 09-028.000 SPAN: 450-142-12114
|
HOUSESITE:
355,700
ACRES:
2.15 R1 T
|GRAND LIST
3,564.00
3,564.00
-----------------------------------------------------------------------------------------------------------------------------------DONOVAN EAMONN
|
MUNICIPAL
HOMESTEAD
NON-RESIDENTIAL
|LAND
120,300
208 TUCKER HILL ROAD
|BUILDING
0
|TOTAL REAL
120,300
120,300
NORWICH VT 05055
|SPEC EXEMPTION
0
TAX MAP:
01-001.000
|
PROP DESC: 32.76 ACRES
|
911 ADDR: TURNPIKE RD
|
PARCEL ID: 01-001.000 SPAN: 450-142-13001
|
HOUSESITE:
0
ACRES:
32.76 M
T
|GRAND LIST
1,203.00
1,203.00
-----------------------------------------------------------------------------------------------------------------------------------DORION GEORGE
|
MUNICIPAL
HOMESTEAD
NON-RESIDENTIAL
DORION DOROTHY
|LAND
228,500
7922 HUNTER`S GROVE
|BUILDING
1429,100
|TOTAL REAL
1657,600
1657,600
JACKSONVILLE FL 32256
|SPEC EXEMPTION
0
TAX MAP:
11-036.000
|
PROP DESC: 25.1 ACRES & DWL
|
911 ADDR: 221 BRADLEY HILL RD
|
PARCEL ID: 11-036.000 SPAN: 450-142-11644
|
HOUSESITE:
1322,100
ACRES:
25.10 R2 NS
|GRAND LIST
16,576.00
16,576.00
-----------------------------------------------------------------------------------------------------------------------------------DOSCHER MARGO
HMSTD FILED |
MUNICIPAL
HOMESTEAD
NON-RESIDENTIAL
DOSCHER PAUL F
|LAND
224,400
127 TILDEN HILL RD
|BUILDING
416,400
|TOTAL REAL
640,800
580,500
60,300
NORWICH VT 05055
|SPEC EXEMPTION
0
0
TAX MAP:
10-041.000
|
PROP DESC: 24.2 ACRES & DWL
|
911 ADDR: 127 TILDEN HILL RD
|
PARCEL ID: 10-041.000 SPAN: 450-142-12857
|
HOUSESITE:
512,300
ACRES:
24.20 R2 T
|GRAND LIST
6,408.00
5,805.00
603.00
-----------------------------------------------------------------------------------------------------------------------------------DOUBLE C ENTERPRISES
|
MUNICIPAL
HOMESTEAD
NON-RESIDENTIAL
|LAND
33,300
3 SUMMERSELL DR
|BUILDING
0
|TOTAL REAL
33,300
33,300
HARTLAND VT 05048
|SPEC EXEMPTION
0
TAX MAP:
04-011.200
|
PROP DESC: REAR LOT 9 ACRES
|
911 ADDR: CHAPEL HILL RD
|CURRENT USE
32,100
32,100
PARCEL ID: 04-011.200 SPAN: 450-142-12992
|
HOUSESITE:
0
ACRES:
9.00 M
S
|GRAND LIST
12.00
12.00
------------------------------------------------------------------------------------------------------------------------------------
06/12/2015
01:32 pm
Town of Norwich Grand List
Grand List Report (Detail)
By Name For All Parcels In All Districts
Page 75
jbynum
PARCEL INFORMATION
TAXABLE VALUATIONS / EXEMPTIONS / CONTRACTS
-----------------------------------------------------------------------------------------------------------------------------------DOWD-DEROY AMANDA
HMSTD FILED |
MUNICIPAL
HOMESTEAD
NON-RESIDENTIAL
|LAND
193,600
1743 RTE 5 N
|BUILDING
98,200
|TOTAL REAL
291,800
291,800
NORWICH VT 05055
|SPEC EXEMPTION
0
TAX MAP:
06-063.000
|
PROP DESC: 1.88 ACRE & DWL & MH INCL ADDL LOT
|
911 ADDR: 1743 US ROUTE 5 NORTH
|
PARCEL ID: 06-063.000 SPAN: 450-142-12726
|
HOUSESITE:
291,800
ACRES:
1.88 R1 T
|GRAND LIST
2,918.00
2,918.00
-----------------------------------------------------------------------------------------------------------------------------------DOWNEY JAMES E
|
MUNICIPAL
HOMESTEAD
NON-RESIDENTIAL
|LAND
123,300
467 TURNPIKE RD
|BUILDING
102,400
|TOTAL REAL
225,700
225,700
NORWICH VT 05055
|SPEC EXEMPTION
0
TAX MAP:
10-073.000
|
PROP DESC: .96 ACRE & DWL
|
911 ADDR: 467 TURNPIKE RD
|
PARCEL ID: 10-073.000 SPAN: 450-142-12922
|
HOUSESITE:
225,700
ACRES:
0.96 R1 T
|GRAND LIST
2,257.00
2,257.00
-----------------------------------------------------------------------------------------------------------------------------------DOWNING MARJORIE
HMSTD FILED |
MUNICIPAL
HOMESTEAD
NON-RESIDENTIAL
|LAND
147,700
66 KERWIN HILL RD
|BUILDING
96,000
|TOTAL REAL
243,700
243,700
NORWICH VT 05055
|SPEC EXEMPTION
0
TAX MAP:
05-053.000
|
PROP DESC: 7 ACRES & DWL
|
911 ADDR: 66 KERWIN HILL RD
|
PARCEL ID: 05-053.000 SPAN: 450-142-12116
|
HOUSESITE:
223,800
ACRES:
7.00 R2 T
|GRAND LIST
2,437.00
2,437.00
-----------------------------------------------------------------------------------------------------------------------------------DRAKE MARTHA C
HMSTD FILED |
MUNICIPAL
HOMESTEAD
NON-RESIDENTIAL
|LAND
131,300
1480 UNION VILLAGE RD
|BUILDING
297,200
|TOTAL REAL
428,500
428,500
NORWICH VT 05055
|SPEC EXEMPTION
0
TAX MAP:
05-068.000
|
PROP DESC: 11.4 ACRES & DWL
|
911 ADDR: 1480 UNION VILLAGE RD
|
PARCEL ID: 05-068.000 SPAN: 450-142-13066
|
HOUSESITE:
395,700
ACRES:
11.40 R2 T
|GRAND LIST
4,285.00
4,285.00
-----------------------------------------------------------------------------------------------------------------------------------DRAKE WILLIAM E TRUSTEE
|
MUNICIPAL
HOMESTEAD
NON-RESIDENTIAL
DRAKE REVOCABLE TRUST WILLIAM E
|LAND
250,500
221 US ROUTE 5 S
|BUILDING
264,700
|TOTAL REAL
515,200
515,200
NORWICH VT 05055
|SPEC EXEMPTION
0
TAX MAP:
15-071.000
|
PROP DESC: 2.1 ACRES & COMM BLDG COLTON CTR
|
911 ADDR: 221 US ROUTE 5 SOUTH
|
PARCEL ID: 15-071.000 SPAN: 450-142-12739
|
HOUSESITE:
0
ACRES:
2.10 C
T
|GRAND LIST
5,152.00
5,152.00
------------------------------------------------------------------------------------------------------------------------------------
06/12/2015
01:32 pm
Town of Norwich Grand List
Grand List Report (Detail)
By Name For All Parcels In All Districts
Page 76
jbynum
PARCEL INFORMATION
TAXABLE VALUATIONS / EXEMPTIONS / CONTRACTS
-----------------------------------------------------------------------------------------------------------------------------------DRAZIN DAVID M
HMSTD FILED |
MUNICIPAL
HOMESTEAD
NON-RESIDENTIAL
|LAND
65,800
PO BOX 776
|BUILDING
195,700
|TOTAL REAL
261,500
234,186
27,314
NORWICH VT 05055
|SPEC EXEMPTION
0
0
TAX MAP:
03-009.000
|
PROP DESC: 1 ACRE & DWL
|
911 ADDR: 207 CHAPEL HILL RD
|
PARCEL ID: 03-009.000 SPAN: 450-142-11821
|
HOUSESITE:
234,186
ACRES:
1.00 R1 T
|GRAND LIST
2,615.00
2,341.86
273.14
-----------------------------------------------------------------------------------------------------------------------------------DREW VERNE
HMSTD FILED |
MUNICIPAL
HOMESTEAD
NON-RESIDENTIAL
|LAND
649,900
1141 US ROUTE 5 N
|BUILDING
269,800
|TOTAL REAL
919,700
919,700
NORWICH VT 05055
|SPEC EXEMPTION
0
TAX MAP:
12-006.000
|
PROP DESC: 152.3 ACRES & DWL
|
911 ADDR: 1141 US ROUTE 5 NORTH
|
PARCEL ID: 12-006.000 SPAN: 450-142-12703
|
HOUSESITE:
367,600
ACRES:
162.30 F
T
|GRAND LIST
9,197.00
9,197.00
-----------------------------------------------------------------------------------------------------------------------------------DRINANE TOM
HMSTD FILED |
MUNICIPAL
HOMESTEAD
NON-RESIDENTIAL
RATCLIFFE NORA
|LAND
128,800
8 DOUGLAS RIDGE
|BUILDING
348,100
|TOTAL REAL
476,900
476,900
NORWICH VT 05055
|SPEC EXEMPTION
0
TAX MAP:
10-154.000
|
PROP DESC: 2.4 ACRES & DWL
|
911 ADDR: 8 DOUGLAS RIDGE
|
PARCEL ID: 10-154.000 SPAN: 450-142-11897
|
HOUSESITE:
475,100
ACRES:
2.40 R1 T
|GRAND LIST
4,769.00
4,769.00
-----------------------------------------------------------------------------------------------------------------------------------DUFTY DEBORAH
HMSTD FILED |
MUNICIPAL
HOMESTEAD
NON-RESIDENTIAL
|LAND
175,900
436 MAIN STREET
|BUILDING
308,300
|TOTAL REAL
484,200
484,200
NORWICH VT 05055
|SPEC EXEMPTION
0
TAX MAP:
20-171.000
|
PROP DESC: 1.2 ACRES & DWL
|
911 ADDR: 436 MAIN ST
|
PARCEL ID: 20-171.000 SPAN: 450-142-12439
|
HOUSESITE:
484,200
ACRES:
1.20 R1 T
|GRAND LIST
4,842.00
4,842.00
-----------------------------------------------------------------------------------------------------------------------------------DUFTY KIRK R
HMSTD FILED |
MUNICIPAL
HOMESTEAD
NON-RESIDENTIAL
DUFTY PATRICIA L
|LAND
117,700
56 SUNDBACK LN
|BUILDING
361,400
|TOTAL REAL
479,100
479,100
NORWICH VT 05055
|SPEC EXEMPTION
0
TAX MAP:
10-168.210
|
PROP DESC: 5.56 ACRES & DWL
|
911 ADDR: 56 SUNDBACK LN
|
PARCEL ID: 10-168.210 SPAN: 450-142-12305
|
HOUSESITE:
463,700
ACRES:
5.56 R1 T
|GRAND LIST
4,791.00
4,791.00
------------------------------------------------------------------------------------------------------------------------------------
06/12/2015
01:32 pm
Town of Norwich Grand List
Grand List Report (Detail)
By Name For All Parcels In All Districts
Page 77
jbynum
PARCEL INFORMATION
TAXABLE VALUATIONS / EXEMPTIONS / CONTRACTS
-----------------------------------------------------------------------------------------------------------------------------------DUNCAN MATTHEW
HMSTD FILED |
MUNICIPAL
HOMESTEAD
NON-RESIDENTIAL
DUNCAN LAURA
|LAND
118,800
317 HAWK PINE RD
|BUILDING
273,600
|TOTAL REAL
392,400
392,400
NORWICH VT 05055
|SPEC EXEMPTION
0
TAX MAP:
16-154.000
|
PROP DESC: 1.3 ACRES & DWL
|
911 ADDR: 317 HAWK PINE RD
|
PARCEL ID: 16-154.000 SPAN: 450-142-12554
|
HOUSESITE:
392,400
ACRES:
1.30 R1 T
|GRAND LIST
3,924.00
3,924.00
-----------------------------------------------------------------------------------------------------------------------------------DUNN JOHN L III
|
MUNICIPAL
HOMESTEAD
NON-RESIDENTIAL
DUNN LYNET E
|LAND
233,400
1911 STEMPLY COURT
|BUILDING
298,700
|TOTAL REAL
532,100
532,100
HOUSTON TX 77094
|SPEC EXEMPTION
0
TAX MAP:
05-069.000
|
PROP DESC: 49 ACRES & DWL
|
911 ADDR: 1460 UNION VILLAGE RD
|
PARCEL ID: 05-069.000 SPAN: 450-142-13065
|
HOUSESITE:
396,600
ACRES:
49.00 R2 NS
|GRAND LIST
5,321.00
5,321.00
-----------------------------------------------------------------------------------------------------------------------------------DUPUIS ANNAH B
HMSTD FILED |
MUNICIPAL
HOMESTEAD
NON-RESIDENTIAL
|LAND
129,100
348 MAIN ST
|BUILDING
279,600
|TOTAL REAL
408,700
408,700
NORWICH VT 05055
|SPEC EXEMPTION
0
TAX MAP:
20-208.000
|
PROP DESC: .25 ACRE & DWL
|
911 ADDR: 348 MAIN ST
|
PARCEL ID: 20-208.000 SPAN: 450-142-12418
|
HOUSESITE:
408,700
ACRES:
0.25 R1 T
|GRAND LIST
4,087.00
4,087.00
-----------------------------------------------------------------------------------------------------------------------------------DURST JOSHUA L TRUSTEE
HMSTD FILED |
MUNICIPAL
HOMESTEAD
NON-RESIDENTIAL
JOSHUA L DURST 2011 TRUST
|LAND
219,500
844 NEW BOSTON RD
|BUILDING
609,800
|TOTAL REAL
829,300
829,300
NORWICH VT 05055-9671
|SPEC EXEMPTION
0
TAX MAP:
05-003.200
|
PROP DESC: 33.68 ACRES & DWL
|
911 ADDR: 155 BARBARA LEE LN
|
PARCEL ID: 05-003.200 SPAN: 450-142-12326
|
HOUSESITE:
735,300
ACRES:
33.68 R2 T
|GRAND LIST
8,293.00
8,293.00
-----------------------------------------------------------------------------------------------------------------------------------DWINELL MASON
HMSTD FILED |
MUNICIPAL
HOMESTEAD
NON-RESIDENTIAL
|LAND
485,100
1173A NEW BOSTON ROAD
|BUILDING
193,400
|TOTAL REAL
678,500
678,500
NORWICH VT 05055
|SPEC EXEMPTION
0
TAX MAP:
05-008.100
|
PROP DESC: 137.35 AC & DWL INCL 1 ADDL LOT
|
911 ADDR: 1169 NEW BOSTON RD
|
PARCEL ID: 05-008.100 SPAN: 450-142-12353
|
HOUSESITE:
290,600
ACRES:
137.35 R2 T
|GRAND LIST
6,785.00
6,785.00
------------------------------------------------------------------------------------------------------------------------------------
06/12/2015
01:32 pm
Town of Norwich Grand List
Grand List Report (Detail)
By Name For All Parcels In All Districts
Page 78
jbynum
PARCEL INFORMATION
TAXABLE VALUATIONS / EXEMPTIONS / CONTRACTS
-----------------------------------------------------------------------------------------------------------------------------------DWYER BARNEY E
HMSTD FILED |
MUNICIPAL
HOMESTEAD
NON-RESIDENTIAL
|LAND
121,100
P O BOX 503
|BUILDING
189,800
|TOTAL REAL
310,900
310,900
NORWICH VT 05055-0526
|SPEC EXEMPTION
0
TAX MAP:
20-143.000
|
PROP DESC: .45 ACRE & DWL
|
911 ADDR: 43 TURNPIKE RD
|
PARCEL ID: 20-143.000 SPAN: 450-142-12892
|
HOUSESITE:
310,900
ACRES:
0.45 R1 T
|GRAND LIST
3,109.00
3,109.00
-----------------------------------------------------------------------------------------------------------------------------------DWYER GRETCHEN
HMSTD FILED |
MUNICIPAL
HOMESTEAD
NON-RESIDENTIAL
|LAND
98,600
488 NEW BOSTON RD
|BUILDING
133,600
|TOTAL REAL
232,200
232,200
NORWICH VT 05055
|SPEC EXEMPTION
0
TAX MAP:
10-171.000
|
PROP DESC: 2.0 ACRES & DWL
|
911 ADDR: 488 NEW BOSTON RD
|
PARCEL ID: 10-171.000 SPAN: 450-142-12291
|
HOUSESITE:
232,200
ACRES:
2.00 R1 T
|GRAND LIST
2,322.00
2,322.00
-----------------------------------------------------------------------------------------------------------------------------------DYKE ROSE Z TRUST
|
MUNICIPAL
HOMESTEAD
NON-RESIDENTIAL
|LAND
185,300
C/O JUDITH CURRIER
|BUILDING
0
15391 MONTRESOR ROAD
|TOTAL REAL
185,300
185,300
LEESBURG VA 20176
|SPEC EXEMPTION
0
TAX MAP:
15-042.000
|
PROP DESC: 34.7 ACRES
|
911 ADDR: US ROUTE 5 SOUTH
|
PARCEL ID: 15-042.000 SPAN: 450-142-12743
|
HOUSESITE:
0
ACRES:
34.70 M
NS
|GRAND LIST
1,853.00
1,853.00
-----------------------------------------------------------------------------------------------------------------------------------EAKIN JAMES W
HMSTD FILED |
MUNICIPAL
HOMESTEAD
NON-RESIDENTIAL
EAKIN BECKIE C
|LAND
126,000
356 HAWK PINE RD
|BUILDING
284,000
|TOTAL REAL
410,000
410,000
NORWICH VT 05055
|SPEC EXEMPTION
0
TAX MAP:
16-124.000
|
PROP DESC: 1.48 ACRES & DWL
|
911 ADDR: 356 HAWK PINE RD
|
PARCEL ID: 16-124.000 SPAN: 450-142-12559
|
HOUSESITE:
410,000
ACRES:
1.48 R1 T
|GRAND LIST
4,100.00
4,100.00
-----------------------------------------------------------------------------------------------------------------------------------ECCLES ELIZABETH H
HMSTD FILED |
MUNICIPAL
HOMESTEAD
NON-RESIDENTIAL
|LAND
150,000
147 PATTRELL RD
|BUILDING
399,900
|TOTAL REAL
549,900
549,900
NORWICH VT 05055
|SPEC EXEMPTION
0
TAX MAP:
05-106.000
|
PROP DESC: 10 ACRES & DWL
|
911 ADDR: 147 PATTRELL RD
|
PARCEL ID: 05-106.000 SPAN: 450-142-12503
|
HOUSESITE:
521,100
ACRES:
10.00 R2 T
|GRAND LIST
5,499.00
5,499.00
------------------------------------------------------------------------------------------------------------------------------------
06/12/2015
01:32 pm
Town of Norwich Grand List
Grand List Report (Detail)
By Name For All Parcels In All Districts
Page 79
jbynum
PARCEL INFORMATION
TAXABLE VALUATIONS / EXEMPTIONS / CONTRACTS
-----------------------------------------------------------------------------------------------------------------------------------EDWARDS WILLIAM H
HMSTD FILED |
MUNICIPAL
HOMESTEAD
NON-RESIDENTIAL
EDWARDS SUSAN T
|LAND
158,000
220 UPPER TURNPIKE RD
|BUILDING
599,600
|TOTAL REAL
757,600
757,600
NORWICH VT 05055
|SPEC EXEMPTION
0
TAX MAP:
04-051.000
|
PROP DESC: 12.9 ACRES & DWL
|
911 ADDR: 220 UPPER TURNPIKE RD
|
PARCEL ID: 04-051.000 SPAN: 450-142-13120
|
HOUSESITE:
720,600
ACRES:
12.90 R2 T
|GRAND LIST
7,576.00
7,576.00
-----------------------------------------------------------------------------------------------------------------------------------EGNA ELIZABETH ANN
HMSTD FILED |
MUNICIPAL
HOMESTEAD
NON-RESIDENTIAL
|LAND
60,600
PO BOX 1053
|BUILDING
139,000
|TOTAL REAL
199,600
199,600
NORWICH VT 05055-1053
|SPEC EXEMPTION
0
TAX MAP:
11-076.000
|
PROP DESC: .2 ACRE & DWL
|
911 ADDR: 81 TOWN FARM RD
|
PARCEL ID: 11-076.000 SPAN: 450-142-12866
|
HOUSESITE:
199,600
ACRES:
0.20 R1 T
|GRAND LIST
1,996.00
1,996.00
-----------------------------------------------------------------------------------------------------------------------------------EGNER 2005 REVOCABLE TRUST JOANNE C
HMSTD FILED |
MUNICIPAL
HOMESTEAD
NON-RESIDENTIAL
|LAND
191,100
PO BOX 842
|BUILDING
354,000
|TOTAL REAL
545,100
545,100
NORWICH VT 05055-0842
|SPEC EXEMPTION
0
TAX MAP:
15-023.300
|
PROP DESC: 10.1 ACRES & DWL
|
911 ADDR: 344 BRAGG HILL RD
|
PARCEL ID: 15-023.300 SPAN: 450-142-11674
|
HOUSESITE:
516,000
ACRES:
10.10 R2 T
|GRAND LIST
5,451.00
5,451.00
-----------------------------------------------------------------------------------------------------------------------------------EGNER CHARLES
|
MUNICIPAL
HOMESTEAD
NON-RESIDENTIAL
EGNER JOANNE
|LAND
126,400
PO BOX 842
|BUILDING
118,700
|TOTAL REAL
245,100
245,100
NORWICH VT 05055
|SPEC EXEMPTION
0
TAX MAP:
10-202.100
|
PROP DESC: 1.3 ACRES
|
911 ADDR: 53 PARTRIDGE HILL
|
PARCEL ID: 10-202.100 SPAN: 450-142-13396
|
HOUSESITE:
245,100
ACRES:
1.30 R1 T
|GRAND LIST
2,451.00
2,451.00
-----------------------------------------------------------------------------------------------------------------------------------EISENDRATH ERIC
|
MUNICIPAL
HOMESTEAD
NON-RESIDENTIAL
EISENDRATH JESSIE A
|LAND
363,800
550 CARDS POND ROAD
|BUILDING
9,400
|TOTAL REAL
373,200
373,200
WAKEFIELD RI 02879
|SPEC EXEMPTION
0
TAX MAP:
14-011.000
|
PROP DESC: 75 ACRES
|
911 ADDR: 1147 WALLACE RD
|
PARCEL ID: 14-011.000 SPAN: 450-142-12817
|
HOUSESITE:
0
ACRES:
75.62 M
NS
|GRAND LIST
3,732.00
3,732.00
------------------------------------------------------------------------------------------------------------------------------------
06/12/2015
01:32 pm
Town of Norwich Grand List
Grand List Report (Detail)
By Name For All Parcels In All Districts
Page 80
jbynum
PARCEL INFORMATION
TAXABLE VALUATIONS / EXEMPTIONS / CONTRACTS
-----------------------------------------------------------------------------------------------------------------------------------ELBOW COOPERATIVE
|
MUNICIPAL
HOMESTEAD
NON-RESIDENTIAL
DUNN, ROBERT & TSENG, CECI SMITH, PAMELI
|LAND
189,100
140 LADEAU RD
|BUILDING
242,000
|TOTAL REAL
431,100
431,100
NORWICH VT 05055
|SPEC EXEMPTION
0
TAX MAP:
05-123.000
|
PROP DESC: 33 AC - COOP LAND AND 2 HSES
|
911 ADDR: 140 LADEAU RD
|CURRENT USE
61,200
61,200
PARCEL ID: 05-123.000 SPAN: 450-142-12135
|
HOUSESITE:
365,300
ACRES:
33.00 R2 T
|GRAND LIST
3,699.00
3,699.00
-----------------------------------------------------------------------------------------------------------------------------------ELDREDGE DAVID W TRUSTEE
|
MUNICIPAL
HOMESTEAD
NON-RESIDENTIAL
ELDREDGE ELEANOR TRUSTEE
|LAND
136,800
PO BOX 346
|BUILDING
276,000
|TOTAL REAL
412,800
412,800
WAREHAM MA 02571-0346
|SPEC EXEMPTION
0
TAX MAP:
10-044.000
|
PROP DESC: 1.45 ACRES & DWL/APT
|
911 ADDR: 138 TILDEN HILL RD
|
PARCEL ID: 10-044.000 SPAN: 450-142-12858
|
HOUSESITE:
412,800
ACRES:
1.45 R1 NS
|GRAND LIST
4,128.00
4,128.00
-----------------------------------------------------------------------------------------------------------------------------------ELDREDGE FAMILY REALTY TRUST
|
MUNICIPAL
HOMESTEAD
NON-RESIDENTIAL
ELDREDGE, LEROY L JR TRUSTEE
|LAND
297,800
215 MAIN ST
|BUILDING
86,100
|TOTAL REAL
383,900
383,900
HINGHAM MA 02043
|SPEC EXEMPTION
0
TAX MAP:
10-043.000
|
PROP DESC: 68.70 ACRES & DWL
|
911 ADDR: 170 TILDEN HILL RD
|CURRENT USE
158,100
158,100
PARCEL ID: 10-043.000 SPAN: 450-142-12860
|
HOUSESITE:
211,400
ACRES:
68.70 R2 NS
|GRAND LIST
2,258.00
2,258.00
-----------------------------------------------------------------------------------------------------------------------------------ELLER JOHN J
HMSTD FILED |
MUNICIPAL
HOMESTEAD
NON-RESIDENTIAL
|LAND
175,000
PO BOX 488
|BUILDING
92,400
|TOTAL REAL
267,400
267,400
NORWICH VT 05055-0488
|SPEC EXEMPTION
0
TAX MAP:
06-072.000
|
PROP DESC: .75 ACRE & DWLLL
|
911 ADDR: 194 KENDALL STATION RD
|
PARCEL ID: 06-072.000 SPAN: 450-142-12630
|
HOUSESITE:
267,400
ACRES:
0.75 R1 T
|GRAND LIST
2,674.00
2,674.00
-----------------------------------------------------------------------------------------------------------------------------------ELWYN GLYN
|
MUNICIPAL
HOMESTEAD
NON-RESIDENTIAL
|LAND
330,800
PO BOX 942
|BUILDING
43,900
|TOTAL REAL
374,700
374,700
HANOVER NH 03755
|SPEC EXEMPTION
0
TAX MAP:
11-126.000
|
PROP DESC: 109 ACRES & CAMP
|
911 ADDR: 720 UNION VILLAGE RD
|CURRENT USE
181,800
181,800
PARCEL ID: 11-126.000 SPAN: 450-142-13026
|
HOUSESITE:
141,700
ACRES:
109.00 S2 NS
|GRAND LIST
1,929.00
1,929.00
------------------------------------------------------------------------------------------------------------------------------------
06/12/2015
01:32 pm
Town of Norwich Grand List
Grand List Report (Detail)
By Name For All Parcels In All Districts
Page 81
jbynum
PARCEL INFORMATION
TAXABLE VALUATIONS / EXEMPTIONS / CONTRACTS
-----------------------------------------------------------------------------------------------------------------------------------EMERSON LAURA T
HMSTD FILED |
MUNICIPAL
HOMESTEAD
NON-RESIDENTIAL
|LAND
252,200
688 BRAGG HILL RD
|BUILDING
589,800
|TOTAL REAL
842,000
842,000
NORWICH VT 05055
|SPEC EXEMPTION
0
TAX MAP:
10-011.000
|
PROP DESC: 20.02 ACRES & DWL
|
911 ADDR: 688 BRAGG HILL RD
|
PARCEL ID: 10-011.000 SPAN: 450-142-11682
|
HOUSESITE:
790,900
ACRES:
20.02 R2 T
|GRAND LIST
8,420.00
8,420.00
-----------------------------------------------------------------------------------------------------------------------------------EMLEN KATHARINE E
HMSTD FILED |
MUNICIPAL
HOMESTEAD
NON-RESIDENTIAL
|LAND
126,700
12 ELM ST
|BUILDING
261,100
|TOTAL REAL
387,800
387,800
NORWICH VT 05055
|SPEC EXEMPTION
0
TAX MAP:
20-296.000
|
PROP DESC: .32 ACRE & DWL
|
911 ADDR: 12 ELM ST
|
PARCEL ID: 20-296.000 SPAN: 450-142-11937
|
HOUSESITE:
387,800
ACRES:
0.32 R1 T
|GRAND LIST
3,878.00
3,878.00
-----------------------------------------------------------------------------------------------------------------------------------ENELOW RICHARD I
HMSTD FILED |
MUNICIPAL
HOMESTEAD
NON-RESIDENTIAL
MATHER CHERI C
|LAND
185,000
163 HOPSON RD
|BUILDING
364,300
|TOTAL REAL
549,300
549,300
NORWICH VT 05055
|SPEC EXEMPTION
0
TAX MAP:
20-270.000
|
PROP DESC: 2.1 ACRES & DWL
|
911 ADDR: 163 HOPSON RD
|
PARCEL ID: 20-270.000 SPAN: 450-142-12060
|
HOUSESITE:
548,800
ACRES:
2.10 R1 T
|GRAND LIST
5,493.00
5,493.00
-----------------------------------------------------------------------------------------------------------------------------------ERICKSON JOHN
HMSTD FILED |
MUNICIPAL
HOMESTEAD
NON-RESIDENTIAL
ERICKSON JILL
|LAND
105,800
707 ROUTE 132
|BUILDING
251,500
|TOTAL REAL
357,300
357,300
NORWICH VT 05055
|SPEC EXEMPTION
0
TAX MAP:
05-087.000
|
PROP DESC: 3.4 ACRES & DWL
|
911 ADDR: 707 VT ROUTE 132
|
PARCEL ID: 05-087.000 SPAN: 450-142-12780
|
HOUSESITE:
351,000
ACRES:
3.40 R1 T
|GRAND LIST
3,573.00
3,573.00
-----------------------------------------------------------------------------------------------------------------------------------ESSEX MARIANNA T ET AL
HMSTD FILED |
MUNICIPAL
HOMESTEAD
NON-RESIDENTIAL
LINEHAN JEAN ESSEX
|LAND
466,900
1850 NEW BOSTON RD
|BUILDING
382,100
|TOTAL REAL
849,000
849,000
NORWICH VT 05055
|SPEC EXEMPTION
0
TAX MAP:
01-009.000
|
PROP DESC: 78.8 ACRES & DWL INCL 2 ADDL LOTS
|
911 ADDR: 1850 NEW BOSTON RD
|CURRENT USE
367,600
367,600
PARCEL ID: 01-009.000 SPAN: 450-142-12383
|
HOUSESITE:
469,200
ACRES:
78.80 F
T
|GRAND LIST
4,814.00
4,814.00
------------------------------------------------------------------------------------------------------------------------------------
06/12/2015
01:32 pm
Town of Norwich Grand List
Grand List Report (Detail)
By Name For All Parcels In All Districts
Page 82
jbynum
PARCEL INFORMATION
TAXABLE VALUATIONS / EXEMPTIONS / CONTRACTS
-----------------------------------------------------------------------------------------------------------------------------------ESSEX MARY C
HMSTD FILED |
MUNICIPAL
HOMESTEAD
NON-RESIDENTIAL
|LAND
76,800
2 FOUR WHEEL DRIVE
|BUILDING
156,600
|TOTAL REAL
233,400
233,400
NORWICH VT 05055
|SPEC EXEMPTION
0
TAX MAP:
16-019.100
|
PROP DESC: .5 ACRE & DWL
|
911 ADDR: 2 FOUR WHEEL DR
|
PARCEL ID: 16-019.100 SPAN: 450-142-11863
|
HOUSESITE:
233,400
ACRES:
0.50 R1 T
|GRAND LIST
2,334.00
2,334.00
-----------------------------------------------------------------------------------------------------------------------------------EVERBANK
|
MUNICIPAL
HOMESTEAD
NON-RESIDENTIAL
|LAND
126,500
C/O GREEN TREE SERVICING, LLC
|BUILDING
321,600
345 ST PETER STREET 600
|TOTAL REAL
448,100
448,100
ST PAUL MN 55102
|SPEC EXEMPTION
0
TAX MAP:
16-140.000
|
PROP DESC: 1.59 ACRES & DWL
|
911 ADDR: 476 HAWK PINE RD
|
PARCEL ID: 16-140.000 SPAN: 450-142-12573
|
HOUSESITE:
448,100
ACRES:
1.59 R1 C
|GRAND LIST
4,481.00
4,481.00
-----------------------------------------------------------------------------------------------------------------------------------EVERETT JOHN C JR
HMSTD FILED |
MUNICIPAL
HOMESTEAD
NON-RESIDENTIAL
|LAND
0
15 HERITAGE LN
|BUILDING
217,100
|TOTAL REAL
217,100
217,100
NORWICH VT 05055
|SPEC EXEMPTION
0
TAX MAP:
20-043.200
|
PROP DESC: UNIT 2 HERITAGE TOWNHOUSES
|
911 ADDR: 15 HERITAGE LN
|
PARCEL ID: 20-043.200 SPAN: 450-142-11752
|
HOUSESITE:
217,100
ACRES:
0.00 O
T
|GRAND LIST
2,171.00
2,171.00
-----------------------------------------------------------------------------------------------------------------------------------FABRICANT FIEKE TRUST
HMSTD FILED |
MUNICIPAL
HOMESTEAD
NON-RESIDENTIAL
|LAND
158,500
172 BRIGHAM HILL RD
|BUILDING
448,700
|TOTAL REAL
607,200
607,200
NORWICH VT 05055
|SPEC EXEMPTION
0
TAX MAP:
10-051.000
|
PROP DESC: 7.6 ACRES & DWL
|
911 ADDR: 172 BRIGHAM HILL RD
|
PARCEL ID: 10-051.000 SPAN: 450-142-11712
|
HOUSESITE:
585,400
ACRES:
7.60 R2 T
|GRAND LIST
6,072.00
6,072.00
-----------------------------------------------------------------------------------------------------------------------------------FAHEY JUSTINE W
HMSTD FILED |
MUNICIPAL
HOMESTEAD
NON-RESIDENTIAL
FAHEY PETER M
|LAND
151,000
70 ACADEMY RD
|BUILDING
580,900
|TOTAL REAL
731,900
731,900
NORWICH VT 05055
|SPEC EXEMPTION
0
TAX MAP:
05-062.000
|
PROP DESC: 9.5 ACRES & DWL
|
911 ADDR: 70 ACADEMY RD
|
PARCEL ID: 05-062.000 SPAN: 450-142-13075
|
HOUSESITE:
704,500
ACRES:
9.50 R2 T
|GRAND LIST
7,319.00
7,319.00
------------------------------------------------------------------------------------------------------------------------------------
06/12/2015
01:32 pm
Town of Norwich Grand List
Grand List Report (Detail)
By Name For All Parcels In All Districts
Page 83
jbynum
PARCEL INFORMATION
TAXABLE VALUATIONS / EXEMPTIONS / CONTRACTS
-----------------------------------------------------------------------------------------------------------------------------------FAIRCLOUGH ROBYN W
HMSTD FILED |
MUNICIPAL
HOMESTEAD
NON-RESIDENTIAL
|LAND
169,300
422 MAIN ST
|BUILDING
278,500
|TOTAL REAL
447,800
447,800
NORWICH VT 05055
|SPEC EXEMPTION
0
TAX MAP:
20-172.000
|
PROP DESC: 1.9 ACRES & DWL
|
911 ADDR: 422 MAIN ST
|
PARCEL ID: 20-172.000 SPAN: 450-142-12437
|
HOUSESITE:
447,800
ACRES:
1.90 R1 T
|GRAND LIST
4,478.00
4,478.00
-----------------------------------------------------------------------------------------------------------------------------------FARID HANY S
HMSTD FILED |
MUNICIPAL
HOMESTEAD
NON-RESIDENTIAL
COOPER EMILY A
|LAND
316,900
546 SUGARTOP ROAD
|BUILDING
673,000
|TOTAL REAL
989,900
989,900
NORWICH VT 05055
|SPEC EXEMPTION
0
TAX MAP:
14-023.000
|
PROP DESC: 17.1 ACRES & DWL & ADDL LOT
|
911 ADDR: 546 SUGARTOP RD
|CURRENT USE
156,100
156,100
PARCEL ID: 14-023.000 SPAN: 450-142-12809
|
HOUSESITE:
830,900
ACRES:
17.10 R2 T
|GRAND LIST
8,338.00
8,338.00
-----------------------------------------------------------------------------------------------------------------------------------FARRELL BRIGID ANN
HMSTD FILED |
MUNICIPAL
HOMESTEAD
NON-RESIDENTIAL
|LAND
133,000
PO BOX 906
|BUILDING
253,600
|TOTAL REAL
386,600
386,600
NORWICH VT 05055-0906
|SPEC EXEMPTION
0
TAX MAP:
12-001.200
|
PROP DESC: 10.2 ACRES & DWL
|
911 ADDR: 75 OAK RIDGE
|
PARCEL ID: 12-001.200 SPAN: 450-142-12682
|
HOUSESITE:
357,200
ACRES:
10.20 R2 T
|GRAND LIST
3,866.00
3,866.00
-----------------------------------------------------------------------------------------------------------------------------------FARRELL BRIGID ANN
|
MUNICIPAL
HOMESTEAD
NON-RESIDENTIAL
|LAND
209,500
PO BOX 906
|BUILDING
0
|TOTAL REAL
209,500
209,500
NORWICH VT 05055-0906
|SPEC EXEMPTION
0
TAX MAP:
12-005.100
|
PROP DESC: 12.2 ACRES
|
911 ADDR: US ROUTE 5 NORTH
|CURRENT USE
22,800
22,800
PARCEL ID: 12-005.100 SPAN: 450-142-12679
|
HOUSESITE:
0
ACRES:
12.20 M
T
|GRAND LIST
1,867.00
1,867.00
-----------------------------------------------------------------------------------------------------------------------------------FARRELL DOROTHY ANN
|
MUNICIPAL
HOMESTEAD
NON-RESIDENTIAL
|LAND
100,500
7 OAK RDG
|BUILDING
114,200
|TOTAL REAL
214,700
214,700
NORWICH VT 05055-9339
|SPEC EXEMPTION
0
TAX MAP:
11-077.200
|
PROP DESC: 11.32 ACRES & DWL & ADDL LOT
|
911 ADDR: 373 TOWN FARM RD
|
PARCEL ID: 11-077.200 SPAN: 450-142-12868
|
HOUSESITE:
179,800
ACRES:
11.32 S2 T
|GRAND LIST
2,147.00
2,147.00
------------------------------------------------------------------------------------------------------------------------------------
06/12/2015
01:32 pm
Town of Norwich Grand List
Grand List Report (Detail)
By Name For All Parcels In All Districts
Page 84
jbynum
PARCEL INFORMATION
TAXABLE VALUATIONS / EXEMPTIONS / CONTRACTS
-----------------------------------------------------------------------------------------------------------------------------------FARVIEW TRUST
HMSTD FILED |
MUNICIPAL
HOMESTEAD
NON-RESIDENTIAL
C/O ALICE WERBEL
|LAND
183,400
PO BOX 1336
|BUILDING
423,800
|TOTAL REAL
607,200
607,200
NORWICH VT 05055
|SPEC EXEMPTION
0
TAX MAP:
11-157.000
|
PROP DESC: 10.9 ACRES & DWL
|
911 ADDR: 247 MAPLE HILL RD
|
PARCEL ID: 11-157.000 SPAN: 450-142-12168
|
HOUSESITE:
575,800
ACRES:
10.90 R2 T
|GRAND LIST
6,072.00
6,072.00
-----------------------------------------------------------------------------------------------------------------------------------FARWELL EDITH F
HMSTD FILED |
MUNICIPAL
HOMESTEAD
NON-RESIDENTIAL
MEAD JAN W
|LAND
153,200
645 TURNPIKE ROAD
|BUILDING
467,300
|TOTAL REAL
620,500
561,051
59,449
NORWICH VT 05055-0357
|SPEC EXEMPTION
0
0
TAX MAP:
10-077.000
|
PROP DESC: 8.5 ACRES & DWL & APT
|
911 ADDR: 645 TURNPIKE RD
|
PARCEL ID: 10-077.000 SPAN: 450-142-12932
|
HOUSESITE:
536,651
ACRES:
8.50 R2 T
|GRAND LIST
6,205.00
5,610.51
594.49
-----------------------------------------------------------------------------------------------------------------------------------FAUDIE FREDERIC L
HMSTD FILED |
MUNICIPAL
HOMESTEAD
NON-RESIDENTIAL
HERSEY KELLEY A
|LAND
130,900
330 HOPSON ROAD
|BUILDING
430,600
|TOTAL REAL
561,500
561,500
NORWICH VT 05055
|SPEC EXEMPTION
0
TAX MAP:
15-048.000
|
PROP DESC: 2.3 ACRES & DWL
|
911 ADDR: 330 HOPSON RD
|
PARCEL ID: 15-048.000 SPAN: 450-142-12073
|
HOUSESITE:
560,100
ACRES:
2.30 R1 T
|GRAND LIST
5,615.00
5,615.00
-----------------------------------------------------------------------------------------------------------------------------------FAUGHNAN CYNTHIA J
|
MUNICIPAL
HOMESTEAD
NON-RESIDENTIAL
JACOBSON ROBERT P ET AL
|LAND
216,300
47 HUNTLEY ST
|BUILDING
450,000
|TOTAL REAL
666,300
666,300
NORWICH VT 05055
|SPEC EXEMPTION
0
TAX MAP:
12-002.000
|
PROP DESC: 10 ACRES & 2 DWLS INCL 1 ADDL LOT
|
911 ADDR: 299 FARRELL FARM RD
|
PARCEL ID: 12-002.000 SPAN: 450-142-12702
|
HOUSESITE:
431,700
ACRES:
10.00 R2 T
|GRAND LIST
6,663.00
6,663.00
-----------------------------------------------------------------------------------------------------------------------------------FAUGHNAN JAMES
HMSTD FILED |
MUNICIPAL
HOMESTEAD
NON-RESIDENTIAL
FAUGHNAN CYNTHIA J
|LAND
96,100
47 HUNTLEY ST
|BUILDING
181,300
|TOTAL REAL
277,400
277,400
NORWICH VT 05055
|SPEC EXEMPTION
0
TAX MAP:
20-102.000
|
PROP DESC: 0.34 ACRE & DWL
|
911 ADDR: 47 HUNTLEY ST
|
PARCEL ID: 20-102.000 SPAN: 450-142-12089
|
HOUSESITE:
277,400
ACRES:
0.34 R1 T
|GRAND LIST
2,774.00
2,774.00
------------------------------------------------------------------------------------------------------------------------------------
06/12/2015
01:32 pm
Town of Norwich Grand List
Grand List Report (Detail)
By Name For All Parcels In All Districts
Page 85
jbynum
PARCEL INFORMATION
TAXABLE VALUATIONS / EXEMPTIONS / CONTRACTS
-----------------------------------------------------------------------------------------------------------------------------------FAVREAU LYLE
HMSTD FILED |
MUNICIPAL
HOMESTEAD
NON-RESIDENTIAL
GREENE PATRICIA
|LAND
125,000
378 HOPSON RD
|BUILDING
182,700
|TOTAL REAL
307,700
307,700
NORWICH VT 05055
|SPEC EXEMPTION
0
TAX MAP:
15-046.000
|
PROP DESC: 1 ACRE & DWL
|
911 ADDR: 378 HOPSON RD
|
PARCEL ID: 15-046.000 SPAN: 450-142-12076
|
HOUSESITE:
307,700
ACRES:
1.00 R1 T
|GRAND LIST
3,077.00
3,077.00
-----------------------------------------------------------------------------------------------------------------------------------FELDE JON R
HMSTD FILED |
MUNICIPAL
HOMESTEAD
NON-RESIDENTIAL
FELDE ANNE B
|LAND
218,800
70 KOCH RD
|BUILDING
400,600
|TOTAL REAL
619,400
619,400
NORWICH VT 05055-9410
|SPEC EXEMPTION
0
TAX MAP:
20-162.000
|
PROP DESC: 1.54 ACRES & DWL/APT INCL 1 ADDL LOT
|
911 ADDR: 70 KOCH RD
|
PARCEL ID: 20-162.000 SPAN: 450-142-12154
|
HOUSESITE:
619,400
ACRES:
1.54 R1 T
|GRAND LIST
6,194.00
6,194.00
-----------------------------------------------------------------------------------------------------------------------------------FENTON JONATHAN D TRUSTEE
HMSTD FILED |
MUNICIPAL
HOMESTEAD
NON-RESIDENTIAL
FENTON CORINNE M TRUSTEE
|LAND
129,600
34 MT TABOR RD
|BUILDING
369,900
|TOTAL REAL
499,500
499,500
NORWICH VT 05055
|SPEC EXEMPTION
0
TAX MAP:
05-004.200
|
PROP DESC: 12.25 ACRES & DWL
|
911 ADDR: 34 MOUNT TABOR RD
|
PARCEL ID: 05-004.200 SPAN: 450-142-12334
|
HOUSESITE:
471,300
ACRES:
12.25 R2 T
|GRAND LIST
4,995.00
4,995.00
-----------------------------------------------------------------------------------------------------------------------------------FENZEL MICHAEL J
HMSTD FILED |
MUNICIPAL
HOMESTEAD
NON-RESIDENTIAL
COURVILLE ZOE R
|LAND
99,000
822 NEW BOSTON RD
|BUILDING
222,200
|TOTAL REAL
321,200
321,200
NORWICH VT 05055
|SPEC EXEMPTION
0
TAX MAP:
05-147.000
|
PROP DESC: 2.1 ACRES & DWL
|
911 ADDR: 822 NEW BOSTON RD
|
PARCEL ID: 05-147.000 SPAN: 450-142-12317
|
HOUSESITE:
320,800
ACRES:
2.10 R1 T
|GRAND LIST
3,212.00
3,212.00
-----------------------------------------------------------------------------------------------------------------------------------FERM DAVID
HMSTD FILED |
MUNICIPAL
HOMESTEAD
NON-RESIDENTIAL
|LAND
73,400
38 KENDALL STATION RD
|BUILDING
80,800
|TOTAL REAL
154,200
133,244
20,956
NORWICH VT 05055
|SPEC EXEMPTION
0
0
TAX MAP:
12-038.000
|
PROP DESC: 2.1 ACRES & DWL INCL 1 ADDL LOT (NV)
|
911 ADDR: 38 KENDALL STATION RD
|
PARCEL ID: 12-038.000 SPAN: 450-142-12613
|
HOUSESITE:
131,944
ACRES:
2.33 R1 T
|GRAND LIST
1,542.00
1,332.44
209.56
------------------------------------------------------------------------------------------------------------------------------------
06/12/2015
01:32 pm
Town of Norwich Grand List
Grand List Report (Detail)
By Name For All Parcels In All Districts
Page 86
jbynum
PARCEL INFORMATION
TAXABLE VALUATIONS / EXEMPTIONS / CONTRACTS
-----------------------------------------------------------------------------------------------------------------------------------FERRARA THOMAS F III
HMSTD FILED |
MUNICIPAL
HOMESTEAD
NON-RESIDENTIAL
FERRARA THOMAS F
|LAND
85,600
P O BOX 95
|BUILDING
65,200
|TOTAL REAL
150,800
102,425
48,375
NORWICH VT 05055
|SPEC EXEMPTION
0
0
TAX MAP:
09-056.000
|
PROP DESC: 8.6 ACRES & DWL & ADDL LOT (NV)
|
911 ADDR: 545 TIGERTOWN RD
|
PARCEL ID: 09-056.000 SPAN: 450-142-12838
|
HOUSESITE:
82,625
ACRES:
8.60 R2 T
|GRAND LIST
1,508.00
1,024.25
483.75
-----------------------------------------------------------------------------------------------------------------------------------FERRARIS STEVEN B
HMSTD FILED |
MUNICIPAL
HOMESTEAD
NON-RESIDENTIAL
ROTHWELL KARIN
|LAND
112,100
1011 RTE 5 N
|BUILDING
185,200
|TOTAL REAL
297,300
297,300
NORWICH VT 05055
|SPEC EXEMPTION
0
TAX MAP:
12-005.200
|
PROP DESC: 3.1 ACRES & DWL
|
911 ADDR: 1011 US ROUTE 5 NORTH
|
PARCEL ID: 12-005.200 SPAN: 450-142-12678
|
HOUSESITE:
292,300
ACRES:
3.10 R1 T
|GRAND LIST
2,973.00
2,973.00
-----------------------------------------------------------------------------------------------------------------------------------FERRELL CAROL L
HMSTD FILED |
MUNICIPAL
HOMESTEAD
NON-RESIDENTIAL
FERRELL CATHERINE L
|LAND
73,000
24 MILL RD
|BUILDING
218,300
|TOTAL REAL
291,300
291,300
NORWICH VT 05055
|SPEC EXEMPTION
0
TAX MAP:
15-066.000
|
PROP DESC: .46 ACRE & DWL
|
911 ADDR: 24 MILL RD
|
PARCEL ID: 15-066.000 SPAN: 450-142-12732
|
HOUSESITE:
291,300
ACRES:
0.46 R1 T
|GRAND LIST
2,913.00
2,913.00
-----------------------------------------------------------------------------------------------------------------------------------FERRELL RICHARD B
HMSTD FILED |
MUNICIPAL
HOMESTEAD
NON-RESIDENTIAL
|LAND
100,000
86 MCKENNA ST
|BUILDING
276,200
|TOTAL REAL
376,200
376,200
NORWICH VT 05055
|SPEC EXEMPTION
0
TAX MAP:
16-075.000
|
PROP DESC: 1 ACRE & DWL
|
911 ADDR: 86 MCKENNA RD
|
PARCEL ID: 16-075.000 SPAN: 450-142-12188
|
HOUSESITE:
376,200
ACRES:
1.00 R1 T
|GRAND LIST
3,762.00
3,762.00
-----------------------------------------------------------------------------------------------------------------------------------FICHMAN ELSIE E
|
MUNICIPAL
HOMESTEAD
NON-RESIDENTIAL
|LAND
127,200
16 CARPENTER STREET
|BUILDING
116,900
|TOTAL REAL
244,100
244,100
NORWICH VT 05055
|SPEC EXEMPTION
0
TAX MAP:
20-222.000
|
PROP DESC: .22 ACRE & DWL
|
911 ADDR: 16 CARPENTER ST
|
PARCEL ID: 20-222.000 SPAN: 450-142-11781
|
HOUSESITE:
244,100
ACRES:
0.22 R1 T
|GRAND LIST
2,441.00
2,441.00
------------------------------------------------------------------------------------------------------------------------------------
06/12/2015
01:32 pm
Town of Norwich Grand List
Grand List Report (Detail)
By Name For All Parcels In All Districts
Page 87
jbynum
PARCEL INFORMATION
TAXABLE VALUATIONS / EXEMPTIONS / CONTRACTS
-----------------------------------------------------------------------------------------------------------------------------------FILBIN CONSTANCE E
HMSTD FILED |
MUNICIPAL
HOMESTEAD
NON-RESIDENTIAL
CORUM RICHARD
|LAND
91,800
12 JONES CIR
|BUILDING
176,800
|TOTAL REAL
268,600
268,600
NORWICH VT 05055
|SPEC EXEMPTION
0
TAX MAP:
20-291.000
|
PROP DESC: .24 ACRE & DWL
|
911 ADDR: 12 JONES CIR
|
PARCEL ID: 20-291.000 SPAN: 450-142-12104
|
HOUSESITE:
268,600
ACRES:
0.24 R1 T
|GRAND LIST
2,686.00
2,686.00
-----------------------------------------------------------------------------------------------------------------------------------FINER CHAD A
HMSTD FILED |
MUNICIPAL
HOMESTEAD
NON-RESIDENTIAL
FINER SUSAN B
|LAND
173,100
189 BRIGHAM HILL RD
|BUILDING
515,600
|TOTAL REAL
688,700
655,300
33,400
NORWICH VT 05055
|SPEC EXEMPTION
0
0
TAX MAP:
10-040.000
|
PROP DESC: 15.7 ACRES & DWL/APT & 2 ADDL LOTS
|
911 ADDR: 189 BRIGHAM HILL RD
|
PARCEL ID: 10-040.000 SPAN: 450-142-11713
|
HOUSESITE:
610,500
ACRES:
15.70 R2 T
|GRAND LIST
6,887.00
6,553.00
334.00
-----------------------------------------------------------------------------------------------------------------------------------FINER CHAD A
|
MUNICIPAL
HOMESTEAD
NON-RESIDENTIAL
FINER SUSAN B
|LAND
173,600
189 BRIGHAM HILL RD
|BUILDING
0
|TOTAL REAL
173,600
173,600
NORWICH VT 05055
|SPEC EXEMPTION
0
TAX MAP:
10-075.100
|
PROP DESC: 10.03 ACRES
|
911 ADDR: BRIGHAM HILL RD
|
PARCEL ID: 10-075.100 SPAN: 450-142-13169
|
HOUSESITE:
0
ACRES:
10.03 M
T
|GRAND LIST
1,736.00
1,736.00
-----------------------------------------------------------------------------------------------------------------------------------FISHMAN KAREN HEIDI TRUSTEE
|
MUNICIPAL
HOMESTEAD
NON-RESIDENTIAL
|LAND
186,100
77 DOUGLAS HILL RD
|BUILDING
458,900
|TOTAL REAL
645,000
645,000
NORWICH VT 05055-9647
|SPEC EXEMPTION
0
TAX MAP:
10-145.000
|
PROP DESC: 10.2 ACRES & DWL
|
911 ADDR: 77 DOUGLAS HILL
|
PARCEL ID: 10-145.000 SPAN: 450-142-11907
|
HOUSESITE:
615,600
ACRES:
10.20 R2 T
|GRAND LIST
6,450.00
6,450.00
-----------------------------------------------------------------------------------------------------------------------------------FLANAGAN MICHAEL F
|
MUNICIPAL
HOMESTEAD
NON-RESIDENTIAL
|LAND
134,600
408 HAWK PINE RD
|BUILDING
355,700
|TOTAL REAL
490,300
490,300
NORWICH VT 05055
|SPEC EXEMPTION
0
TAX MAP:
20-179.000
|
PROP DESC: 3.4 ACRES & DWL
|
911 ADDR: 408 HAWK PINE RD
|
PARCEL ID: 20-179.000 SPAN: 450-142-12565
|
HOUSESITE:
484,000
ACRES:
3.40 R1 T
|GRAND LIST
4,903.00
4,903.00
------------------------------------------------------------------------------------------------------------------------------------
06/12/2015
01:32 pm
Town of Norwich Grand List
Grand List Report (Detail)
By Name For All Parcels In All Districts
Page 88
jbynum
PARCEL INFORMATION
TAXABLE VALUATIONS / EXEMPTIONS / CONTRACTS
-----------------------------------------------------------------------------------------------------------------------------------FLANDERS JANET
|
MUNICIPAL
HOMESTEAD
NON-RESIDENTIAL
|LAND
0
317 HOPSON RD
|BUILDING
190,000
|TOTAL REAL
190,000
190,000
NORWICH VT 05055
|SPEC EXEMPTION
0
TAX MAP:
20-214.020
|
PROP DESC: UNIT 2 1820 HOUSE & .22 INT IN BARN
|
911 ADDR: 326 MAIN ST
|
PARCEL ID: 20-214.020 SPAN: 450-142-12455
|
HOUSESITE:
0
ACRES:
0.00 C
T
|GRAND LIST
1,900.00
1,900.00
-----------------------------------------------------------------------------------------------------------------------------------FLANDERS STEPHEN N
HMSTD FILED |
MUNICIPAL
HOMESTEAD
NON-RESIDENTIAL
FLANDERS JANET H
|LAND
139,600
317 HOPSON RD
|BUILDING
167,000
|TOTAL REAL
306,600
306,600
NORWICH VT 05055
|SPEC EXEMPTION
0
TAX MAP:
15-053.000
|
PROP DESC: 1.46 ACRES & DWL
|
911 ADDR: 317 HOPSON RD
|
PARCEL ID: 15-053.000 SPAN: 450-142-12071
|
HOUSESITE:
306,600
ACRES:
1.46 R1 T
|GRAND LIST
3,066.00
3,066.00
-----------------------------------------------------------------------------------------------------------------------------------FLANNERY ELISABETH L.
HMSTD FILED |
MUNICIPAL
HOMESTEAD
NON-RESIDENTIAL
|LAND
129,500
106 BEAVER MEADOW RD
|BUILDING
254,400
|TOTAL REAL
383,900
322,988
60,912
NORWICH VT 05055
|SPEC EXEMPTION
0
0
TAX MAP:
20-115.000
|
PROP DESC: .61 ACRE & DWL/APT
|
911 ADDR: 106 BEAVER MEADOW RD
|
PARCEL ID: 20-115.000 SPAN: 450-142-12202
|
HOUSESITE:
322,988
ACRES:
0.61 R1 T
|GRAND LIST
3,839.00
3,229.88
609.12
-----------------------------------------------------------------------------------------------------------------------------------FLOWERS J. CHRISTOPHER
|
MUNICIPAL
HOMESTEAD
NON-RESIDENTIAL
C/O PETER FLOWERS
|LAND
102,100
36 DOC HARDY LN
|BUILDING
362,500
|TOTAL REAL
464,600
464,600
NORWICH VT 05055
|SPEC EXEMPTION
0
TAX MAP:
05-002.100
|
PROP DESC: 3.5 ACRES & DWL
|
911 ADDR: 36 DOC HARDY LN
|
PARCEL ID: 05-002.100 SPAN: 450-142-12320
|
HOUSESITE:
459,200
ACRES:
3.50 R1 T
|GRAND LIST
4,646.00
4,646.00
-----------------------------------------------------------------------------------------------------------------------------------FLYNN WILLIAM P
HMSTD FILED |
MUNICIPAL
HOMESTEAD
NON-RESIDENTIAL
FLYNN SUSAN F
|LAND
116,400
17 EAGLE LA
|BUILDING
209,900
|TOTAL REAL
326,300
326,300
NORWICH VT 05055
|SPEC EXEMPTION
0
TAX MAP:
11-178.000
|
PROP DESC: 1 ACRE & DWL
|
911 ADDR: 17 EAGLE LN
|
PARCEL ID: 11-178.000 SPAN: 450-142-12535
|
HOUSESITE:
326,300
ACRES:
1.00 R1 T
|GRAND LIST
3,263.00
3,263.00
------------------------------------------------------------------------------------------------------------------------------------
06/12/2015
01:32 pm
Town of Norwich Grand List
Grand List Report (Detail)
By Name For All Parcels In All Districts
Page 89
jbynum
PARCEL INFORMATION
TAXABLE VALUATIONS / EXEMPTIONS / CONTRACTS
-----------------------------------------------------------------------------------------------------------------------------------FOGG REALTY HOLDINGS LLC
|
MUNICIPAL
HOMESTEAD
NON-RESIDENTIAL
|LAND
0
PO BOX 89
|BUILDING
2471,400
|TOTAL REAL
2471,400
2471,400
QUECHEE VT 05059
|SPEC EXEMPTION
0
TAX MAP:
15-073.040
|
PROP DESC: REMAINING BLDG - NOT INCL 1A AND 1B
|
911 ADDR: 303 US ROUTE 5 SOUTH 3
|
PARCEL ID: 15-073.040 SPAN: 450-142-12750
|
HOUSESITE:
0
ACRES:
0.00 C
S
|GRAND LIST
24,714.00
24,714.00
-----------------------------------------------------------------------------------------------------------------------------------FOGG REALTY HOLDINGS LLC
|
MUNICIPAL
HOMESTEAD
NON-RESIDENTIAL
|LAND
131,500
PO BOX 89
|BUILDING
0
|TOTAL REAL
131,500
131,500
QUECHEE VT 05059
|SPEC EXEMPTION
0
TAX MAP:
15-075.000
|
PROP DESC: 2.44 ACRES
|
911 ADDR: US ROUTE 5 SOUTH
|
PARCEL ID: 15-075.000 SPAN: 450-142-12760
|
HOUSESITE:
0
ACRES:
2.44 C
S
|GRAND LIST
1,315.00
1,315.00
-----------------------------------------------------------------------------------------------------------------------------------FOLEY DUNCAN K
|
MUNICIPAL
HOMESTEAD
NON-RESIDENTIAL
FOLEY HELENE P
|LAND
117,100
315 106TH ST
|BUILDING
275,900
|TOTAL REAL
393,000
393,000
NEW YORK NY 10025
|SPEC EXEMPTION
0
TAX MAP:
12-014.000
|
PROP DESC: .93 ACRE & DWL/APT
|
911 ADDR: 15 OLD BRIDGE RD
|
PARCEL ID: 12-014.000 SPAN: 450-142-12710
|
HOUSESITE:
393,000
ACRES:
0.93 R1 NS
|GRAND LIST
3,930.00
3,930.00
-----------------------------------------------------------------------------------------------------------------------------------FOLLENSBEE ROBERT ETAL
|
MUNICIPAL
HOMESTEAD
NON-RESIDENTIAL
|LAND
64,200
13 GREEN ST APT 1
|BUILDING
400
|TOTAL REAL
64,600
64,600
LEBANON NH 03766-1761
|SPEC EXEMPTION
0
TAX MAP:
09-054.000
|
PROP DESC: 1.4 ACRES & CAMP
|
911 ADDR: 501 TIGERTOWN RD
|
PARCEL ID: 09-054.000 SPAN: 450-142-12836
|
HOUSESITE:
64,600
ACRES:
1.40 S1 NS
|GRAND LIST
646.00
646.00
-----------------------------------------------------------------------------------------------------------------------------------FOLTZ STEPHEN A
HMSTD FILED |
MUNICIPAL
HOMESTEAD
NON-RESIDENTIAL
FOLTZ KATHLEEN N
|LAND
125,000
PO BOX 359
|BUILDING
208,100
|TOTAL REAL
333,100
333,100
NORWICH VT 05055-0359
|SPEC EXEMPTION
0
TAX MAP:
10-122.000
|
PROP DESC: 1 ACRES & DWL
|
911 ADDR: 273 NEW BOSTON RD
|
PARCEL ID: 10-122.000 SPAN: 450-142-12281
|
HOUSESITE:
333,100
ACRES:
1.00 R1 T
|GRAND LIST
3,331.00
3,331.00
------------------------------------------------------------------------------------------------------------------------------------
06/12/2015
01:32 pm
Town of Norwich Grand List
Grand List Report (Detail)
By Name For All Parcels In All Districts
Page 90
jbynum
PARCEL INFORMATION
TAXABLE VALUATIONS / EXEMPTIONS / CONTRACTS
-----------------------------------------------------------------------------------------------------------------------------------FORBES GEORGINA
HMSTD FILED |
MUNICIPAL
HOMESTEAD
NON-RESIDENTIAL
|LAND
105,000
385 NEW BOSTON RD
|BUILDING
225,100
|TOTAL REAL
330,100
330,100
NORWICH VT 05055
|SPEC EXEMPTION
0
TAX MAP:
10-157.000
|
PROP DESC: 3.48 ACRES & DWL
|
911 ADDR: 385 NEW BOSTON RD
|
PARCEL ID: 10-157.000 SPAN: 450-142-12285
|
HOUSESITE:
324,100
ACRES:
3.48 R1 T
|GRAND LIST
3,301.00
3,301.00
-----------------------------------------------------------------------------------------------------------------------------------FORBUSH BENJAMIN W
|
MUNICIPAL
HOMESTEAD
NON-RESIDENTIAL
MCNULTY NANCY J.
|LAND
167,000
216 NORFORD LAKE RD
|BUILDING
488,300
|TOTAL REAL
655,300
655,300
NORWICH VT 05055
|SPEC EXEMPTION
0
TAX MAP:
05-033.000
|
PROP DESC: 23 ACRES & DWL
|
911 ADDR: 216 NORFORD LAKE RD
|
PARCEL ID: 05-033.000 SPAN: 450-142-12399
|
HOUSESITE:
590,400
ACRES:
23.00 R2 T
|GRAND LIST
6,553.00
6,553.00
-----------------------------------------------------------------------------------------------------------------------------------FORCE PAMELA KENYON
HMSTD FILED |
MUNICIPAL
HOMESTEAD
NON-RESIDENTIAL
FORCE KENNETH W
|LAND
121,400
121 TOWN FARM RD
|BUILDING
281,900
|TOTAL REAL
403,300
403,300
NORWICH VT 05055
|SPEC EXEMPTION
0
TAX MAP:
11-078.000
|
PROP DESC: 11.7 ACRES & DWL
|
911 ADDR: 121 TOWN FARM RD
|
PARCEL ID: 11-078.000 SPAN: 450-142-12869
|
HOUSESITE:
369,600
ACRES:
11.70 R2 T
|GRAND LIST
4,033.00
4,033.00
-----------------------------------------------------------------------------------------------------------------------------------FORGUES RICHARD
|
MUNICIPAL
HOMESTEAD
NON-RESIDENTIAL
|LAND
0
709 NORWOOD COURT
|BUILDING
215,900
|TOTAL REAL
215,900
215,900
MOUNT JULIET TN 37122
|SPEC EXEMPTION
0
TAX MAP:
20-043.100
|
PROP DESC: UNIT 1 HERITAGE TOWNHOUSES
|
911 ADDR: 15 HERITAGE LN
|
PARCEL ID: 20-043.100 SPAN: 450-142-11751
|
HOUSESITE:
215,900
ACRES:
0.00 O
NS
|GRAND LIST
2,159.00
2,159.00
-----------------------------------------------------------------------------------------------------------------------------------FOSTER MICHAEL E.
|
MUNICIPAL
HOMESTEAD
NON-RESIDENTIAL
FOSTER CAROL R.
|LAND
147,400
122 BLOOD HILL RD
|BUILDING
735,500
|TOTAL REAL
882,900
882,900
NORWICH VT 05055
|SPEC EXEMPTION
0
TAX MAP:
11-130.000
|
PROP DESC: 6.9 ACRES & DWL
|
911 ADDR: 122 BLOOD HILL RD
|
PARCEL ID: 11-130.000 SPAN: 450-142-11624
|
HOUSESITE:
863,300
ACRES:
6.90 R2 T
|GRAND LIST
8,829.00
8,829.00
------------------------------------------------------------------------------------------------------------------------------------
06/12/2015
01:32 pm
Town of Norwich Grand List
Grand List Report (Detail)
By Name For All Parcels In All Districts
Page 91
jbynum
PARCEL INFORMATION
TAXABLE VALUATIONS / EXEMPTIONS / CONTRACTS
-----------------------------------------------------------------------------------------------------------------------------------FOSTER MICHAEL K TRUSTEE
HMSTD FILED |
MUNICIPAL
HOMESTEAD
NON-RESIDENTIAL
|LAND
171,800
746 PATTRELL RD
|BUILDING
314,800
|TOTAL REAL
486,600
486,600
NORWICH VT 05055
|SPEC EXEMPTION
0
TAX MAP:
05-093.000
|
PROP DESC: 4.8 ACRES & DWL
|
911 ADDR: 746 PATTRELL RD
|
PARCEL ID: 05-093.000 SPAN: 450-142-12514
|
HOUSESITE:
474,000
ACRES:
4.80 R1 T
|GRAND LIST
4,866.00
4,866.00
-----------------------------------------------------------------------------------------------------------------------------------FOSTER PAUL
|
MUNICIPAL
HOMESTEAD
NON-RESIDENTIAL
FONSECA MARY M
|LAND
67,100
108 ACADEMY RD
|BUILDING
119,400
|TOTAL REAL
186,500
186,500
NORWICH VT 05055
|SPEC EXEMPTION
0
TAX MAP:
06-075.000
|
PROP DESC: .06 ACRE & DWL
|
911 ADDR: 108 ACADEMY RD
|
PARCEL ID: 06-075.000 SPAN: 450-142-13080
|
HOUSESITE:
186,500
ACRES:
0.06 R1 T
|GRAND LIST
1,865.00
1,865.00
-----------------------------------------------------------------------------------------------------------------------------------FRABLE FAITH H.
|
MUNICIPAL
HOMESTEAD
NON-RESIDENTIAL
|LAND
64,100
PO BOX 5075
|BUILDING
0
|TOTAL REAL
64,100
64,100
NANTUCKET MA 02554
|SPEC EXEMPTION
0
TAX MAP:
09-021.100
|
PROP DESC: 13.3 ACRES
|
911 ADDR: SUE SPAULDING RD
|
PARCEL ID: 09-021.100 SPAN: 450-142-12828
|
HOUSESITE:
0
ACRES:
13.30 M
NS
|GRAND LIST
641.00
641.00
-----------------------------------------------------------------------------------------------------------------------------------FRANK SUSAN L
HMSTD FILED |
MUNICIPAL
HOMESTEAD
NON-RESIDENTIAL
|LAND
99,600
5 SARGENT ST
|BUILDING
191,400
|TOTAL REAL
291,000
291,000
NORWICH VT 05055
|SPEC EXEMPTION
0
TAX MAP:
20-087.000
|
PROP DESC: .42 ACRE & DWL
|
911 ADDR: 5 SARGENT ST
|
PARCEL ID: 20-087.000 SPAN: 450-142-12783
|
HOUSESITE:
291,000
ACRES:
0.42 R1 T
|GRAND LIST
2,910.00
2,910.00
-----------------------------------------------------------------------------------------------------------------------------------FRANKLIN SANDRA REVOCABLE TRUST
|
MUNICIPAL
HOMESTEAD
NON-RESIDENTIAL
|LAND
85,900
19881 NE 24TH CT
|BUILDING
119,200
|TOTAL REAL
205,100
205,100
MIAMI FL 33180
|SPEC EXEMPTION
0
TAX MAP:
12-020.000
|
PROP DESC: 1.1 ACRES & DWL
|
911 ADDR: 1410 US ROUTE 5 NORTH
|
PARCEL ID: 12-020.000 SPAN: 450-142-12716
|
HOUSESITE:
205,100
ACRES:
1.10 R1 NS
|GRAND LIST
2,051.00
2,051.00
------------------------------------------------------------------------------------------------------------------------------------
06/12/2015
01:32 pm
Town of Norwich Grand List
Grand List Report (Detail)
By Name For All Parcels In All Districts
Page 92
jbynum
PARCEL INFORMATION
TAXABLE VALUATIONS / EXEMPTIONS / CONTRACTS
-----------------------------------------------------------------------------------------------------------------------------------FRASER DANIEL S TRUST
|
MUNICIPAL
HOMESTEAD
NON-RESIDENTIAL
FRASER GEORGE TRUSTEE
|LAND
407,100
207 TURNPIKE RD
|BUILDING
156,300
|TOTAL REAL
563,400
563,400
NORWICH VT 05055
|SPEC EXEMPTION
0
TAX MAP:
10-059.000
|
PROP DESC: 19.31 ACRES & DWL & 2 LOTS
|
911 ADDR: 137 TURNPIKE RD
|
PARCEL ID: 10-059.000 SPAN: 450-142-12902
|
HOUSESITE:
285,700
ACRES:
19.31 R2 T
|GRAND LIST
5,634.00
5,634.00
-----------------------------------------------------------------------------------------------------------------------------------FRASER GEORGE TRUSTEE
|
MUNICIPAL
HOMESTEAD
NON-RESIDENTIAL
FRASER HOWARD, TRUSTEE
|LAND
288,400
PO BOX 157
|BUILDING
775,400
|TOTAL REAL
1063,800
1063,800
NORWICH VT 05055-0157
|SPEC EXEMPTION
0
TAX MAP:
20-253.000
|
PROP DESC: .78 ACRE & STORE BLDG
|
911 ADDR: 319 MAIN ST
|
PARCEL ID: 20-253.000 SPAN: 450-142-12457
|
HOUSESITE:
0
ACRES:
0.78 C
C
|GRAND LIST
10,638.00
10,638.00
-----------------------------------------------------------------------------------------------------------------------------------FRASER HOWARD TRUSTEE
HMSTD FILED |
MUNICIPAL
HOMESTEAD
NON-RESIDENTIAL
U/A SYLVIA F FRASER
|LAND
273,300
772 UPPER TURNPIKE RD
|BUILDING
197,900
|TOTAL REAL
471,200
471,200
NORWICH VT 05055
|SPEC EXEMPTION
0
TAX MAP:
04-044.000
|
PROP DESC: 35 ACRES & DWL INCL 1 ADDL LOT
|
911 ADDR: 772 UPPER TURNPIKE RD
|
PARCEL ID: 04-044.000 SPAN: 450-142-13124
|
HOUSESITE:
299,900
ACRES:
35.00 R2 T
|GRAND LIST
4,712.00
4,712.00
-----------------------------------------------------------------------------------------------------------------------------------FRASER SUSAN M TRUSTEE
HMSTD FILED |
MUNICIPAL
HOMESTEAD
NON-RESIDENTIAL
FRASER REVOCABLE TRUST
|LAND
130,000
207 TURNPIKE RD
|BUILDING
180,200
|TOTAL REAL
310,200
310,200
NORWICH VT 05055
|SPEC EXEMPTION
0
TAX MAP:
10-062.000
|
PROP DESC: 2.1 ACRES & DWL
|
911 ADDR: 207 TURNPIKE RD
|
PARCEL ID: 10-062.000 SPAN: 450-142-12905
|
HOUSESITE:
309,700
ACRES:
2.10 R1 T
|GRAND LIST
3,102.00
3,102.00
-----------------------------------------------------------------------------------------------------------------------------------FRASER SUSAN M TRUSTEE
|
MUNICIPAL
HOMESTEAD
NON-RESIDENTIAL
|LAND
249,700
207 TURNPIKE RD
|BUILDING
0
|TOTAL REAL
249,700
249,700
NORWICH VT 05055
|SPEC EXEMPTION
0
TAX MAP:
11-139.000
|
PROP DESC: 48.8 ACRES
|
911 ADDR: UNION VILLAGE RD
|CURRENT USE
243,400
243,400
PARCEL ID: 11-139.000 SPAN: 450-142-13018
|
HOUSESITE:
0
ACRES:
48.80 M
T
|GRAND LIST
63.00
63.00
------------------------------------------------------------------------------------------------------------------------------------
06/12/2015
01:32 pm
Town of Norwich Grand List
Grand List Report (Detail)
By Name For All Parcels In All Districts
Page 93
jbynum
PARCEL INFORMATION
TAXABLE VALUATIONS / EXEMPTIONS / CONTRACTS
-----------------------------------------------------------------------------------------------------------------------------------FRASER THAYER
HMSTD FILED |
MUNICIPAL
HOMESTEAD
NON-RESIDENTIAL
|LAND
136,300
256 TURNPIKE RD
|BUILDING
148,600
|TOTAL REAL
284,900
284,900
NORWICH VT 05055
|SPEC EXEMPTION
0
TAX MAP:
10-193.000
|
PROP DESC: 3.5 ACRES & DWL
|
911 ADDR: 256 TURNPIKE RD
|
PARCEL ID: 10-193.000 SPAN: 450-142-12912
|
HOUSESITE:
278,100
ACRES:
3.50 R1 T
|GRAND LIST
2,849.00
2,849.00
-----------------------------------------------------------------------------------------------------------------------------------FRASER`S GENERAL STORE
|
MUNICIPAL
HOMESTEAD
NON-RESIDENTIAL
|LAND
200,100
PO BOX 157
|BUILDING
250,600
|TOTAL REAL
450,700
450,700
NORWICH VT 05055-0157
|SPEC EXEMPTION
0
TAX MAP:
20-252.000
|
PROP DESC: .43 ACRE & OFFICE/APT BLDG
|
911 ADDR: 309 MAIN ST
|
PARCEL ID: 20-252.000 SPAN: 450-142-12461
|
HOUSESITE:
0
ACRES:
0.43 C
C
|GRAND LIST
4,507.00
4,507.00
-----------------------------------------------------------------------------------------------------------------------------------FRAZER MARION REVOCABLE TRUST
HMSTD FILED |
MUNICIPAL
HOMESTEAD
NON-RESIDENTIAL
|LAND
169,100
153 UPPER PASTURE RD
|BUILDING
269,300
|TOTAL REAL
438,400
438,400
NORWICH VT 05055
|SPEC EXEMPTION
0
TAX MAP:
11-149.000
|
PROP DESC: 10.2 ACRES & DWL
|
911 ADDR: 153 UPPER PASTURE RD
|
PARCEL ID: 11-149.000 SPAN: 450-142-13102
|
HOUSESITE:
409,000
ACRES:
10.20 R2 T
|GRAND LIST
4,384.00
4,384.00
-----------------------------------------------------------------------------------------------------------------------------------FREEMAN CAROL
|
MUNICIPAL
HOMESTEAD
NON-RESIDENTIAL
|LAND
130,100
PO BOX 192
|BUILDING
80,100
|TOTAL REAL
210,200
210,200
EAST CORINTH VT 05040-0192
|SPEC EXEMPTION
0
TAX MAP:
11-045.100
|
PROP DESC: 12.26 ACRES & DWL
|
911 ADDR: 651 UNION VILLAGE RD
|
PARCEL ID: 11-045.100 SPAN: 450-142-13024
|
HOUSESITE:
178,500
ACRES:
12.26 R2 S
|GRAND LIST
2,102.00
2,102.00
-----------------------------------------------------------------------------------------------------------------------------------FREEMAN MATTHEW M
HMSTD FILED |
MUNICIPAL
HOMESTEAD
NON-RESIDENTIAL
|LAND
132,700
40 CARPENTER ST
|BUILDING
120,900
|TOTAL REAL
253,600
253,600
NORWICH VT 05055
|SPEC EXEMPTION
0
TAX MAP:
16-036.000
|
PROP DESC: 0.31 ACRE & DWL
|
911 ADDR: 40 CARPENTER ST
|
PARCEL ID: 16-036.000 SPAN: 450-142-11789
|
HOUSESITE:
253,600
ACRES:
0.31 R1 T
|GRAND LIST
2,536.00
2,536.00
------------------------------------------------------------------------------------------------------------------------------------
06/12/2015
01:32 pm
Town of Norwich Grand List
Grand List Report (Detail)
By Name For All Parcels In All Districts
Page 94
jbynum
PARCEL INFORMATION
TAXABLE VALUATIONS / EXEMPTIONS / CONTRACTS
-----------------------------------------------------------------------------------------------------------------------------------FREEMAN SARAH
|
MUNICIPAL
HOMESTEAD
NON-RESIDENTIAL
|LAND
140,700
PO BOX 85
|BUILDING
10,800
|TOTAL REAL
151,500
151,500
WILLITS CA 95450
|SPEC EXEMPTION
0
TAX MAP:
08-004.100
|
PROP DESC: 37.5 ACRES & DWL
|
911 ADDR: 756 TIGERTOWN RD
|CURRENT USE
70,800
70,800
PARCEL ID: 08-004.100 SPAN: 450-142-12846
|
HOUSESITE:
69,100
ACRES:
37.50 S2 NS
|GRAND LIST
807.00
807.00
-----------------------------------------------------------------------------------------------------------------------------------FRENCH ANNE H TRUSTEE UTA
HMSTD FILED |
MUNICIPAL
HOMESTEAD
NON-RESIDENTIAL
|LAND
107,000
PO BOX 406
|BUILDING
194,200
|TOTAL REAL
301,200
301,200
NORWICH VT 05055-0406
|SPEC EXEMPTION
0
TAX MAP:
20-227.000
|
PROP DESC: .18 ACRE & DWL
|
911 ADDR: 18 LARY LN
|
PARCEL ID: 20-227.000 SPAN: 450-142-12158
|
HOUSESITE:
301,200
ACRES:
0.18 R1 T
|GRAND LIST
3,012.00
3,012.00
-----------------------------------------------------------------------------------------------------------------------------------FRENCH DANIEL
|
MUNICIPAL
HOMESTEAD
NON-RESIDENTIAL
FRENCH REBECCA
|LAND
155,600
64 LADEAU RD
|BUILDING
782,800
|TOTAL REAL
938,400
938,400
NORWICH VT 05055
|SPEC EXEMPTION
0
TAX MAP:
05-125.000
|
PROP DESC: 26.2 ACRES
|
911 ADDR: 64 LADEAU RD
|
PARCEL ID: 05-125.000 SPAN: 450-142-12147
|
HOUSESITE:
864,700
ACRES:
26.20 R2 T
|GRAND LIST
9,384.00
9,384.00
-----------------------------------------------------------------------------------------------------------------------------------FRENCH PETER C
HMSTD FILED |
MUNICIPAL
HOMESTEAD
NON-RESIDENTIAL
FRENCH CAROL BOURDON
|LAND
109,000
1074 NEW BOSTON RD
|BUILDING
421,100
|TOTAL REAL
530,100
530,100
NORWICH VT 05055
|SPEC EXEMPTION
0
TAX MAP:
05-129.000
|
PROP DESC: 3 ACRES & DWL
|
911 ADDR: 1074 NEW BOSTON RD
|
PARCEL ID: 05-129.000 SPAN: 450-142-12348
|
HOUSESITE:
525,600
ACRES:
3.00 R1 T
|GRAND LIST
5,301.00
5,301.00
-----------------------------------------------------------------------------------------------------------------------------------FRENCH PETER C
|
MUNICIPAL
HOMESTEAD
NON-RESIDENTIAL
FRENCH CAROL BOURDON
|LAND
142,500
1074 NEW BOSTON RD
|BUILDING
183,000
|TOTAL REAL
325,500
325,500
NORWICH VT 05055
|SPEC EXEMPTION
0
TAX MAP:
16-037.000
|
PROP DESC: .47 ACRE & DWL
|
911 ADDR: 48 CARPENTER ST
|
PARCEL ID: 16-037.000 SPAN: 450-142-11791
|
HOUSESITE:
325,500
ACRES:
0.47 R1 T
|GRAND LIST
3,255.00
3,255.00
------------------------------------------------------------------------------------------------------------------------------------
06/12/2015
01:32 pm
Town of Norwich Grand List
Grand List Report (Detail)
By Name For All Parcels In All Districts
Page 95
jbynum
PARCEL INFORMATION
TAXABLE VALUATIONS / EXEMPTIONS / CONTRACTS
-----------------------------------------------------------------------------------------------------------------------------------FRENCH PETER C
|
MUNICIPAL
HOMESTEAD
NON-RESIDENTIAL
FRENCH CAROL BOURDON
|LAND
90,400
1074 NEW BOSTON RD
|BUILDING
194,400
|TOTAL REAL
284,800
284,800
NORWICH VT 05055
|SPEC EXEMPTION
0
TAX MAP:
20-294.000
|
PROP DESC: .21 ACRE & DWL
|
911 ADDR: 37 JONES CIR
|
PARCEL ID: 20-294.000 SPAN: 450-142-12113
|
HOUSESITE:
284,800
ACRES:
0.21 R1 T
|GRAND LIST
2,848.00
2,848.00
-----------------------------------------------------------------------------------------------------------------------------------FREW ROBERT
HMSTD FILED |
MUNICIPAL
HOMESTEAD
NON-RESIDENTIAL
FREW JULIA
|LAND
117,700
422 HOGBACK RD
|BUILDING
513,100
|TOTAL REAL
630,800
630,800
NORWICH VT 05055
|SPEC EXEMPTION
0
TAX MAP:
06-039.100
|
PROP DESC: 6.46 ACRES & DWL
|
911 ADDR: 422 HOGBACK RD
|
PARCEL ID: 06-039.100 SPAN: 450-142-12048
|
HOUSESITE:
616,200
ACRES:
6.46 R2 T
|GRAND LIST
6,308.00
6,308.00
-----------------------------------------------------------------------------------------------------------------------------------FRIEDLAND ANDREW J
HMSTD FILED |
MUNICIPAL
HOMESTEAD
NON-RESIDENTIAL
FRIEDLAND KATHRYN L.
|LAND
147,500
1232 TURNPIKE RD
|BUILDING
397,300
|TOTAL REAL
544,800
544,800
NORWICH VT 05055
|SPEC EXEMPTION
0
TAX MAP:
04-032.300
|
PROP DESC: 10.3 ACRES & DWL
|
911 ADDR: 1232 TURNPIKE RD
|
PARCEL ID: 04-032.300 SPAN: 450-142-12964
|
HOUSESITE:
518,100
ACRES:
10.30 R2 T
|GRAND LIST
5,448.00
5,448.00
-----------------------------------------------------------------------------------------------------------------------------------FRIETS ERIC M
HMSTD FILED |
MUNICIPAL
HOMESTEAD
NON-RESIDENTIAL
CERRA PATRICIA
|LAND
147,500
23 COSSINGHAM RD
|BUILDING
281,200
|TOTAL REAL
428,700
428,700
NORWICH VT 05055
|SPEC EXEMPTION
0
TAX MAP:
15-031.000
|
PROP DESC: 6.7 ACRES & DWL
|
911 ADDR: 23 COSSINGHAM RD
|
PARCEL ID: 15-031.000 SPAN: 450-142-12387
|
HOUSESITE:
407,600
ACRES:
7.40 R2 T
|GRAND LIST
4,287.00
4,287.00
-----------------------------------------------------------------------------------------------------------------------------------FRIGERIO LUCIANA
HMSTD FILED |
MUNICIPAL
HOMESTEAD
NON-RESIDENTIAL
|LAND
90,000
18 JONES CIR
|BUILDING
170,500
|TOTAL REAL
260,500
217,875
42,625
NORWICH VT 05055
|SPEC EXEMPTION
0
0
TAX MAP:
20-289.000
|
PROP DESC: .20 ACRE & DWL
|
911 ADDR: 18 JONES CIR
|
PARCEL ID: 20-289.000 SPAN: 450-142-12106
|
HOUSESITE:
217,875
ACRES:
0.20 R1 T
|GRAND LIST
2,605.00
2,178.75
426.25
------------------------------------------------------------------------------------------------------------------------------------
06/12/2015
01:32 pm
Town of Norwich Grand List
Grand List Report (Detail)
By Name For All Parcels In All Districts
Page 96
jbynum
PARCEL INFORMATION
TAXABLE VALUATIONS / EXEMPTIONS / CONTRACTS
-----------------------------------------------------------------------------------------------------------------------------------FRYE MILTON TRUSTEE
HMSTD FILED |
MUNICIPAL
HOMESTEAD
NON-RESIDENTIAL
FRYE CAROLYN E TRUSTEE
|LAND
212,400
34 HOPSON RD
|BUILDING
775,900
|TOTAL REAL
988,300
918,300
70,000
NORWICH VT 05055
|SPEC EXEMPTION
0
0
TAX MAP:
20-034.000
|
PROP DESC: 7.35 ACRES & DWL
|
911 ADDR: 34 HOPSON RD
|
PARCEL ID: 20-034.000 SPAN: 450-142-12240
|
HOUSESITE:
897,300
ACRES:
7.35 R2 T
|GRAND LIST
9,883.00
9,183.00
700.00
-----------------------------------------------------------------------------------------------------------------------------------FRYER CAROLYN A
HMSTD FILED |
MUNICIPAL
HOMESTEAD
NON-RESIDENTIAL
|LAND
109,100
108 UPPER TURNPIKE RD
|BUILDING
59,600
|TOTAL REAL
168,700
168,700
NORWICH VT 05055
|SPEC EXEMPTION
0
TAX MAP:
10-143.000
|
PROP DESC: 3.8 ACES & DWL
|
911 ADDR: 108 UPPER TURNPIKE RD
|
PARCEL ID: 10-143.000 SPAN: 450-142-13112
|
HOUSESITE:
162,200
ACRES:
3.80 R1 T
|GRAND LIST
1,687.00
1,687.00
-----------------------------------------------------------------------------------------------------------------------------------FULD ALEXANDER D
HMSTD FILED |
MUNICIPAL
HOMESTEAD
NON-RESIDENTIAL
HORT SHOSHANA J.
|LAND
157,600
149 BEAVER MEADOW RD
|BUILDING
599,100
|TOTAL REAL
756,700
756,700
NORWICH VT 05055
|SPEC EXEMPTION
0
TAX MAP:
20-069.000
|
PROP DESC: 2.70 ACRES & DWL
|
911 ADDR: 149 BEAVER MEADOW RD
|
PARCEL ID: 20-069.000 SPAN: 450-142-12206
|
HOUSESITE:
753,600
ACRES:
2.70 R1 T
|GRAND LIST
7,567.00
7,567.00
-----------------------------------------------------------------------------------------------------------------------------------FULTON NEIL R
HMSTD FILED |
MUNICIPAL
HOMESTEAD
NON-RESIDENTIAL
FULTON ADELE M
|LAND
127,000
262 HAWK PINE RD
|BUILDING
281,900
|TOTAL REAL
408,900
408,900
NORWICH VT 05055
|SPEC EXEMPTION
0
TAX MAP:
11-171.000
|
PROP DESC: 1.783 ACRES & DWL
|
911 ADDR: 262 HAWK PINE RD
|
PARCEL ID: 11-171.000 SPAN: 450-142-12547
|
HOUSESITE:
408,900
ACRES:
1.78 R1 T
|GRAND LIST
4,089.00
4,089.00
-----------------------------------------------------------------------------------------------------------------------------------G PARTNERSHIP II
|
MUNICIPAL
HOMESTEAD
NON-RESIDENTIAL
C/O F GIANDOMENICO
|LAND
201,000
40 FRONT ST
|BUILDING
0
|TOTAL REAL
201,000
201,000
WALPOLE MA 02081
|SPEC EXEMPTION
0
TAX MAP:
06-043.500
|
PROP DESC: REAR LOT 79 ACRES
|
911 ADDR: HOGBACK RD
|CURRENT USE
181,800
181,800
PARCEL ID: 06-043.500 SPAN: 450-142-12042
|
HOUSESITE:
0
ACRES:
79.00 M
NS
|GRAND LIST
192.00
192.00
------------------------------------------------------------------------------------------------------------------------------------
06/12/2015
01:32 pm
Town of Norwich Grand List
Grand List Report (Detail)
By Name For All Parcels In All Districts
Page 97
jbynum
PARCEL INFORMATION
TAXABLE VALUATIONS / EXEMPTIONS / CONTRACTS
-----------------------------------------------------------------------------------------------------------------------------------G PARTNERSHIP III
|
MUNICIPAL
HOMESTEAD
NON-RESIDENTIAL
|LAND
85,700
40 FRONT STREET
|BUILDING
13,400
|TOTAL REAL
99,100
99,100
WALPOLE MA 02081
|SPEC EXEMPTION
0
TAX MAP:
06-046.000
|
PROP DESC: 0.89 ACRE & DWL
|
911 ADDR: 70 CAMPBELL FLATS RD
|
PARCEL ID: 06-046.000 SPAN: 450-142-11761
|
HOUSESITE:
99,100
ACRES:
0.89 R1 NS
|GRAND LIST
991.00
991.00
-----------------------------------------------------------------------------------------------------------------------------------GADZINSKI PETER
HMSTD FILED |
MUNICIPAL
HOMESTEAD
NON-RESIDENTIAL
GADZINSKI MARIA C
|LAND
202,400
115 DELTA DR
|BUILDING
200,300
|TOTAL REAL
402,700
310,600
92,100
WHITE RIVER JCT VT 05001
|SPEC EXEMPTION
0
0
TAX MAP:
14-021.000
|
PROP DESC: 29.64 ACRES & DWL
|
911 ADDR: 115 DELTA DR
|CURRENT USE
74,800
74,800
PARCEL ID: 14-021.000 SPAN: 450-142-12812
|
HOUSESITE:
227,600
ACRES:
29.64 R2 T
|GRAND LIST
3,279.00
2,358.00
921.00
-----------------------------------------------------------------------------------------------------------------------------------GALANES JOSEPH G
HMSTD FILED |
MUNICIPAL
HOMESTEAD
NON-RESIDENTIAL
|LAND
142,600
207 ELM ST
|BUILDING
128,300
|TOTAL REAL
270,900
270,900
NORWICH VT 05055
|SPEC EXEMPTION
0
TAX MAP:
20-004.000
|
PROP DESC: 1.03 ACRES & DWL
|
911 ADDR: 207 ELM ST
|
PARCEL ID: 20-004.000 SPAN: 450-142-11963
|
HOUSESITE:
270,900
ACRES:
1.03 R1 T
|GRAND LIST
2,709.00
2,709.00
-----------------------------------------------------------------------------------------------------------------------------------GALTON JOHN
|
MUNICIPAL
HOMESTEAD
NON-RESIDENTIAL
GALTON DORIS
|LAND
173,800
PO BOX 11
|BUILDING
0
|TOTAL REAL
173,800
173,800
NORTH HARTLAND VT 05052-0011
|SPEC EXEMPTION
0
TAX MAP:
10-047.000
|
PROP DESC: 10.1 ACRES
|
911 ADDR: BRIGHAM HILL RD
|
PARCEL ID: 10-047.000 SPAN: 450-142-11716
|
HOUSESITE:
0
ACRES:
10.10 M
S
|GRAND LIST
1,738.00
1,738.00
-----------------------------------------------------------------------------------------------------------------------------------GAMMELL TODD
HMSTD FILED |
MUNICIPAL
HOMESTEAD
NON-RESIDENTIAL
GAMMELL TONYA
|LAND
80,500
304 US RTE 5
|BUILDING
253,000
|TOTAL REAL
333,500
333,500
NORWICH VT 05055
|SPEC EXEMPTION
0
TAX MAP:
15-041.000
|
PROP DESC: .69 ACRE & DWL
|
911 ADDR: 304 US ROUTE 5 SOUTH
|
PARCEL ID: 15-041.000 SPAN: 450-142-12744
|
HOUSESITE:
333,500
ACRES:
0.69 R1 T
|GRAND LIST
3,335.00
3,335.00
------------------------------------------------------------------------------------------------------------------------------------
06/12/2015
01:32 pm
Town of Norwich Grand List
Grand List Report (Detail)
By Name For All Parcels In All Districts
Page 98
jbynum
PARCEL INFORMATION
TAXABLE VALUATIONS / EXEMPTIONS / CONTRACTS
-----------------------------------------------------------------------------------------------------------------------------------GANNON LESLIE G
|
MUNICIPAL
HOMESTEAD
NON-RESIDENTIAL
|LAND
129,400
346 GOODRICH 4 CORNERS RD
|BUILDING
235,900
|TOTAL REAL
365,300
365,300
NORWICH VT 05055
|SPEC EXEMPTION
0
TAX MAP:
11-091.000
|
PROP DESC: 5 ACRES & DWL/STUDIO APT
|
911 ADDR: 346 GOODRICH FOUR CORNERS RD
|
PARCEL ID: 11-091.000 SPAN: 450-142-12000
|
HOUSESITE:
282,400
ACRES:
5.00 R1 T
|GRAND LIST
3,653.00
3,653.00
-----------------------------------------------------------------------------------------------------------------------------------GARDNER ELIZABETH C TRUSTEE
HMSTD FILED |
MUNICIPAL
HOMESTEAD
NON-RESIDENTIAL
GARDNER CLINTON C TRUSTEE
|LAND
156,700
PO BOX 710
|BUILDING
355,100
|TOTAL REAL
511,800
511,800
NORWICH VT 05055-0710
|SPEC EXEMPTION
0
TAX MAP:
20-021.000
|
PROP DESC: 2.49 ACRES & DWL
|
911 ADDR: 107 SPRING POND RD
|
PARCEL ID: 20-021.000 SPAN: 450-142-12589
|
HOUSESITE:
509,600
ACRES:
2.49 R1 T
|GRAND LIST
5,118.00
5,118.00
-----------------------------------------------------------------------------------------------------------------------------------GARDNER NANCY L.
HMSTD FILED |
MUNICIPAL
HOMESTEAD
NON-RESIDENTIAL
|LAND
132,200
24 CLIFF STREET
|BUILDING
226,000
|TOTAL REAL
358,200
358,200
NORWICH VT 05055
|SPEC EXEMPTION
0
TAX MAP:
20-186.000
|
PROP DESC: 0.66 ACRE & DWL
|
911 ADDR: 24 CLIFF ST
|
PARCEL ID: 20-186.000 SPAN: 450-142-11878
|
HOUSESITE:
358,200
ACRES:
0.66 R1 T
|GRAND LIST
3,582.00
3,582.00
-----------------------------------------------------------------------------------------------------------------------------------GARDNER RYAN B
HMSTD FILED |
MUNICIPAL
HOMESTEAD
NON-RESIDENTIAL
GARDNER HELENA M
|LAND
102,500
80 FOUR WHEEL DR
|BUILDING
236,200
|TOTAL REAL
338,700
338,700
NORWICH VT 05055-1084
|SPEC EXEMPTION
0
TAX MAP:
16-021.000
|
PROP DESC: 2 ACRES & DWL
|
911 ADDR: 80 FOUR WHEEL DR
|
PARCEL ID: 16-021.000 SPAN: 450-142-11975
|
HOUSESITE:
338,700
ACRES:
2.00 R1 T
|GRAND LIST
3,387.00
3,387.00
-----------------------------------------------------------------------------------------------------------------------------------GARDNER TIMOTHY B
HMSTD FILED |
MUNICIPAL
HOMESTEAD
NON-RESIDENTIAL
GARDNER JOELLEN
|LAND
133,000
90 MEETINGHOUSE HILL RD
|BUILDING
612,900
|TOTAL REAL
745,900
745,900
NORWICH VT 05055
|SPEC EXEMPTION
0
TAX MAP:
05-134.000
|
PROP DESC: 12.2 ACRES & DWL
|
911 ADDR: 90 MEETINGHOUSE RD
|
PARCEL ID: 05-134.000 SPAN: 450-142-12342
|
HOUSESITE:
714,300
ACRES:
12.20 R2 T
|GRAND LIST
7,459.00
7,459.00
------------------------------------------------------------------------------------------------------------------------------------
06/12/2015
01:32 pm
Town of Norwich Grand List
Grand List Report (Detail)
By Name For All Parcels In All Districts
Page 99
jbynum
PARCEL INFORMATION
TAXABLE VALUATIONS / EXEMPTIONS / CONTRACTS
-----------------------------------------------------------------------------------------------------------------------------------GARRIGUE ANNE M.
HMSTD FILED |
MUNICIPAL
HOMESTEAD
NON-RESIDENTIAL
|LAND
124,800
114 BEAVER MEADOW RD
|BUILDING
270,200
|TOTAL REAL
395,000
395,000
NORWICH VT 05055
|SPEC EXEMPTION
0
TAX MAP:
20-114.000
|
PROP DESC: .52 ACRE & DWL
|
911 ADDR: 114 BEAVER MEADOW RD
|
PARCEL ID: 20-114.000 SPAN: 450-142-12203
|
HOUSESITE:
395,000
ACRES:
0.52 R1 T
|GRAND LIST
3,950.00
3,950.00
-----------------------------------------------------------------------------------------------------------------------------------GATES CHARLENE J
|
MUNICIPAL
HOMESTEAD
NON-RESIDENTIAL
|LAND
0
152 BEAVER MEADOW ROAD
|BUILDING
286,600
|TOTAL REAL
286,600
286,600
NORWICH VT 05055
|SPEC EXEMPTION
0
TAX MAP:
20-043.500
|
PROP DESC: UNIT 5 HERITAGE TOWNHOUSES
|
911 ADDR: 23 HERITAGE LN
|
PARCEL ID: 20-043.500 SPAN: 450-142-11755
|
HOUSESITE:
286,600
ACRES:
0.00 O
T
|GRAND LIST
2,866.00
2,866.00
-----------------------------------------------------------------------------------------------------------------------------------GATES CHARLENE J.
HMSTD FILED |
MUNICIPAL
HOMESTEAD
NON-RESIDENTIAL
|LAND
122,700
152 BEAVER MEADOW RD
|BUILDING
291,300
|TOTAL REAL
414,000
414,000
NORWICH VT 05055
|SPEC EXEMPTION
0
TAX MAP:
20-069.300
|
PROP DESC: .48 ACRES & DWL
|
911 ADDR: 152 BEAVER MEADOW RD
|
PARCEL ID: 20-069.300 SPAN: 450-142-12102
|
HOUSESITE:
414,000
ACRES:
0.48 R1 T
|GRAND LIST
4,140.00
4,140.00
-----------------------------------------------------------------------------------------------------------------------------------GATES FRED JR
|
MUNICIPAL
HOMESTEAD
NON-RESIDENTIAL
|LAND
23,000
1579 RED HAVEN DR
|BUILDING
0
|TOTAL REAL
23,000
23,000
SEVERN MD 21144
|SPEC EXEMPTION
0
TAX MAP:
12-046.000
|
PROP DESC: 5.2 ACRES (LANDLOCKED)
|
911 ADDR: TOWN FARM RD
|
PARCEL ID: 12-046.000 SPAN: 450-142-13141
|
HOUSESITE:
0
ACRES:
5.20 M
NS
|GRAND LIST
230.00
230.00
-----------------------------------------------------------------------------------------------------------------------------------GATES FREDERICK
|
MUNICIPAL
HOMESTEAD
NON-RESIDENTIAL
|LAND
86,400
1579 RED HAVEN DR
|BUILDING
177,800
|TOTAL REAL
264,200
264,200
SEVERN MD 21144
|SPEC EXEMPTION
0
TAX MAP:
16-063.000
|
PROP DESC: 1.2 ACRES & DWL
|
911 ADDR: 6 CROSSING LN
|
PARCEL ID: 16-063.000 SPAN: 450-142-12653
|
HOUSESITE:
264,200
ACRES:
1.20 R1 NS
|GRAND LIST
2,642.00
2,642.00
------------------------------------------------------------------------------------------------------------------------------------
06/12/2015
01:32 pm
Town of Norwich Grand List
Grand List Report (Detail)
By Name For All Parcels In All Districts
Page 100
jbynum
PARCEL INFORMATION
TAXABLE VALUATIONS / EXEMPTIONS / CONTRACTS
-----------------------------------------------------------------------------------------------------------------------------------GATES FREDERICK
|
MUNICIPAL
HOMESTEAD
NON-RESIDENTIAL
|LAND
70,500
1579 RED HAVEN DR
|BUILDING
306,800
|TOTAL REAL
377,300
377,300
SEVERN MD 21144
|SPEC EXEMPTION
0
TAX MAP:
16-064.000
|
PROP DESC: .5 ACRE & OFFICE & APT
|
911 ADDR: 12 CROSSING LN
|
PARCEL ID: 16-064.000 SPAN: 450-142-12652
|
HOUSESITE:
0
ACRES:
0.50 C
NS
|GRAND LIST
3,773.00
3,773.00
-----------------------------------------------------------------------------------------------------------------------------------GAUDIN COLETTE
HMSTD FILED |
MUNICIPAL
HOMESTEAD
NON-RESIDENTIAL
|LAND
129,300
11 SIMPSON RD
|BUILDING
339,600
|TOTAL REAL
468,900
468,900
NORWICH VT 05055
|SPEC EXEMPTION
0
TAX MAP:
20-053.000
|
PROP DESC: 2.5 ACRES & DWL
|
911 ADDR: 11 SIMPSON RD
|
PARCEL ID: 20-053.000 SPAN: 450-142-11660
|
HOUSESITE:
466,600
ACRES:
2.50 R1 T
|GRAND LIST
4,689.00
4,689.00
-----------------------------------------------------------------------------------------------------------------------------------GAUGHAN STEPHEN
HMSTD FILED |
MUNICIPAL
HOMESTEAD
NON-RESIDENTIAL
NEWICK EMILY
|LAND
152,300
PO BOX 863
|BUILDING
132,000
|TOTAL REAL
284,300
284,300
NORWICH VT 05055
|SPEC EXEMPTION
0
TAX MAP:
16-033.000
|
PROP DESC: 1 ACRE & DWL
|
911 ADDR: 63 CLIFF ST
|
PARCEL ID: 16-033.000 SPAN: 450-142-11885
|
HOUSESITE:
284,300
ACRES:
1.50 R1 T
|GRAND LIST
2,843.00
2,843.00
-----------------------------------------------------------------------------------------------------------------------------------GEHLBACH KIRSTEN
HMSTD FILED |
MUNICIPAL
HOMESTEAD
NON-RESIDENTIAL
|LAND
97,500
PO BOX 701
|BUILDING
259,900
|TOTAL REAL
357,400
292,775
64,625
NORWICH VT 05055-0701
|SPEC EXEMPTION
0
0
TAX MAP:
11-103.100
|
PROP DESC: 2.6 ACRES & DWL/APT
|
911 ADDR: 627 US ROUTE 5 NORTH
|
PARCEL ID: 11-103.100 SPAN: 450-142-12673
|
HOUSESITE:
290,075
ACRES:
2.60 R1 T
|GRAND LIST
3,574.00
2,927.75
646.25
-----------------------------------------------------------------------------------------------------------------------------------GELDENS MARGARET MCCALL TRUSTEE
|
MUNICIPAL
HOMESTEAD
NON-RESIDENTIAL
|LAND
203,300
360 GREEN BAY RD
|BUILDING
794,900
|TOTAL REAL
998,200
998,200
WINNETKA IL 60093
|SPEC EXEMPTION
0
TAX MAP:
16-116.100
|
PROP DESC: 38.2 ACRES & DWL/APT
|
911 ADDR: 53 LOVELAND RD
|CURRENT USE
74,800
74,800
PARCEL ID: 16-116.100 SPAN: 450-142-12165
|
HOUSESITE:
891,900
ACRES:
38.20 R2 NS
|GRAND LIST
9,234.00
9,234.00
------------------------------------------------------------------------------------------------------------------------------------
06/12/2015
01:32 pm
Town of Norwich Grand List
Grand List Report (Detail)
By Name For All Parcels In All Districts
Page 101
jbynum
PARCEL INFORMATION
TAXABLE VALUATIONS / EXEMPTIONS / CONTRACTS
-----------------------------------------------------------------------------------------------------------------------------------GEMERY JOHN
|
MUNICIPAL
HOMESTEAD
NON-RESIDENTIAL
LORING KAREN
|LAND
127,900
48 KOCH RD
|BUILDING
442,700
|TOTAL REAL
570,600
570,600
NORWICH VT 05055
|SPEC EXEMPTION
0
TAX MAP:
20-164.000
|
PROP DESC: 1.8 ACRES & DWL
|
911 ADDR: 48 KOCH RD
|
PARCEL ID: 20-164.000 SPAN: 450-142-12153
|
HOUSESITE:
570,600
ACRES:
1.80 R1 T
|GRAND LIST
5,706.00
5,706.00
-----------------------------------------------------------------------------------------------------------------------------------GEMIGNANI ANTHONY S
HMSTD FILED |
MUNICIPAL
HOMESTEAD
NON-RESIDENTIAL
GEMIGNANI ELIZABETH D
|LAND
126,600
450 NEW BOSTON RD
|BUILDING
365,500
|TOTAL REAL
492,100
492,100
NORWICH VT 05055
|SPEC EXEMPTION
0
TAX MAP:
10-173.000
|
PROP DESC: 10.0 ACRES & DWL
|
911 ADDR: 450 NEW BOSTON RD
|
PARCEL ID: 10-173.000 SPAN: 450-142-12288
|
HOUSESITE:
469,100
ACRES:
10.00 R2 T
|GRAND LIST
4,921.00
4,921.00
-----------------------------------------------------------------------------------------------------------------------------------GENEREAUX BRUCE M TRUSTEE
HMSTD FILED |
MUNICIPAL
HOMESTEAD
NON-RESIDENTIAL
BRUCE M GENEREAUX 2000 REV TR
|LAND
114,800
16 CLIFF ST
|BUILDING
168,400
|TOTAL REAL
283,200
283,200
NORWICH VT 05055
|SPEC EXEMPTION
0
TAX MAP:
20-187.000
|
PROP DESC: 0.33 ACRE & DWL
|
911 ADDR: 16 CLIFF ST
|
PARCEL ID: 20-187.000 SPAN: 450-142-11875
|
HOUSESITE:
283,200
ACRES:
0.33 R1 T
|GRAND LIST
2,832.00
2,832.00
-----------------------------------------------------------------------------------------------------------------------------------GENZER SCOTT J
HMSTD FILED |
MUNICIPAL
HOMESTEAD
NON-RESIDENTIAL
GENZER KIM E
|LAND
127,600
198 KERWIN HILL RD
|BUILDING
159,900
|TOTAL REAL
287,500
287,500
NORWICH VT 05055
|SPEC EXEMPTION
0
TAX MAP:
05-051.100
|
PROP DESC: 1.85 ACRES & DWL
|
911 ADDR: 198 KERWIN HILL RD
|
PARCEL ID: 05-051.100 SPAN: 450-142-13172
|
HOUSESITE:
287,500
ACRES:
1.85 R1 T
|GRAND LIST
2,875.00
2,875.00
-----------------------------------------------------------------------------------------------------------------------------------GERAGHTY NORAH C REV LIVING TRUST
HMSTD FILED |
MUNICIPAL
HOMESTEAD
NON-RESIDENTIAL
|LAND
175,900
383 MAIN STREET
|BUILDING
1322,500
|TOTAL REAL
1498,400
1030,460
467,940
NORWICH VT 05055
|SPEC EXEMPTION
0
0
TAX MAP:
20-132.000
|
PROP DESC: 1.2 ACRES & DWL
|
911 ADDR: 383 MAIN ST
|
PARCEL ID: 20-132.000 SPAN: 450-142-12429
|
HOUSESITE:
1030,460
ACRES:
1.20 R1 T
|GRAND LIST
14,984.00
10,304.60
4,679.40
------------------------------------------------------------------------------------------------------------------------------------
06/12/2015
01:32 pm
Town of Norwich Grand List
Grand List Report (Detail)
By Name For All Parcels In All Districts
Page 102
jbynum
PARCEL INFORMATION
TAXABLE VALUATIONS / EXEMPTIONS / CONTRACTS
-----------------------------------------------------------------------------------------------------------------------------------GERE ROBERT
HMSTD FILED |
MUNICIPAL
HOMESTEAD
NON-RESIDENTIAL
GERE FRANCES
|LAND
99,500
1399 UNION VILLAGE RD
|BUILDING
203,400
|TOTAL REAL
302,900
302,900
NORWICH VT 05055
|SPEC EXEMPTION
0
TAX MAP:
05-080.000
|
PROP DESC: 2 ACRES & DWL
|
911 ADDR: 1399 UNION VILLAGE RD
|
PARCEL ID: 05-080.000 SPAN: 450-142-13060
|
HOUSESITE:
302,900
ACRES:
2.00 R1 T
|GRAND LIST
3,029.00
3,029.00
-----------------------------------------------------------------------------------------------------------------------------------GIANDOMENICO EDWARD
|
MUNICIPAL
HOMESTEAD
NON-RESIDENTIAL
|LAND
118,500
40 FRONT ST
|BUILDING
346,500
|TOTAL REAL
465,000
465,000
WALPOLE MA 02081
|SPEC EXEMPTION
0
TAX MAP:
06-045.000
|
PROP DESC: 5.5 ACRES & DWL/APT
|
911 ADDR: 143 HOGBACK RD
|
PARCEL ID: 06-045.000 SPAN: 450-142-12043
|
HOUSESITE:
449,800
ACRES:
5.50 R1 NS
|GRAND LIST
4,650.00
4,650.00
-----------------------------------------------------------------------------------------------------------------------------------GINTY PETER J
|
MUNICIPAL
HOMESTEAD
NON-RESIDENTIAL
GINTY ELOISE R
|LAND
100,000
836 BURNHAM RD
|BUILDING
123,200
|TOTAL REAL
223,200
223,200
EAST THETFORD VT 05043
|SPEC EXEMPTION
0
TAX MAP:
06-060.000
|
PROP DESC: 1.2 ACRES & DWL
|
911 ADDR: 1717 US ROUTE 5 NORTH
|
PARCEL ID: 06-060.000 SPAN: 450-142-12723
|
HOUSESITE:
223,200
ACRES:
0.92 R1 S
|GRAND LIST
2,232.00
2,232.00
-----------------------------------------------------------------------------------------------------------------------------------GIORDANO JOSEPH JR
|
MUNICIPAL
HOMESTEAD
NON-RESIDENTIAL
|LAND
112,800
22 GARDEN ST
|BUILDING
61,900
|TOTAL REAL
174,700
174,700
BRANFORD CT 06405-4629
|SPEC EXEMPTION
0
TAX MAP:
03-025.000
|
PROP DESC: 9.1 ACRES & DWL
|
911 ADDR: 1785 BEAVER MEADOW RD
|
PARCEL ID: 03-025.000 SPAN: 450-142-11619
|
HOUSESITE:
151,100
ACRES:
9.10 R2 NS
|GRAND LIST
1,747.00
1,747.00
-----------------------------------------------------------------------------------------------------------------------------------GIRARD JOHN F. JR
HMSTD FILED |
MUNICIPAL
HOMESTEAD
NON-RESIDENTIAL
ADAMS LAUREN GIRARD
|LAND
92,600
PO BOX 57
|BUILDING
186,700
|TOTAL REAL
279,300
279,300
NORWICH VT 05055
|SPEC EXEMPTION
0
TAX MAP:
20-290.000
|
PROP DESC: .26 ACRE & DWL
|
911 ADDR: 16 JONES CIR
|
PARCEL ID: 20-290.000 SPAN: 450-142-12105
|
HOUSESITE:
279,300
ACRES:
0.26 R1 T
|GRAND LIST
2,793.00
2,793.00
------------------------------------------------------------------------------------------------------------------------------------
06/12/2015
01:32 pm
Town of Norwich Grand List
Grand List Report (Detail)
By Name For All Parcels In All Districts
Page 103
jbynum
PARCEL INFORMATION
TAXABLE VALUATIONS / EXEMPTIONS / CONTRACTS
-----------------------------------------------------------------------------------------------------------------------------------GIVENTER ALICE TRUSTEE
|
MUNICIPAL
HOMESTEAD
NON-RESIDENTIAL
BERMAN SETH
|LAND
112,200
P O BOX 437
|BUILDING
110,600
|TOTAL REAL
222,800
222,800
YONKERS NY 10703
|SPEC EXEMPTION
0
TAX MAP:
11-166.000
|
PROP DESC: 1.48 ACRES & DWL
|
911 ADDR: 2 PENNY LN
|
PARCEL ID: 11-166.000 SPAN: 450-142-12528
|
HOUSESITE:
170,600
ACRES:
1.48 R1 NS
|GRAND LIST
2,228.00
2,228.00
-----------------------------------------------------------------------------------------------------------------------------------GLADFELTER AMY
HMSTD FILED |
MUNICIPAL
HOMESTEAD
NON-RESIDENTIAL
BORSUK MARK
|LAND
126,400
427 HAWK PINE RD
|BUILDING
375,200
|TOTAL REAL
501,600
501,600
NORWICH VT 05055
|SPEC EXEMPTION
0
TAX MAP:
16-145.000
|
PROP DESC: 1.57 ACRES & DWL
|
911 ADDR: 427 HAWK PINE RD
|
PARCEL ID: 16-145.000 SPAN: 450-142-12566
|
HOUSESITE:
501,600
ACRES:
1.57 R1 T
|GRAND LIST
5,016.00
5,016.00
-----------------------------------------------------------------------------------------------------------------------------------GLADSTONE DAVID J
HMSTD FILED |
MUNICIPAL
HOMESTEAD
NON-RESIDENTIAL
YAFFEE LISA E
|LAND
196,000
108 BOB WHITE LA
|BUILDING
240,200
|TOTAL REAL
436,200
436,200
NORWICH VT 05055
|SPEC EXEMPTION
0
TAX MAP:
10-083.000
|
PROP DESC: 45.1 ACRES & DWL
|
911 ADDR: 108 BOB WHITE LN
|CURRENT USE
94,500
94,500
PARCEL ID: 10-083.000 SPAN: 450-142-12942
|
HOUSESITE:
336,200
ACRES:
45.10 R2 T
|GRAND LIST
3,417.00
3,417.00
-----------------------------------------------------------------------------------------------------------------------------------GLASGO LINDA B
HMSTD FILED |
MUNICIPAL
HOMESTEAD
NON-RESIDENTIAL
GLASGO DONALD M
|LAND
103,900
8 MEETINGHOUSE RD
|BUILDING
215,300
|TOTAL REAL
319,200
319,200
NORWICH VT 05055
|SPEC EXEMPTION
0
TAX MAP:
05-135.000
|
PROP DESC: 2.3 ACRES & DWL
|
911 ADDR: 8 MEETINGHOUSE RD
|
PARCEL ID: 05-135.000 SPAN: 450-142-12341
|
HOUSESITE:
317,800
ACRES:
2.30 R1 T
|GRAND LIST
3,192.00
3,192.00
-----------------------------------------------------------------------------------------------------------------------------------GLENN MARCY G REV TRUST
|
MUNICIPAL
HOMESTEAD
NON-RESIDENTIAL
|LAND
197,000
1980 GLENCOE ST
|BUILDING
266,400
|TOTAL REAL
463,400
463,400
DENVER CO 80220
|SPEC EXEMPTION
0
TAX MAP:
15-021.000
|
PROP DESC: 6.6 ACRES & DWL/APT
|
911 ADDR: 287 DUTTON HILL CENTER
|
PARCEL ID: 15-021.000 SPAN: 450-142-11928
|
HOUSESITE:
444,700
ACRES:
6.60 R2 NS
|GRAND LIST
4,634.00
4,634.00
------------------------------------------------------------------------------------------------------------------------------------
06/12/2015
01:32 pm
Town of Norwich Grand List
Grand List Report (Detail)
By Name For All Parcels In All Districts
Page 104
jbynum
PARCEL INFORMATION
TAXABLE VALUATIONS / EXEMPTIONS / CONTRACTS
-----------------------------------------------------------------------------------------------------------------------------------GLEN`S RIDGE HOUSE LLC
|
MUNICIPAL
HOMESTEAD
NON-RESIDENTIAL
|LAND
123,400
PO BOX 247
|BUILDING
307,400
|TOTAL REAL
430,800
430,800
HANOVER NH 03755
|SPEC EXEMPTION
0
TAX MAP:
20-073.000
|
PROP DESC: 2.27 ACRES & DWL
|
911 ADDR: 35 GLEN RIDGE RD
|
PARCEL ID: 20-073.000 SPAN: 450-142-11988
|
HOUSESITE:
429,800
ACRES:
2.27 R1 NS
|GRAND LIST
4,308.00
4,308.00
-----------------------------------------------------------------------------------------------------------------------------------GLICK HOLLY A
|
MUNICIPAL
HOMESTEAD
NON-RESIDENTIAL
FRISHTICK JONATHAN M
|LAND
110,700
1249 NEW BOSTON RD
|BUILDING
181,900
|TOTAL REAL
292,600
292,600
NORWICH VT 05055-9689
|SPEC EXEMPTION
0
TAX MAP:
05-014.200
|
PROP DESC: 10.4 ACRES & DWL
|
911 ADDR: 1249 NEW BOSTON RD
|
PARCEL ID: 05-014.200 SPAN: 450-142-12361
|
HOUSESITE:
268,900
ACRES:
10.40 R2 T
|GRAND LIST
2,926.00
2,926.00
-----------------------------------------------------------------------------------------------------------------------------------GODLESKI ROBERT
HMSTD FILED |
MUNICIPAL
HOMESTEAD
NON-RESIDENTIAL
REED BRITTA
|LAND
166,900
527 STIRLING RIDGE ROAD
|BUILDING
439,300
|TOTAL REAL
606,200
430,800
175,400
GROVETOWN GA 30813
|SPEC EXEMPTION
0
0
TAX MAP:
11-039.000
|
PROP DESC: 9.4 ACRES & DWL
|
911 ADDR: 229 BRADLEY HILL RD
|
PARCEL ID: 11-039.000 SPAN: 450-142-11645
|
HOUSESITE:
403,700
ACRES:
9.40 R2 T
|GRAND LIST
6,062.00
4,308.00
1,754.00
-----------------------------------------------------------------------------------------------------------------------------------GOLD JAMES TRUSTEE
HMSTD FILED |
MUNICIPAL
HOMESTEAD
NON-RESIDENTIAL
MCCONNEL PERRINE TRUSTEE
|LAND
153,800
3 WATERMAN HILL RD
|BUILDING
438,000
|TOTAL REAL
591,800
591,800
NORWICH VT 05055
|SPEC EXEMPTION
0
TAX MAP:
05-072.000
|
PROP DESC: 11.5 ACRES & DWL
|
911 ADDR: 3 WATERMAN HILL RD
|
PARCEL ID: 05-072.000 SPAN: 450-142-13059
|
HOUSESITE:
565,300
ACRES:
11.50 R2 T
|GRAND LIST
5,918.00
5,918.00
-----------------------------------------------------------------------------------------------------------------------------------GOLEC MATTHEW N
HMSTD FILED |
MUNICIPAL
HOMESTEAD
NON-RESIDENTIAL
GOLEC LOUISE DAVIES
|LAND
150,400
112 HOPSON RD
|BUILDING
353,000
|TOTAL REAL
503,400
503,400
NORWICH VT 05055
|SPEC EXEMPTION
0
TAX MAP:
20-030.000
|
PROP DESC: 1.10 ACRES & DWL
|
911 ADDR: 112 HOPSON RD
|
PARCEL ID: 20-030.000 SPAN: 450-142-12057
|
HOUSESITE:
503,400
ACRES:
1.10 R1 T
|GRAND LIST
5,034.00
5,034.00
------------------------------------------------------------------------------------------------------------------------------------
06/12/2015
01:32 pm
Town of Norwich Grand List
Grand List Report (Detail)
By Name For All Parcels In All Districts
Page 105
jbynum
PARCEL INFORMATION
TAXABLE VALUATIONS / EXEMPTIONS / CONTRACTS
-----------------------------------------------------------------------------------------------------------------------------------GOODMAN BRIAN
HMSTD FILED |
MUNICIPAL
HOMESTEAD
NON-RESIDENTIAL
CHARLES KERI
|LAND
90,900
636 CAMPBELL FLATS RD
|BUILDING
83,400
|TOTAL REAL
174,300
174,300
NORWICH VT 05055
|SPEC EXEMPTION
0
TAX MAP:
06-026.000
|
PROP DESC: 1.8 ACRES & DWL
|
911 ADDR: 636 CAMPBELL FLATS RD
|
PARCEL ID: 06-026.000 SPAN: 450-142-11777
|
HOUSESITE:
174,300
ACRES:
1.80 R1 T
|GRAND LIST
1,743.00
1,743.00
-----------------------------------------------------------------------------------------------------------------------------------GOODMAN DOUGLAS J
HMSTD FILED |
MUNICIPAL
HOMESTEAD
NON-RESIDENTIAL
SCHOENFELD LORI W
|LAND
83,300
185 CHURCH ST
|BUILDING
228,300
|TOTAL REAL
311,600
311,600
NORWICH VT 05055-0111
|SPEC EXEMPTION
0
TAX MAP:
16-015.100
|
PROP DESC: 2.6 ACRES AND DWL
|
911 ADDR: 185 CHURCH ST
|
PARCEL ID: 16-015.100 SPAN: 450-142-11869
|
HOUSESITE:
309,400
ACRES:
2.60 R1 T
|GRAND LIST
3,116.00
3,116.00
-----------------------------------------------------------------------------------------------------------------------------------GOODRICH CRYSTAL C
HMSTD FILED |
MUNICIPAL
HOMESTEAD
NON-RESIDENTIAL
|LAND
429,400
111 BRADLEY HILL RD
|BUILDING
304,500
|TOTAL REAL
733,900
733,900
NORWICH VT 05055
|SPEC EXEMPTION
0
TAX MAP:
11-031.100
|
PROP DESC: 126.46 ACRES & DWL
|
911 ADDR: 111 BRADLEY HILL RD
|CURRENT USE
262,400
262,400
PARCEL ID: 11-031.100 SPAN: 450-142-11635
|
HOUSESITE:
454,300
ACRES:
126.46 R2 T
|GRAND LIST
4,715.00
4,715.00
-----------------------------------------------------------------------------------------------------------------------------------GOODRICH DEIRDRE
|
MUNICIPAL
HOMESTEAD
NON-RESIDENTIAL
|LAND
88,200
474 MAIN STREET
|BUILDING
0
|TOTAL REAL
88,200
88,200
NORWICH VT 05055-0175
|SPEC EXEMPTION
0
TAX MAP:
20-157.100
|
PROP DESC: .50 ACRES LAND
|
911 ADDR: KOCH RD
|
PARCEL ID: 20-157.100 SPAN: 450-142-13345
|
HOUSESITE:
0
ACRES:
0.50 M
T
|GRAND LIST
882.00
882.00
-----------------------------------------------------------------------------------------------------------------------------------GOODRICH JEFFREY S
|
MUNICIPAL
HOMESTEAD
NON-RESIDENTIAL
|LAND
139,600
259 BEAVER MEADOW RD
|BUILDING
0
|TOTAL REAL
139,600
139,600
NORWICH VT 05055
|SPEC EXEMPTION
0
TAX MAP:
11-026.100
|
PROP DESC: 10.2 ACRES INCL 1 ADDL LOT (NV)
|
911 ADDR: UNION VILLAGE RD
|
PARCEL ID: 11-026.100 SPAN: 450-142-13019
|
HOUSESITE:
0
ACRES:
10.20 M
T
|GRAND LIST
1,396.00
1,396.00
------------------------------------------------------------------------------------------------------------------------------------
06/12/2015
01:32 pm
Town of Norwich Grand List
Grand List Report (Detail)
By Name For All Parcels In All Districts
Page 106
jbynum
PARCEL INFORMATION
TAXABLE VALUATIONS / EXEMPTIONS / CONTRACTS
-----------------------------------------------------------------------------------------------------------------------------------GOODRICH JEFFREY S
|
MUNICIPAL
HOMESTEAD
NON-RESIDENTIAL
GOODRICH ANNE M
|LAND
73,500
259 BEAVER MEADOW RD
|BUILDING
241,800
|TOTAL REAL
315,300
315,300
NORWICH VT 05055
|SPEC EXEMPTION
0
TAX MAP:
16-057.000
|
PROP DESC: 0.47 ACRE & DWL
|
911 ADDR: 228 CHURCH ST
|
PARCEL ID: 16-057.000 SPAN: 450-142-11872
|
HOUSESITE:
315,300
ACRES:
0.47 R1 T
|GRAND LIST
3,153.00
3,153.00
-----------------------------------------------------------------------------------------------------------------------------------GOODRICH JEFFREY S
HMSTD FILED |
MUNICIPAL
HOMESTEAD
NON-RESIDENTIAL
GOODRICH ANNE M
|LAND
144,200
259 BEAVER MEADOW RD
|BUILDING
457,600
|TOTAL REAL
601,800
601,800
NORWICH VT 05055
|SPEC EXEMPTION
0
TAX MAP:
20-079.000
|
PROP DESC: .89 ACRES & DWL
|
911 ADDR: 259 BEAVER MEADOW RD
|
PARCEL ID: 20-079.000 SPAN: 450-142-13237
|
HOUSESITE:
601,800
ACRES:
0.89 R1 T
|GRAND LIST
6,018.00
6,018.00
-----------------------------------------------------------------------------------------------------------------------------------GOODRICH MICHAEL
HMSTD FILED |
MUNICIPAL
HOMESTEAD
NON-RESIDENTIAL
|LAND
142,700
474 MAIN STREET
|BUILDING
290,700
|TOTAL REAL
433,400
433,400
NORWICH VT 05055-0175
|SPEC EXEMPTION
0
TAX MAP:
20-157.000
|
PROP DESC: .86 ACRE & DWL
|
911 ADDR: 474 MAIN ST
|
PARCEL ID: 20-157.000 SPAN: 450-142-12445
|
HOUSESITE:
433,400
ACRES:
0.86 R1 T
|GRAND LIST
4,334.00
4,334.00
-----------------------------------------------------------------------------------------------------------------------------------GOODRICH MICHAEL P
|
MUNICIPAL
HOMESTEAD
NON-RESIDENTIAL
GOODRICH DIERDRE B
|LAND
117,400
474 MAIN STREET
|BUILDING
5,200
|TOTAL REAL
122,600
122,600
NORWICH VT 05055
|SPEC EXEMPTION
0
TAX MAP:
11-032.100
|
PROP DESC: 2.33 ACRES AND MOBILE HOME
|
911 ADDR: 121 BRADLEY HILL RD
|
PARCEL ID: 11-032.100 SPAN: 450-142-11638
|
HOUSESITE:
121,100
ACRES:
2.33 MHL T
|GRAND LIST
1,226.00
1,226.00
-----------------------------------------------------------------------------------------------------------------------------------GOODWIN MARK F
HMSTD FILED |
MUNICIPAL
HOMESTEAD
NON-RESIDENTIAL
GOODWIN AIMEE J
|LAND
99,300
970 NEW BOSTON RD
|BUILDING
211,200
|TOTAL REAL
310,500
310,500
NORWICH VT 05055-9670
|SPEC EXEMPTION
0
TAX MAP:
05-139.000
|
PROP DESC: 2.04 ACRES & DWL
|
911 ADDR: 970 NEW BOSTON RD
|
PARCEL ID: 05-139.000 SPAN: 450-142-12332
|
HOUSESITE:
310,300
ACRES:
2.04 R1 T
|GRAND LIST
3,105.00
3,105.00
------------------------------------------------------------------------------------------------------------------------------------
06/12/2015
01:32 pm
Town of Norwich Grand List
Grand List Report (Detail)
By Name For All Parcels In All Districts
Page 107
jbynum
PARCEL INFORMATION
TAXABLE VALUATIONS / EXEMPTIONS / CONTRACTS
-----------------------------------------------------------------------------------------------------------------------------------GOODWIN SETH
HMSTD FILED |
MUNICIPAL
HOMESTEAD
NON-RESIDENTIAL
DOHERTY KATHRYN
|LAND
155,200
31 TURNPIKE RD
|BUILDING
599,700
|TOTAL REAL
754,900
754,900
NORWICH VT 05055
|SPEC EXEMPTION
0
TAX MAP:
20-141.000
|
PROP DESC: 2.15 ACRES & DWL
|
911 ADDR: 31 TURNPIKE RD
|
PARCEL ID: 20-141.000 SPAN: 450-142-12888
|
HOUSESITE:
754,200
ACRES:
2.15 R1 T
|GRAND LIST
7,549.00
7,549.00
-----------------------------------------------------------------------------------------------------------------------------------GOODWIN THAD B
HMSTD FILED |
MUNICIPAL
HOMESTEAD
NON-RESIDENTIAL
GOODWIN MELINDA L.
|LAND
127,700
183 TURNPIKE ROAD
|BUILDING
408,400
|TOTAL REAL
536,100
536,100
NORWICH VT 05055
|SPEC EXEMPTION
0
TAX MAP:
10-060.000
|
PROP DESC: 1.6 ACRES & DWL
|
911 ADDR: 183 TURNPIKE RD
|
PARCEL ID: 10-060.000 SPAN: 450-142-12903
|
HOUSESITE:
536,100
ACRES:
1.60 R1 T
|GRAND LIST
5,361.00
5,361.00
-----------------------------------------------------------------------------------------------------------------------------------GORDON MICHAEL
HMSTD FILED |
MUNICIPAL
HOMESTEAD
NON-RESIDENTIAL
GORDON MADONNA
|LAND
95,000
39 ACADEMY ROAD
|BUILDING
217,100
|TOTAL REAL
312,100
312,100
NORWICH VT 05055
|SPEC EXEMPTION
0
TAX MAP:
05-055.000
|
PROP DESC: 1 ACRE & DWL
|
911 ADDR: 39 ACADEMY RD
|
PARCEL ID: 05-055.000 SPAN: 450-142-13073
|
HOUSESITE:
312,100
ACRES:
1.00 R1 T
|GRAND LIST
3,121.00
3,121.00
-----------------------------------------------------------------------------------------------------------------------------------GORDON STUART R
HMSTD FILED |
MUNICIPAL
HOMESTEAD
NON-RESIDENTIAL
|LAND
148,800
169 ELM ST
|BUILDING
399,000
|TOTAL REAL
547,800
547,800
NORWICH VT 05055
|SPEC EXEMPTION
0
TAX MAP:
20-311.000
|
PROP DESC: .8 ACRE & DWL
|
911 ADDR: 169 ELM ST
|
PARCEL ID: 20-311.000 SPAN: 450-142-11960
|
HOUSESITE:
547,800
ACRES:
0.80 R1 T
|GRAND LIST
5,478.00
5,478.00
-----------------------------------------------------------------------------------------------------------------------------------GORHAM JAMES D.
HMSTD FILED |
MUNICIPAL
HOMESTEAD
NON-RESIDENTIAL
GORHAM BEVERLY J.
|LAND
125,200
44 HAWK PINE RD
|BUILDING
328,900
|TOTAL REAL
454,100
454,100
NORWICH VT 05055
|SPEC EXEMPTION
0
TAX MAP:
11-184.000
|
PROP DESC: 1.31 ACRES & DWL
|
911 ADDR: 44 HAWK PINE RD
|
PARCEL ID: 11-184.000 SPAN: 450-142-12523
|
HOUSESITE:
454,100
ACRES:
1.31 R1 T
|GRAND LIST
4,541.00
4,541.00
------------------------------------------------------------------------------------------------------------------------------------
06/12/2015
01:32 pm
Town of Norwich Grand List
Grand List Report (Detail)
By Name For All Parcels In All Districts
Page 108
jbynum
PARCEL INFORMATION
TAXABLE VALUATIONS / EXEMPTIONS / CONTRACTS
-----------------------------------------------------------------------------------------------------------------------------------GORLA CATALINA
HMSTD FILED |
MUNICIPAL
HOMESTEAD
NON-RESIDENTIAL
|LAND
70,300
143 CHAPEL HILL RD
|BUILDING
185,200
|TOTAL REAL
255,500
255,500
NORWICH VT 05055
|SPEC EXEMPTION
0
TAX MAP:
03-005.100
|
PROP DESC: 2 ACRES & DWL
|
911 ADDR: 143 CHAPEL HILL RD
|
PARCEL ID: 03-005.100 SPAN: 450-142-11827
|
HOUSESITE:
255,500
ACRES:
2.00 R1 T
|GRAND LIST
2,555.00
2,555.00
-----------------------------------------------------------------------------------------------------------------------------------GORLIN KENNETH A
HMSTD FILED |
MUNICIPAL
HOMESTEAD
NON-RESIDENTIAL
BAER LISA E
|LAND
118,200
37 CAMPBELL FLATS RD
|BUILDING
295,600
|TOTAL REAL
413,800
413,800
NORWICH VT 05055
|SPEC EXEMPTION
0
TAX MAP:
06-014.000
|
PROP DESC: 4 ACRES & DWL
|
911 ADDR: 37 CAMPBELL FLATS RD
|
PARCEL ID: 06-014.000 SPAN: 450-142-11760
|
HOUSESITE:
409,300
ACRES:
4.00 R1 T
|GRAND LIST
4,138.00
4,138.00
-----------------------------------------------------------------------------------------------------------------------------------GORMAN STEPHEN C.N.
HMSTD FILED |
MUNICIPAL
HOMESTEAD
NON-RESIDENTIAL
GORMAN MARY B.
|LAND
128,700
504 HAWK PINE RD
|BUILDING
228,700
|TOTAL REAL
357,400
357,400
NORWICH VT 05055
|SPEC EXEMPTION
0
TAX MAP:
16-138.000
|
PROP DESC: 2.09 ACRES & DWL
|
911 ADDR: 504 HAWK PINE RD
|
PARCEL ID: 16-138.000 SPAN: 450-142-12576
|
HOUSESITE:
357,000
ACRES:
2.09 R1 T
|GRAND LIST
3,574.00
3,574.00
-----------------------------------------------------------------------------------------------------------------------------------GORMLEY SARA M
HMSTD FILED |
MUNICIPAL
HOMESTEAD
NON-RESIDENTIAL
|LAND
273,700
438 JOSHUA RD
|BUILDING
316,100
|TOTAL REAL
589,800
589,800
WHITE RIVER JUNCTION VT 05001
|SPEC EXEMPTION
0
TAX MAP:
14-031.100
|
PROP DESC: 60.78 ACRES & DWL
|
911 ADDR: 438 JOSHUA RD
|CURRENT USE
153,900
153,900
PARCEL ID: 14-031.100 SPAN: 450-142-13397
|
HOUSESITE:
422,400
ACRES:
60.78 R2 T
|GRAND LIST
4,359.00
4,359.00
-----------------------------------------------------------------------------------------------------------------------------------GOTTLIEB DANIEL J
HMSTD FILED |
MUNICIPAL
HOMESTEAD
NON-RESIDENTIAL
GOTTLIEB MICHELLE J
|LAND
0
31 HERITAGE LN UNIT 7
|BUILDING
300,100
|TOTAL REAL
300,100
300,100
NORWICH VT 05055-0412
|SPEC EXEMPTION
0
TAX MAP:
20-043.700
|
PROP DESC: UNIT 7 HERITAGE TOWNHOUSES
|
911 ADDR: 31 HERITAGE LN
|
PARCEL ID: 20-043.700 SPAN: 450-142-11757
|
HOUSESITE:
300,100
ACRES:
0.00 O
T
|GRAND LIST
3,001.00
3,001.00
------------------------------------------------------------------------------------------------------------------------------------
06/12/2015
01:32 pm
Town of Norwich Grand List
Grand List Report (Detail)
By Name For All Parcels In All Districts
Page 109
jbynum
PARCEL INFORMATION
TAXABLE VALUATIONS / EXEMPTIONS / CONTRACTS
-----------------------------------------------------------------------------------------------------------------------------------GOULET DANIEL
HMSTD FILED |
MUNICIPAL
HOMESTEAD
NON-RESIDENTIAL
POWERS JUDE
|LAND
65,500
185 UPPER LOVELAND RD
|BUILDING
145,300
|TOTAL REAL
210,800
148,232
62,568
NORWICH VT 05055
|SPEC EXEMPTION
0
0
TAX MAP:
11-160.000
|
PROP DESC: 1.89 ACRES & DWL\APT
|
911 ADDR: 185 UPPER LOVELAND RD
|
PARCEL ID: 11-160.000 SPAN: 450-142-13089
|
HOUSESITE:
148,232
ACRES:
1.89 R1 T
|GRAND LIST
2,108.00
1,482.32
625.68
-----------------------------------------------------------------------------------------------------------------------------------GRABER MARTHA
HMSTD FILED |
MUNICIPAL
HOMESTEAD
NON-RESIDENTIAL
|LAND
143,200
39 CARPENTER ST
|BUILDING
236,900
|TOTAL REAL
380,100
380,100
NORWICH VT 05055
|SPEC EXEMPTION
0
TAX MAP:
20-217.000
|
PROP DESC: 0.48 ACRE & DWL
|
911 ADDR: 39 CARPENTER ST
|
PARCEL ID: 20-217.000 SPAN: 450-142-11788
|
HOUSESITE:
380,100
ACRES:
0.48 R1 T
|GRAND LIST
3,801.00
3,801.00
-----------------------------------------------------------------------------------------------------------------------------------GRAHAM RICHARD W
HMSTD FILED |
MUNICIPAL
HOMESTEAD
NON-RESIDENTIAL
VERLAAK GENEVIEVE A
|LAND
167,500
143 DOUGLAS RD
|BUILDING
571,900
|TOTAL REAL
739,400
739,400
NORWICH VT 05055
|SPEC EXEMPTION
0
TAX MAP:
10-132.000
|
PROP DESC: 10.1 ACRES & DWL
|
911 ADDR: 143 DOUGLAS RD
|
PARCEL ID: 10-132.000 SPAN: 450-142-11909
|
HOUSESITE:
710,300
ACRES:
10.10 R2 T
|GRAND LIST
7,394.00
7,394.00
-----------------------------------------------------------------------------------------------------------------------------------GRAINGER SHIRLEY J
HMSTD FILED |
MUNICIPAL
HOMESTEAD
NON-RESIDENTIAL
|LAND
119,300
152 HAWK PINE RD
|BUILDING
227,000
|TOTAL REAL
346,300
346,300
NORWICH VT 05055
|SPEC EXEMPTION
0
TAX MAP:
11-180.000
|
PROP DESC: 1.12 ACRES & DWL
|
911 ADDR: 152 HAWK PINE RD
|
PARCEL ID: 11-180.000 SPAN: 450-142-12533
|
HOUSESITE:
346,300
ACRES:
1.12 R1 T
|GRAND LIST
3,463.00
3,463.00
-----------------------------------------------------------------------------------------------------------------------------------GRANT JOHN M
HMSTD FILED |
MUNICIPAL
HOMESTEAD
NON-RESIDENTIAL
GRANT KATHLEEN D
|LAND
130,400
1415 BEAVER MEADOW RD
|BUILDING
275,000
|TOTAL REAL
405,400
405,400
NORWICH VT 05055
|SPEC EXEMPTION
0
TAX MAP:
09-035.300
|
PROP DESC: 6.3 ACRES & DWL
|
911 ADDR: 1415 BEAVER MEADOW RD
|
PARCEL ID: 09-035.300 SPAN: 450-142-11600
|
HOUSESITE:
391,200
ACRES:
6.30 R2 T
|GRAND LIST
4,054.00
4,054.00
------------------------------------------------------------------------------------------------------------------------------------
06/12/2015
01:32 pm
Town of Norwich Grand List
Grand List Report (Detail)
By Name For All Parcels In All Districts
Page 110
jbynum
PARCEL INFORMATION
TAXABLE VALUATIONS / EXEMPTIONS / CONTRACTS
-----------------------------------------------------------------------------------------------------------------------------------GRANTHAM SHELBY
HMSTD FILED |
MUNICIPAL
HOMESTEAD
NON-RESIDENTIAL
|LAND
129,400
122 CAMPBELL FLATS RD
|BUILDING
262,300
|TOTAL REAL
391,700
258,112
133,588
NORWICH VT 05055-0342
|SPEC EXEMPTION
0
0
TAX MAP:
06-032.000
|
PROP DESC: 2.4 ACRES & DWL & 2 APTS
|
911 ADDR: 122 CAMPBELL FLATS RD
|
PARCEL ID: 06-032.000 SPAN: 450-142-11763
|
HOUSESITE:
256,512
ACRES:
2.40 R1 T
|GRAND LIST
3,917.00
2,581.12
1,335.88
-----------------------------------------------------------------------------------------------------------------------------------GRAVES GEORGE
HMSTD FILED |
MUNICIPAL
HOMESTEAD
NON-RESIDENTIAL
GRAVES LUANN
|LAND
141,600
74 BUTTERNUT RD
|BUILDING
319,400
|TOTAL REAL
461,000
461,000
NORWICH VT 05055
|SPEC EXEMPTION
0
TAX MAP:
11-100.200
|
PROP DESC: 10.15 ACRES & DWL
|
911 ADDR: 74 BUTTERNUT RD
|
PARCEL ID: 11-100.200 SPAN: 450-142-11724
|
HOUSESITE:
434,700
ACRES:
10.15 R2 T
|GRAND LIST
4,610.00
4,610.00
-----------------------------------------------------------------------------------------------------------------------------------GRAY ALMA
HMSTD FILED |
MUNICIPAL
HOMESTEAD
NON-RESIDENTIAL
|LAND
105,600
468 TURNPIKE RD
|BUILDING
6,800
|TOTAL REAL
112,400
112,400
NORWICH VT 05055
|SPEC EXEMPTION
0
TAX MAP:
10-106.000
|
PROP DESC: 2.2 ACRES & MOBILE HOME
|
911 ADDR: 468 TURNPIKE RD
|
PARCEL ID: 10-106.000 SPAN: 450-142-12925
|
HOUSESITE:
111,700
ACRES:
2.20 MHL T
|GRAND LIST
1,124.00
1,124.00
-----------------------------------------------------------------------------------------------------------------------------------GRAY COREY
HMSTD FILED |
MUNICIPAL
HOMESTEAD
NON-RESIDENTIAL
HACKETT MARTINA
|LAND
71,400
16 MILL RD
|BUILDING
130,700
|TOTAL REAL
202,100
202,100
NORWICH VT 05055
|SPEC EXEMPTION
0
TAX MAP:
15-067.000
|
PROP DESC: .41 ACRE & DWL
|
911 ADDR: 16 MILL RD
|
PARCEL ID: 15-067.000 SPAN: 450-142-12731
|
HOUSESITE:
202,100
ACRES:
0.41 R1 T
|GRAND LIST
2,021.00
2,021.00
-----------------------------------------------------------------------------------------------------------------------------------GRAY THOMAS O
HMSTD FILED |
MUNICIPAL
HOMESTEAD
NON-RESIDENTIAL
GRAY LINDA C
|LAND
135,800
PO BOX 1008
|BUILDING
210,200
|TOTAL REAL
346,000
346,000
NORWICH VT 05055-1008
|SPEC EXEMPTION
0
TAX MAP:
05-090.000
|
PROP DESC: 3.67 ACRES & DWL
|
911 ADDR: 175 KERWIN HILL RD
|
PARCEL ID: 05-090.000 SPAN: 450-142-12118
|
HOUSESITE:
338,500
ACRES:
3.67 R1 T
|GRAND LIST
3,460.00
3,460.00
------------------------------------------------------------------------------------------------------------------------------------
06/12/2015
01:32 pm
Town of Norwich Grand List
Grand List Report (Detail)
By Name For All Parcels In All Districts
Page 111
jbynum
PARCEL INFORMATION
TAXABLE VALUATIONS / EXEMPTIONS / CONTRACTS
-----------------------------------------------------------------------------------------------------------------------------------GRAYTSON PROPERTIES LLC
|
MUNICIPAL
HOMESTEAD
NON-RESIDENTIAL
|LAND
161,600
8 DORRANCE PL
|BUILDING
253,600
|TOTAL REAL
415,200
415,200
HANOVER NH 03755
|SPEC EXEMPTION
0
TAX MAP:
11-197.000
|
PROP DESC: 2.9 ACRES & DWL
|
911 ADDR: 48 OVERLOOK DR
|
PARCEL ID: 11-197.000 SPAN: 450-142-13157
|
HOUSESITE:
411,200
ACRES:
2.90 R1 NS
|GRAND LIST
4,152.00
4,152.00
-----------------------------------------------------------------------------------------------------------------------------------GREEN MOUNTAIN POWER CORP
|
MUNICIPAL
HOMESTEAD
NON-RESIDENTIAL
|LAND
0
ATTN: PROPERTY TAX ADMIN
|BUILDING
5394,700
2154 POST ROAD
|TOTAL REAL
5394,700
5394,700
RUTLAND VT 05701-6200
|SPEC EXEMPTION
0
TAX MAP:
70-001.000
|
PROP DESC: ELECTRIC DISTRIBUTION SYSTEM
|
911 ADDR: TOWNWIDE
|
PARCEL ID: 70-001.000 SPAN: 450-142-11733
|
HOUSESITE:
0
ACRES:
0.00 UE C
|GRAND LIST
53,947.00
53,947.00
-----------------------------------------------------------------------------------------------------------------------------------GREEN RONALD
HMSTD FILED |
MUNICIPAL
HOMESTEAD
NON-RESIDENTIAL
GREEN MARY JEAN
|LAND
202,700
PO BOX 418
|BUILDING
307,100
|TOTAL REAL
509,800
509,800
NORWICH VT 05055-0418
|SPEC EXEMPTION
0
TAX MAP:
15-037.300
|
PROP DESC: 10.1 ACRES & DWL
|
911 ADDR: 137 HICKORY RIDGE
|
PARCEL ID: 15-037.300 SPAN: 450-142-12039
|
HOUSESITE:
495,400
ACRES:
10.10 R2 T
|GRAND LIST
5,098.00
5,098.00
-----------------------------------------------------------------------------------------------------------------------------------GREEN VISIONS LLC
|
MUNICIPAL
HOMESTEAD
NON-RESIDENTIAL
|LAND
575,000
PO BOX 908
|BUILDING
2566,900
|TOTAL REAL
3141,900
3141,900
NORWICH VT 05055-0908
|SPEC EXEMPTION
0
TAX MAP:
20-255.000
|
PROP DESC: 2.30 ACRES & INN & RESTAURANT & ADDL LOT
|
911 ADDR: 325 MAIN ST
|
PARCEL ID: 20-255.000 SPAN: 450-142-12451
|
HOUSESITE:
0
ACRES:
2.30 C
C
|GRAND LIST
31,419.00
31,419.00
-----------------------------------------------------------------------------------------------------------------------------------GREENFIELD GORDON
HMSTD FILED |
MUNICIPAL
HOMESTEAD
NON-RESIDENTIAL
BOYD ELIZABETH
|LAND
157,900
56 OLD COACH RD
|BUILDING
262,100
|TOTAL REAL
420,000
420,000
NORWICH VT 05055
|SPEC EXEMPTION
0
TAX MAP:
11-019.000
|
PROP DESC: 1.36 ACRES & DWL
|
911 ADDR: 56 OLD COACH RD
|
PARCEL ID: 11-019.000 SPAN: 450-142-12483
|
HOUSESITE:
420,000
ACRES:
1.36 R1 T
|GRAND LIST
4,200.00
4,200.00
------------------------------------------------------------------------------------------------------------------------------------
06/12/2015
01:32 pm
Town of Norwich Grand List
Grand List Report (Detail)
By Name For All Parcels In All Districts
Page 112
jbynum
PARCEL INFORMATION
TAXABLE VALUATIONS / EXEMPTIONS / CONTRACTS
-----------------------------------------------------------------------------------------------------------------------------------GREENWALD ANN
HMSTD FILED |
MUNICIPAL
HOMESTEAD
NON-RESIDENTIAL
|LAND
186,900
63 DOUGLAS HILL RD
|BUILDING
634,600
|TOTAL REAL
821,500
821,500
NORWICH VT 05055
|SPEC EXEMPTION
0
TAX MAP:
10-146.000
|
PROP DESC: 10.5 ACRES & DWL
|
911 ADDR: 63 DOUGLAS HILL
|
PARCEL ID: 10-146.000 SPAN: 450-142-11906
|
HOUSESITE:
791,300
ACRES:
10.50 R2 T
|GRAND LIST
8,215.00
8,215.00
-----------------------------------------------------------------------------------------------------------------------------------GREENWOOD SUSAN E
HMSTD FILED |
MUNICIPAL
HOMESTEAD
NON-RESIDENTIAL
KOZLOWSKI LINDA J
|LAND
109,700
PO BOX 1624
|BUILDING
413,000
|TOTAL REAL
522,700
522,700
NORWICH VT 05055
|SPEC EXEMPTION
0
TAX MAP:
03-050.000
|
PROP DESC: 3.59 ACRES & DWL
|
911 ADDR: 105 STAGECOACH RD
|
PARCEL ID: 03-050.000 SPAN: 450-142-11806
|
HOUSESITE:
515,500
ACRES:
3.59 R1 T
|GRAND LIST
5,227.00
5,227.00
-----------------------------------------------------------------------------------------------------------------------------------GREGORY JOHN B
HMSTD FILED |
MUNICIPAL
HOMESTEAD
NON-RESIDENTIAL
GEORGE MICHELE A
|LAND
127,200
816 TURNPIKE RD
|BUILDING
240,200
|TOTAL REAL
367,400
367,400
NORWICH VT 05055
|SPEC EXEMPTION
0
TAX MAP:
10-097.000
|
PROP DESC: 1.60 ACRES & DWL
|
911 ADDR: 816 TURNPIKE RD
|
PARCEL ID: 10-097.000 SPAN: 450-142-12945
|
HOUSESITE:
367,400
ACRES:
1.60 R1 T
|GRAND LIST
3,674.00
3,674.00
-----------------------------------------------------------------------------------------------------------------------------------GRIBBLE GORDON W
|
MUNICIPAL
HOMESTEAD
NON-RESIDENTIAL
|LAND
141,100
138 BEAVER MEADOW RD
|BUILDING
247,800
|TOTAL REAL
388,900
388,900
NORWICH VT 05055
|SPEC EXEMPTION
0
TAX MAP:
20-112.000
|
PROP DESC: .83 ACRE & DWL
|
911 ADDR: 138 BEAVER MEADOW RD
|
PARCEL ID: 20-112.000 SPAN: 450-142-12205
|
HOUSESITE:
388,900
ACRES:
0.83 R1 T
|GRAND LIST
3,889.00
3,889.00
-----------------------------------------------------------------------------------------------------------------------------------GRIFFIN RODMAN D
|
MUNICIPAL
HOMESTEAD
NON-RESIDENTIAL
MCCABE KATHARINE T
|LAND
114,300
23 CLIFF ST
|BUILDING
248,900
|TOTAL REAL
363,200
363,200
NORWICH VT 05055
|SPEC EXEMPTION
0
TAX MAP:
20-176.000
|
PROP DESC: .32 ACRE & DWL
|
911 ADDR: 23 CLIFF ST
|
PARCEL ID: 20-176.000 SPAN: 450-142-11877
|
HOUSESITE:
363,200
ACRES:
0.32 R1 T
|GRAND LIST
3,632.00
3,632.00
------------------------------------------------------------------------------------------------------------------------------------
06/12/2015
01:32 pm
Town of Norwich Grand List
Grand List Report (Detail)
By Name For All Parcels In All Districts
Page 113
jbynum
PARCEL INFORMATION
TAXABLE VALUATIONS / EXEMPTIONS / CONTRACTS
-----------------------------------------------------------------------------------------------------------------------------------GRIGGS JAMES KIMO S
|
MUNICIPAL
HOMESTEAD
NON-RESIDENTIAL
|LAND
162,200
3631 MERIDIAN AVENUE NORTH
|BUILDING
316,400
|TOTAL REAL
478,600
478,600
SEATTLE WA 98103
|SPEC EXEMPTION
0
TAX MAP:
20-064.100
|
PROP DESC: 3.03 ACRES & SHELL
|
911 ADDR: 218 DUTTON HILL
|
PARCEL ID: 20-064.100 SPAN: 450-142-11924
|
HOUSESITE:
474,000
ACRES:
3.03 R1 NS
|GRAND LIST
4,786.00
4,786.00
-----------------------------------------------------------------------------------------------------------------------------------GRIGGS KELLY C
HMSTD FILED |
MUNICIPAL
HOMESTEAD
NON-RESIDENTIAL
GRIGGS DIANNE MARKS
|LAND
143,400
198 DUTTON HILL
|BUILDING
315,700
|TOTAL REAL
459,100
459,100
NORWICH VT 05055
|SPEC EXEMPTION
0
TAX MAP:
20-066.000
|
PROP DESC: 5.96 ACRES & DWL
|
911 ADDR: 198 DUTTON HILL
|
PARCEL ID: 20-066.000 SPAN: 450-142-11923
|
HOUSESITE:
442,400
ACRES:
5.96 R1 T
|GRAND LIST
4,591.00
4,591.00
-----------------------------------------------------------------------------------------------------------------------------------GRIGGS PETER W
HMSTD FILED |
MUNICIPAL
HOMESTEAD
NON-RESIDENTIAL
SMITH SYDNEY E
|LAND
162,600
256 DUTTON HILL
|BUILDING
303,800
|TOTAL REAL
466,400
466,400
NORWICH VT 05055
|SPEC EXEMPTION
0
TAX MAP:
20-064.200
|
PROP DESC: 3.1 ACRES & DWLG
|
911 ADDR: 256 DUTTON HILL
|
PARCEL ID: 20-064.200 SPAN: 450-142-11925
|
HOUSESITE:
461,400
ACRES:
3.10 R1 T
|GRAND LIST
4,664.00
4,664.00
-----------------------------------------------------------------------------------------------------------------------------------GRIGGS PETER W
|
MUNICIPAL
HOMESTEAD
NON-RESIDENTIAL
SMITH SYDNEY E ETAL
|LAND
607,700
256 DUTTON HILL
|BUILDING
0
|TOTAL REAL
607,700
607,700
NORWICH VT 05055
|SPEC EXEMPTION
0
TAX MAP:
|
PROP DESC: 93.34 ACRES & 2 ADDL LOTS
|
911 ADDR: 256 DUTTON HILL
|CURRENT USE
590,600
590,600
PARCEL ID: 20-064.400 SPAN: 450-142-13401
|
HOUSESITE:
0
ACRES:
93.34 M
T
|GRAND LIST
171.00
171.00
-----------------------------------------------------------------------------------------------------------------------------------GRIGGS THOMAS C
|
MUNICIPAL
HOMESTEAD
NON-RESIDENTIAL
GRIGGS ANN L
|LAND
132,800
353 LAUREL ST
|BUILDING
127,500
|TOTAL REAL
260,300
260,300
MORGANTOWN WV 26505
|SPEC EXEMPTION
0
TAX MAP:
20-058.100
|
PROP DESC: 3 ACRES & DWL
|
911 ADDR: 181 DUTTON HILL
|
PARCEL ID: 20-058.100 SPAN: 450-142-13229
|
HOUSESITE:
255,800
ACRES:
3.00 R1 NS
|GRAND LIST
2,603.00
2,603.00
------------------------------------------------------------------------------------------------------------------------------------
06/12/2015
01:32 pm
Town of Norwich Grand List
Grand List Report (Detail)
By Name For All Parcels In All Districts
Page 114
jbynum
PARCEL INFORMATION
TAXABLE VALUATIONS / EXEMPTIONS / CONTRACTS
-----------------------------------------------------------------------------------------------------------------------------------GRISWOLD LISA L
HMSTD FILED |
MUNICIPAL
HOMESTEAD
NON-RESIDENTIAL
|LAND
134,900
841 TURNPIKE RD
|BUILDING
222,100
|TOTAL REAL
357,000
357,000
NORWICH VT 05055
|SPEC EXEMPTION
0
TAX MAP:
10-089.000
|
PROP DESC: 3.1 ACRES & DWL
|
911 ADDR: 841 TURNPIKE RD
|
PARCEL ID: 10-089.000 SPAN: 450-142-12946
|
HOUSESITE:
351,600
ACRES:
3.20 R1 T
|GRAND LIST
3,570.00
3,570.00
-----------------------------------------------------------------------------------------------------------------------------------GROLLMAN DIANE W
HMSTD FILED |
MUNICIPAL
HOMESTEAD
NON-RESIDENTIAL
|LAND
109,500
143 BRADLEY HILL RD
|BUILDING
216,000
|TOTAL REAL
325,500
325,500
NORWICH VT 05055
|SPEC EXEMPTION
0
TAX MAP:
11-033.000
|
PROP DESC: .55 ACRE & DWL
|
911 ADDR: 143 BRADLEY HILL RD
|
PARCEL ID: 11-033.000 SPAN: 450-142-11641
|
HOUSESITE:
325,500
ACRES:
0.55 R1 T
|GRAND LIST
3,255.00
3,255.00
-----------------------------------------------------------------------------------------------------------------------------------GUERRA THOMAS
|
MUNICIPAL
HOMESTEAD
NON-RESIDENTIAL
|LAND
100,400
31 BULLOCK RD
|BUILDING
149,900
|TOTAL REAL
250,300
250,300
NORWICH VT 05055
|SPEC EXEMPTION
0
TAX MAP:
11-087.000
|
PROP DESC: 4.5 ACRES & DWL
|
911 ADDR: 31 BULLOCK RD
|
PARCEL ID: 11-087.000 SPAN: 450-142-11729
|
HOUSESITE:
144,500
ACRES:
4.80 R1 T
|GRAND LIST
2,503.00
2,503.00
-----------------------------------------------------------------------------------------------------------------------------------GUEST DAVID H
HMSTD FILED |
MUNICIPAL
HOMESTEAD
NON-RESIDENTIAL
GUEST ELIZABETH P
|LAND
127,700
55 BUTTERNUT RD
|BUILDING
207,800
|TOTAL REAL
335,500
249,209
86,291
NORWICH VT 05055
|SPEC EXEMPTION
0
0
TAX MAP:
11-099.000
|
PROP DESC: 3.24 ACRES & DWL
|
911 ADDR: 55 BUTTERNUT RD
|CURRENT USE
5,200
5,200
PARCEL ID: 11-099.000 SPAN: 450-142-11722
|
HOUSESITE:
243,609
ACRES:
3.24 F
T
|GRAND LIST
3,303.00
2,440.09
862.91
-----------------------------------------------------------------------------------------------------------------------------------GUEST DAVID H
|
MUNICIPAL
HOMESTEAD
NON-RESIDENTIAL
GUEST ELIZABETH S
|LAND
146,500
55 BUTTERNUT RD
|BUILDING
0
|TOTAL REAL
146,500
146,500
NORWICH VT 05055
|SPEC EXEMPTION
0
TAX MAP:
11-100.100
|
PROP DESC: 13.1 AC; NO DEV RIGHTS ON 10.1 ACRES
|
911 ADDR: BUTTERNUT RD
|CURRENT USE
143,400
143,400
PARCEL ID: 11-100.100 SPAN: 450-142-11725
|
HOUSESITE:
0
ACRES:
13.10 M
T
|GRAND LIST
31.00
31.00
------------------------------------------------------------------------------------------------------------------------------------
06/12/2015
01:32 pm
Town of Norwich Grand List
Grand List Report (Detail)
By Name For All Parcels In All Districts
Page 115
jbynum
PARCEL INFORMATION
TAXABLE VALUATIONS / EXEMPTIONS / CONTRACTS
-----------------------------------------------------------------------------------------------------------------------------------GUEST DAVID H
|
MUNICIPAL
HOMESTEAD
NON-RESIDENTIAL
|LAND
0
55 BUTTERNUT RD
|BUILDING
24,600
|TOTAL REAL
24,600
24,600
NORWICH VT 05055
|SPEC EXEMPTION
0
TAX MAP:
15-070.100
|
PROP DESC: VEGETABLE STAND - NO LAND
|
911 ADDR: 155 US ROUTE 5 SOUTH
|
PARCEL ID: 15-070.100 SPAN: 450-142-12738
|
HOUSESITE:
0
ACRES:
0.00 C
T
|GRAND LIST
246.00
246.00
-----------------------------------------------------------------------------------------------------------------------------------GUEST LAURA DAY
HMSTD FILED |
MUNICIPAL
HOMESTEAD
NON-RESIDENTIAL
GUEST JOHN H
|LAND
201,100
1305 BRAGG HILL RD
|BUILDING
210,100
|TOTAL REAL
411,200
411,200
NORWICH VT 05055
|SPEC EXEMPTION
0
TAX MAP:
09-022.130
|
PROP DESC: 21.88 ACRES & DWL & 4 ADDL LOTS (NV)
|
911 ADDR: 1305 BRAGG HILL RD
|
PARCEL ID: 09-022.130 SPAN: 450-142-11700
|
HOUSESITE:
349,300
ACRES:
21.88 R2 T
|GRAND LIST
4,112.00
4,112.00
-----------------------------------------------------------------------------------------------------------------------------------GUILLETTE PETER II
HMSTD FILED |
MUNICIPAL
HOMESTEAD
NON-RESIDENTIAL
GUILLETTE DOREEN
|LAND
91,200
PO BOX 1436
|BUILDING
146,900
|TOTAL REAL
238,100
238,100
NORWICH VT 05055
|SPEC EXEMPTION
0
TAX MAP:
03-042.100
|
PROP DESC: 9.4 ACRES & DWL
|
911 ADDR: 716 CHAPEL HILL RD
|
PARCEL ID: 03-042.100 SPAN: 450-142-11819
|
HOUSESITE:
216,400
ACRES:
9.40 R2 T
|GRAND LIST
2,381.00
2,381.00
-----------------------------------------------------------------------------------------------------------------------------------GURMAN GLENN
HMSTD FILED |
MUNICIPAL
HOMESTEAD
NON-RESIDENTIAL
|LAND
176,300
PO BOX 1307
|BUILDING
161,000
|TOTAL REAL
337,300
337,300
NORWICH VT 05055
|SPEC EXEMPTION
0
TAX MAP:
06-071.000
|
PROP DESC: .77 ACRE & DWL
|
911 ADDR: 186 KENDALL STATION RD
|
PARCEL ID: 06-071.000 SPAN: 450-142-12629
|
HOUSESITE:
337,300
ACRES:
0.77 R1 T
|GRAND LIST
3,373.00
3,373.00
-----------------------------------------------------------------------------------------------------------------------------------GURWITT ROBERT
HMSTD FILED |
MUNICIPAL
HOMESTEAD
NON-RESIDENTIAL
HARRIS KAREN
|LAND
127,300
534 HAWK PINE RD
|BUILDING
265,900
|TOTAL REAL
393,200
393,200
NORWICH VT 05055
|SPEC EXEMPTION
0
TAX MAP:
16-136.000
|
PROP DESC: 1.78 ACRES & DWL
|
911 ADDR: 534 HAWK PINE RD
|
PARCEL ID: 16-136.000 SPAN: 450-142-12580
|
HOUSESITE:
393,200
ACRES:
1.78 R1 T
|GRAND LIST
3,932.00
3,932.00
------------------------------------------------------------------------------------------------------------------------------------
06/12/2015
01:32 pm
Town of Norwich Grand List
Grand List Report (Detail)
By Name For All Parcels In All Districts
Page 116
jbynum
PARCEL INFORMATION
TAXABLE VALUATIONS / EXEMPTIONS / CONTRACTS
-----------------------------------------------------------------------------------------------------------------------------------H2H, LLC
|
MUNICIPAL
HOMESTEAD
NON-RESIDENTIAL
|LAND
73,600
96 HAWK PINE ROAD
|BUILDING
136,600
|TOTAL REAL
210,200
210,200
NORWICH VT 05055
|SPEC EXEMPTION
0
TAX MAP:
16-123.000
|
PROP DESC: 3 ACRES & DWL & STUDIO
|
911 ADDR: 23 MELVIEW RIDGE
|
PARCEL ID: 16-123.000 SPAN: 450-142-12245
|
HOUSESITE:
206,700
ACRES:
3.00 R1 C
|GRAND LIST
2,102.00
2,102.00
-----------------------------------------------------------------------------------------------------------------------------------HAAS JULIA
HMSTD FILED |
MUNICIPAL
HOMESTEAD
NON-RESIDENTIAL
|LAND
0
40 NORWICH MEADOWS DR UNIT 12
|BUILDING
168,500
|TOTAL REAL
168,500
168,500
NORWICH VT 05055-9800
|SPEC EXEMPTION
0
TAX MAP:
15-055.012
|
PROP DESC: 40 NORWICH MEADOWS UNIT 12
|
911 ADDR: 40 NORWICH MEADOWS 12
|
PARCEL ID: 15-055.012 SPAN: 450-142-11748
|
HOUSESITE:
168,500
ACRES:
0.00 O
T
|GRAND LIST
1,685.00
1,685.00
-----------------------------------------------------------------------------------------------------------------------------------HACKER CHARLES
HMSTD FILED |
MUNICIPAL
HOMESTEAD
NON-RESIDENTIAL
|LAND
88,100
246 GOODRICH FOUR CORNERS ROAD
|BUILDING
48,000
|TOTAL REAL
136,100
136,100
NORWICH VT 05055
|SPEC EXEMPTION
0
TAX MAP:
11-115.000
|
PROP DESC: 10.2 ACRES & DWL
|
911 ADDR: 246 GOODRICH FOUR CORNERS RD
|
PARCEL ID: 11-115.000 SPAN: 450-142-11997
|
HOUSESITE:
122,900
ACRES:
10.20 R2 T
|GRAND LIST
1,361.00
1,361.00
-----------------------------------------------------------------------------------------------------------------------------------HADLOCK DARREN R.
|
MUNICIPAL
HOMESTEAD
NON-RESIDENTIAL
HADLOCK LISA J.
|LAND
286,500
6 CREST CT
|BUILDING
0
|TOTAL REAL
286,500
286,500
ARMONK NY 10504
|SPEC EXEMPTION
0
TAX MAP:
09-021.210
|
PROP DESC: 80.72 ACRES
|
911 ADDR: TIGERTOWN RD
|CURRENT USE
276,100
276,100
PARCEL ID: 09-021.210 SPAN: 450-142-13196
|
HOUSESITE:
0
ACRES:
80.72 M
NS
|GRAND LIST
104.00
104.00
-----------------------------------------------------------------------------------------------------------------------------------HAEDRICH DANIEL
HMSTD FILED |
MUNICIPAL
HOMESTEAD
NON-RESIDENTIAL
HAEDRICH ANN
|LAND
133,700
49 CLIFF ST
|BUILDING
451,800
|TOTAL REAL
585,500
313,400
272,100
NORWICH VT 05055
|SPEC EXEMPTION
0
0
TAX MAP:
16-034.000
|
PROP DESC: 0.69 ACRE & DWL
|
911 ADDR: 49 CLIFF ST
|
PARCEL ID: 16-034.000 SPAN: 450-142-11884
|
HOUSESITE:
313,400
ACRES:
0.69 R1 T
|GRAND LIST
5,855.00
3,134.00
2,721.00
------------------------------------------------------------------------------------------------------------------------------------
06/12/2015
01:32 pm
Town of Norwich Grand List
Grand List Report (Detail)
By Name For All Parcels In All Districts
Page 117
jbynum
PARCEL INFORMATION
TAXABLE VALUATIONS / EXEMPTIONS / CONTRACTS
-----------------------------------------------------------------------------------------------------------------------------------HAGUE DOUGLAS I
|
MUNICIPAL
HOMESTEAD
NON-RESIDENTIAL
|LAND
119,600
5 SPRINGDALE LOCK
|BUILDING
219,400
|TOTAL REAL
339,000
339,000
PITTSFORD NY 14534
|SPEC EXEMPTION
0
TAX MAP:
20-074.000
|
PROP DESC: 1.22 ACRES & DWL
|
911 ADDR: 53 GLEN RIDGE RD
|
PARCEL ID: 20-074.000 SPAN: 450-142-11987
|
HOUSESITE:
339,000
ACRES:
1.22 R1 NS
|GRAND LIST
3,390.00
3,390.00
-----------------------------------------------------------------------------------------------------------------------------------HALL DEBORAH J
HMSTD FILED |
MUNICIPAL
HOMESTEAD
NON-RESIDENTIAL
|LAND
155,500
365 N MAIN ST UNIT 1E
|BUILDING
536,700
|TOTAL REAL
692,200
692,200
W LEBANON NH 03784
|SPEC EXEMPTION
0
TAX MAP:
10-078.100
|
PROP DESC: 10.2 ACRES & DWL
|
911 ADDR: 195 DOUGLAS RD
|
PARCEL ID: 10-078.100 SPAN: 450-142-11913
|
HOUSESITE:
662,800
ACRES:
10.20 R2 T
|GRAND LIST
6,922.00
6,922.00
-----------------------------------------------------------------------------------------------------------------------------------HALL MATTHEW B
HMSTD FILED |
MUNICIPAL
HOMESTEAD
NON-RESIDENTIAL
HALL CHRISTINA B
|LAND
126,900
728 NEW BOSTON RD
|BUILDING
318,300
|TOTAL REAL
445,200
445,200
NORWICH VT 05055
|SPEC EXEMPTION
0
TAX MAP:
05-154.100
|
PROP DESC: 10.1 ACRES & DWL
|
911 ADDR: 728 NEW BOSTON RD
|
PARCEL ID: 05-154.100 SPAN: 450-142-13246
|
HOUSESITE:
421,900
ACRES:
10.10 R2 T
|GRAND LIST
4,452.00
4,452.00
-----------------------------------------------------------------------------------------------------------------------------------HALL MICHAEL W
HMSTD FILED |
MUNICIPAL
HOMESTEAD
NON-RESIDENTIAL
HALL BARBARA B
|LAND
244,000
1005 BRAGG HILL RD
|BUILDING
422,800
|TOTAL REAL
666,800
666,800
NORWICH VT 05055
|SPEC EXEMPTION
0
TAX MAP:
10-004.120
|
PROP DESC: 14.94 ACRES & DWL
|
911 ADDR: 1005 BRAGG HILL RD
|
PARCEL ID: 10-004.120 SPAN: 450-142-11692
|
HOUSESITE:
624,100
ACRES:
14.94 R2 T
|GRAND LIST
6,668.00
6,668.00
-----------------------------------------------------------------------------------------------------------------------------------HALL PHILLIP T JR
HMSTD FILED |
MUNICIPAL
HOMESTEAD
NON-RESIDENTIAL
HALL RUTH A
|LAND
126,900
370 HAWK PINE RD
|BUILDING
266,700
|TOTAL REAL
393,600
393,600
NORWICH VT 05055
|SPEC EXEMPTION
0
TAX MAP:
20-182.000
|
PROP DESC: 1.68 ACRES & DWL
|
911 ADDR: 370 HAWK PINE RD
|
PARCEL ID: 20-182.000 SPAN: 450-142-12561
|
HOUSESITE:
393,600
ACRES:
1.68 R1 T
|GRAND LIST
3,936.00
3,936.00
------------------------------------------------------------------------------------------------------------------------------------
06/12/2015
01:32 pm
Town of Norwich Grand List
Grand List Report (Detail)
By Name For All Parcels In All Districts
Page 118
jbynum
PARCEL INFORMATION
TAXABLE VALUATIONS / EXEMPTIONS / CONTRACTS
-----------------------------------------------------------------------------------------------------------------------------------HALLOCK-BANNIGAN SUZY
HMSTD FILED |
MUNICIPAL
HOMESTEAD
NON-RESIDENTIAL
|LAND
154,900
DONEGAL ON THE STAGE RD
|BUILDING
146,200
|TOTAL REAL
301,100
301,100
SOUTH POMFRET VT 05067
|SPEC EXEMPTION
0
TAX MAP:
11-065.000
|
PROP DESC: 18.9 ACRES & DWL
|
911 ADDR: 66 SHILOH LN
|
PARCEL ID: 11-065.000 SPAN: 450-142-13051
|
HOUSESITE:
247,400
ACRES:
18.90 R2 S
|GRAND LIST
3,011.00
3,011.00
-----------------------------------------------------------------------------------------------------------------------------------HALPIN PATRICK M.
|
MUNICIPAL
HOMESTEAD
NON-RESIDENTIAL
|LAND
98,500
648 TIGERTOWN RD
|BUILDING
217,800
|TOTAL REAL
316,300
316,300
WHITE RIVER JUNCTION VT 05001
|SPEC EXEMPTION
0
TAX MAP:
08-004.500
|
PROP DESC: 10.1 ACRES & DWL
|
911 ADDR: 648 TIGERTOWN RD
|
PARCEL ID: 08-004.500 SPAN: 450-142-12848
|
HOUSESITE:
287,200
ACRES:
10.10 R2 T
|GRAND LIST
3,163.00
3,163.00
-----------------------------------------------------------------------------------------------------------------------------------HAMBLEN WILLIAM
HMSTD FILED |
MUNICIPAL
HOMESTEAD
NON-RESIDENTIAL
HAMBLEN JESSICA
|LAND
129,100
377 WATERMAN HILL
|BUILDING
298,100
|TOTAL REAL
427,200
427,200
NORWICH VT 05055
|SPEC EXEMPTION
0
TAX MAP:
06-057.000
|
PROP DESC: 16 ACRES & DWELLING
|
911 ADDR: 377 WATERMAN HILL RD
|
PARCEL ID: 06-057.000 SPAN: 450-142-13146
|
HOUSESITE:
390,700
ACRES:
16.00 R2 T
|GRAND LIST
4,272.00
4,272.00
-----------------------------------------------------------------------------------------------------------------------------------HAMLIN LOUISE E.
HMSTD FILED |
MUNICIPAL
HOMESTEAD
NON-RESIDENTIAL
LENHART GARY A.
|LAND
124,800
166 BEAVER MEADOW RD
|BUILDING
178,400
|TOTAL REAL
303,200
303,200
NORWICH VT 05055
|SPEC EXEMPTION
0
TAX MAP:
20-111.000
|
PROP DESC: .52 ACRE & DWL
|
911 ADDR: 166 BEAVER MEADOW RD
|
PARCEL ID: 20-111.000 SPAN: 450-142-12209
|
HOUSESITE:
303,200
ACRES:
0.52 R1 T
|GRAND LIST
3,032.00
3,032.00
-----------------------------------------------------------------------------------------------------------------------------------HAMPTON MARION TRUSTEE
|
MUNICIPAL
HOMESTEAD
NON-RESIDENTIAL
HAMPTON REV TRUST MARION MCCOLLOM
|LAND
588,800
16 FRANCIS ST
|BUILDING
9,800
|TOTAL REAL
598,600
598,600
BELMONT MA 02478
|SPEC EXEMPTION
0
TAX MAP:
09-059.000
|
PROP DESC: 200.5 ACRES & CAMP INCL 2 ADDL LOTS
|
911 ADDR: 1476 PODUNK RD
|CURRENT USE
449,300
449,300
PARCEL ID: 09-059.000 SPAN: 450-142-12601
|
HOUSESITE:
67,500
ACRES:
200.50 R2 NS
|GRAND LIST
1,493.00
1,493.00
------------------------------------------------------------------------------------------------------------------------------------
06/12/2015
01:32 pm
Town of Norwich Grand List
Grand List Report (Detail)
By Name For All Parcels In All Districts
Page 119
jbynum
PARCEL INFORMATION
TAXABLE VALUATIONS / EXEMPTIONS / CONTRACTS
-----------------------------------------------------------------------------------------------------------------------------------HANCOCK ESTATE
|
MUNICIPAL
HOMESTEAD
NON-RESIDENTIAL
|LAND
25,000
C/O JOHN HANCOCK
|BUILDING
0
6 CANAL PARK UNIT PH7
|TOTAL REAL
25,000
25,000
CAMBRIDGE MA 02142-2212
|SPEC EXEMPTION
0
TAX MAP:
05-030.000
|
PROP DESC: 13.7 ACRES
|
911 ADDR: STOWELL RD
|
PARCEL ID: 05-030.000 SPAN: 450-142-12409
|
HOUSESITE:
0
ACRES:
13.70 M
NS
|GRAND LIST
250.00
250.00
-----------------------------------------------------------------------------------------------------------------------------------HANDELMAN BOB
HMSTD FILED |
MUNICIPAL
HOMESTEAD
NON-RESIDENTIAL
HANDELMAN BARBARA
|LAND
103,000
24 BULLOCK RD
|BUILDING
244,900
|TOTAL REAL
347,900
347,900
NORWICH VT 05055
|SPEC EXEMPTION
0
TAX MAP:
11-090.000
|
PROP DESC: 6.9 ACRES & DWL
|
911 ADDR: 24 BULLOCK RD
|
PARCEL ID: 11-090.000 SPAN: 450-142-11727
|
HOUSESITE:
332,200
ACRES:
6.90 R2 T
|GRAND LIST
3,479.00
3,479.00
-----------------------------------------------------------------------------------------------------------------------------------HANEY ELIZABETH A
HMSTD FILED |
MUNICIPAL
HOMESTEAD
NON-RESIDENTIAL
|LAND
96,200
75 MCKENNA RD
|BUILDING
236,700
|TOTAL REAL
332,900
332,900
NORWICH VT 05055
|SPEC EXEMPTION
0
TAX MAP:
16-085.000
|
PROP DESC: 2.3 ACRES & DWL
|
911 ADDR: 75 MCKENNA RD
|
PARCEL ID: 16-085.000 SPAN: 450-142-12186
|
HOUSESITE:
331,500
ACRES:
2.30 R1 T
|GRAND LIST
3,329.00
3,329.00
-----------------------------------------------------------------------------------------------------------------------------------HANKEL MARY ANN
HMSTD FILED |
MUNICIPAL
HOMESTEAD
NON-RESIDENTIAL
|LAND
0
40 STARLAKE LN
|BUILDING
107,600
|TOTAL REAL
107,600
107,600
NORWICH VT 05055
|SPEC EXEMPTION
0
TAX MAP:
12-003.212
|
PROP DESC: DWELLING ONLY LOT 12
|
911 ADDR: 40 STARLAKE LN
|
PARCEL ID: 12-003.212 SPAN: 450-142-12699
|
HOUSESITE:
107,600
ACRES:
0.00 R1 T
|GRAND LIST
1,076.00
1,076.00
-----------------------------------------------------------------------------------------------------------------------------------HANLON FRANCIS X
|
MUNICIPAL
HOMESTEAD
NON-RESIDENTIAL
HANLON JOSIE F
|LAND
513,600
398 BRADLEY HILL RD
|BUILDING
938,700
|TOTAL REAL
1452,300
1452,300
NORWICH VT 05055
|SPEC EXEMPTION
0
TAX MAP:
11-042.000
|
PROP DESC: 87.2 AC & DWL INCL 2 ADDL LOTS - 1 LOT N
|
911 ADDR: 398 BRADLEY HILL RD
|CURRENT USE
213,600
213,600
PARCEL ID: 11-042.000 SPAN: 450-142-11647
|
HOUSESITE:
1077,700
ACRES:
87.20 R2 T
|GRAND LIST
12,387.00
12,387.00
------------------------------------------------------------------------------------------------------------------------------------
06/12/2015
01:32 pm
Town of Norwich Grand List
Grand List Report (Detail)
By Name For All Parcels In All Districts
Page 120
jbynum
PARCEL INFORMATION
TAXABLE VALUATIONS / EXEMPTIONS / CONTRACTS
-----------------------------------------------------------------------------------------------------------------------------------HANNAM DEBORAH
|
MUNICIPAL
HOMESTEAD
NON-RESIDENTIAL
|LAND
673,100
PO BOX 401
|BUILDING
1459,300
|TOTAL REAL
2132,400
2132,400
NORWICH VT 05055-0401
|SPEC EXEMPTION
0
TAX MAP:
05-111.000
|
PROP DESC: 234.9 ACRES & DWL
|
911 ADDR: 15 POWERS RD
|CURRENT USE
488,700
488,700
PARCEL ID: 05-111.000 SPAN: 450-142-11655
|
HOUSESITE:
1610,500
ACRES:
234.90 R2 NS
|GRAND LIST
16,437.00
16,437.00
-----------------------------------------------------------------------------------------------------------------------------------HANNAWAY PATRICIA A
|
MUNICIPAL
HOMESTEAD
NON-RESIDENTIAL
|LAND
0
PO BOX 1406
|BUILDING
474,600
|TOTAL REAL
474,600
474,600
NORWICH VT 05055
|SPEC EXEMPTION
0
TAX MAP:
|
PROP DESC: NORWICH GATEWAY CONDOMINIUM - UNIT 1
|
911 ADDR: 235 MAIN ST
|
PARCEL ID: 20-243.101 SPAN: 450-142-13403
|
HOUSESITE:
474,600
ACRES:
0.00 O
T
|GRAND LIST
4,746.00
4,746.00
-----------------------------------------------------------------------------------------------------------------------------------HANOVER CONSUMER COOP SOCIETY
|
MUNICIPAL
HOMESTEAD
NON-RESIDENTIAL
|LAND
232,600
PO BOX 633
|BUILDING
0
|TOTAL REAL
232,600
232,600
HANOVER NH 03755-0633
|SPEC EXEMPTION
0
TAX MAP:
15-072.100
|
PROP DESC: 3.68 ACRES & FARMERS MARKET
|
911 ADDR: 287 US ROUTE 5 SOUTH
|
PARCEL ID: 15-072.100 SPAN: 450-142-12741
|
HOUSESITE:
0
ACRES:
3.68 C
C
|GRAND LIST
2,326.00
2,326.00
-----------------------------------------------------------------------------------------------------------------------------------HARDY DOUGLAS
HMSTD FILED |
MUNICIPAL
HOMESTEAD
NON-RESIDENTIAL
HARDY JANET
|LAND
144,600
133 TUCKER HILL RD
|BUILDING
341,900
|TOTAL REAL
486,500
486,500
NORWICH VT 05055
|SPEC EXEMPTION
0
TAX MAP:
09-040.000
|
PROP DESC: 7.30 ACRES & DWL
|
911 ADDR: 133 TUCKER HILL RD
|
PARCEL ID: 09-040.000 SPAN: 450-142-12881
|
HOUSESITE:
469,600
ACRES:
7.30 R2 T
|GRAND LIST
4,865.00
4,865.00
-----------------------------------------------------------------------------------------------------------------------------------HARDY SUSAN ELIZABETH
HMSTD FILED |
MUNICIPAL
HOMESTEAD
NON-RESIDENTIAL
|LAND
194,200
122 KENDALL STATION RD
|BUILDING
153,600
|TOTAL REAL
347,800
347,800
NORWICH VT 05055
|SPEC EXEMPTION
0
TAX MAP:
12-028.000
|
PROP DESC: 1.53 ACRES & DWL
|
911 ADDR: 122 KENDALL STATION RD
|
PARCEL ID: 12-028.000 SPAN: 450-142-12624
|
HOUSESITE:
347,800
ACRES:
1.53 R1 T
|GRAND LIST
3,478.00
3,478.00
------------------------------------------------------------------------------------------------------------------------------------
06/12/2015
01:32 pm
Town of Norwich Grand List
Grand List Report (Detail)
By Name For All Parcels In All Districts
Page 121
jbynum
PARCEL INFORMATION
TAXABLE VALUATIONS / EXEMPTIONS / CONTRACTS
-----------------------------------------------------------------------------------------------------------------------------------HARDY WILBERT C III
HMSTD FILED |
MUNICIPAL
HOMESTEAD
NON-RESIDENTIAL
HARDY PENNY JG
|LAND
286,900
PO BOX 1253
|BUILDING
208,200
|TOTAL REAL
495,100
495,100
NORWICH VT 05055-1253
|SPEC EXEMPTION
0
TAX MAP:
04-061.100
|VETERAN
40,000
40,000
PROP DESC: 87.13 ACRES AND DWLG
|
911 ADDR: 1511 NEW BOSTON RD
|
PARCEL ID: 04-061.100 SPAN: 450-142-12374
|
HOUSESITE:
280,300
ACRES:
87.13 R2 T
|GRAND LIST
4,551.00
4,551.00
-----------------------------------------------------------------------------------------------------------------------------------HARRIS JOHN H.
HMSTD FILED |
MUNICIPAL
HOMESTEAD
NON-RESIDENTIAL
|LAND
87,400
572 UNION VILLAGE RD
|BUILDING
172,700
|TOTAL REAL
260,100
184,288
75,812
NORWICH VT 05055
|SPEC EXEMPTION
0
0
TAX MAP:
11-127.000
|
PROP DESC: .77 ACRE & DWL
|
911 ADDR: 572 UNION VILLAGE RD
|
PARCEL ID: 11-127.000 SPAN: 450-142-13022
|
HOUSESITE:
184,288
ACRES:
0.77 R1 T
|GRAND LIST
2,601.00
1,842.88
758.12
-----------------------------------------------------------------------------------------------------------------------------------HARVEY MARK
HMSTD FILED |
MUNICIPAL
HOMESTEAD
NON-RESIDENTIAL
HARVEY ANN
|LAND
144,200
28 SHILOH LN
|BUILDING
456,300
|TOTAL REAL
600,500
600,500
NORWICH VT 05055
|SPEC EXEMPTION
0
TAX MAP:
11-066.000
|
PROP DESC: 15 ACRES & DWL
|
911 ADDR: 28 SHILOH LN
|
PARCEL ID: 11-066.000 SPAN: 450-142-13050
|
HOUSESITE:
557,600
ACRES:
15.00 R2 T
|GRAND LIST
6,005.00
6,005.00
-----------------------------------------------------------------------------------------------------------------------------------HARVEY MARK E
HMSTD FILED |
MUNICIPAL
HOMESTEAD
NON-RESIDENTIAL
HARVEY RENEE A
|LAND
94,900
PO BOX 1071
|BUILDING
265,300
|TOTAL REAL
360,200
360,200
NORWICH VT 05055-1071
|SPEC EXEMPTION
0
TAX MAP:
08-006.000
|
PROP DESC: 10 ACRES & DWL
|
911 ADDR: 655 TIGERTOWN RD
|
PARCEL ID: 08-006.000 SPAN: 450-142-12840
|
HOUSESITE:
334,300
ACRES:
10.00 R2 T
|GRAND LIST
3,602.00
3,602.00
-----------------------------------------------------------------------------------------------------------------------------------HARWOOD CATHERINE E TRUSTEE
|
MUNICIPAL
HOMESTEAD
NON-RESIDENTIAL
CATHERINE HARWOOD REV TRUST
|LAND
121,200
PO BOX 754
|BUILDING
204,200
|TOTAL REAL
325,400
325,400
NORWICH VT 05055
|SPEC EXEMPTION
0
TAX MAP:
10-134.000
|
PROP DESC: 8.0 ACRES & DWL
|
911 ADDR: 96 UPPER TURNPIKE RD
|
PARCEL ID: 10-134.000 SPAN: 450-142-13111
|
HOUSESITE:
307,000
ACRES:
8.00 R2 T
|GRAND LIST
3,254.00
3,254.00
------------------------------------------------------------------------------------------------------------------------------------
06/12/2015
01:32 pm
Town of Norwich Grand List
Grand List Report (Detail)
By Name For All Parcels In All Districts
Page 122
jbynum
PARCEL INFORMATION
TAXABLE VALUATIONS / EXEMPTIONS / CONTRACTS
-----------------------------------------------------------------------------------------------------------------------------------HARWOOD CATHERINE E TRUSTEE
HMSTD FILED |
MUNICIPAL
HOMESTEAD
NON-RESIDENTIAL
CATHERINE HARWOOD REV TRUST
|LAND
142,500
PO BOX 754
|BUILDING
559,200
|TOTAL REAL
701,700
701,700
NORWICH VT 05055
|SPEC EXEMPTION
0
TAX MAP:
20-283.000
|
PROP DESC: .47 ACRE AND DWL
|
911 ADDR: 24 ELM ST
|
PARCEL ID: 20-283.000 SPAN: 450-142-11941
|
HOUSESITE:
701,700
ACRES:
0.47 R1 T
|GRAND LIST
7,017.00
7,017.00
-----------------------------------------------------------------------------------------------------------------------------------HARWOOD CATHERINE E TRUSTEE
|
MUNICIPAL
HOMESTEAD
NON-RESIDENTIAL
MARY B THORNE-THOMSEN FIRST PARTY IRREVO
|LAND
176,300
PO BOX 754
|BUILDING
330,100
|TOTAL REAL
506,400
506,400
NORWICH VT 05055-0162
|SPEC EXEMPTION
0
TAX MAP:
20-300.000
|
PROP DESC: 1.28 ACRES & DWL
|
911 ADDR: 23 ELM ST
|
PARCEL ID: 20-300.000 SPAN: 450-142-11940
|
HOUSESITE:
506,400
ACRES:
1.28 R1 T
|GRAND LIST
5,064.00
5,064.00
-----------------------------------------------------------------------------------------------------------------------------------HASKELL ANN E
HMSTD FILED |
MUNICIPAL
HOMESTEAD
NON-RESIDENTIAL
|LAND
168,500
PO BOX 1224
|BUILDING
222,900
|TOTAL REAL
391,400
391,400
NORWICH VT 05055-1224
|SPEC EXEMPTION
0
TAX MAP:
20-029.000
|
PROP DESC: 1.78 ACRES & DWL
|
911 ADDR: 24 PINE TREE RD
|
PARCEL ID: 20-029.000 SPAN: 450-142-12583
|
HOUSESITE:
391,400
ACRES:
1.78 R1 T
|GRAND LIST
3,914.00
3,914.00
-----------------------------------------------------------------------------------------------------------------------------------HASKELL BERNARD
HMSTD FILED |
MUNICIPAL
HOMESTEAD
NON-RESIDENTIAL
HASKELL SANDRA
|LAND
100,500
17 SARGENT ST
|BUILDING
213,000
|TOTAL REAL
313,500
313,500
NORWICH VT 05055
|SPEC EXEMPTION
0
TAX MAP:
20-088.000
|
PROP DESC: .44 ACRE & DWL
|
911 ADDR: 17 SARGENT ST
|
PARCEL ID: 20-088.000 SPAN: 450-142-12786
|
HOUSESITE:
313,500
ACRES:
0.44 R1 T
|GRAND LIST
3,135.00
3,135.00
-----------------------------------------------------------------------------------------------------------------------------------HASTINGS JEFFREY
|
MUNICIPAL
HOMESTEAD
NON-RESIDENTIAL
JOHNSTONE HANS
|LAND
40,900
114 LYME RD
|BUILDING
165,400
|TOTAL REAL
206,300
206,300
HANOVER NH 03755
|SPEC EXEMPTION
0
TAX MAP:
09-003.000
|
PROP DESC: .25 ACRE & DWL
|
911 ADDR: 12 TIGERTOWN RD
|
PARCEL ID: 09-003.000 SPAN: 450-142-12819
|
HOUSESITE:
206,300
ACRES:
0.25 R1 NS
|GRAND LIST
2,063.00
2,063.00
------------------------------------------------------------------------------------------------------------------------------------
06/12/2015
01:32 pm
Town of Norwich Grand List
Grand List Report (Detail)
By Name For All Parcels In All Districts
Page 123
jbynum
PARCEL INFORMATION
TAXABLE VALUATIONS / EXEMPTIONS / CONTRACTS
-----------------------------------------------------------------------------------------------------------------------------------HASTINGS SUSAN
HMSTD FILED |
MUNICIPAL
HOMESTEAD
NON-RESIDENTIAL
|LAND
137,800
PO BOX 808
|BUILDING
398,600
|TOTAL REAL
536,400
417,360
119,040
NORWICH VT 05055
|SPEC EXEMPTION
0
0
TAX MAP:
20-165.000
|
PROP DESC: 4.4 ACRES & DWL/APT
|
911 ADDR: 31 HAST CHARM WY
|
PARCEL ID: 20-165.000 SPAN: 450-142-12151
|
HOUSESITE:
406,560
ACRES:
4.40 R1 T
|GRAND LIST
5,364.00
4,173.60
1,190.40
-----------------------------------------------------------------------------------------------------------------------------------HATHAWAY KARIN A
HMSTD FILED |
MUNICIPAL
HOMESTEAD
NON-RESIDENTIAL
HATHAWAY MICHAEL A.
|LAND
137,300
47 TUCKER HILL RD
|BUILDING
489,300
|TOTAL REAL
626,600
626,600
NORWICH VT 05055-9583
|SPEC EXEMPTION
0
TAX MAP:
09-037.000
|
PROP DESC: 4 ACRES & DWL
|
911 ADDR: 47 TUCKER HILL RD
|
PARCEL ID: 09-037.000 SPAN: 450-142-12876
|
HOUSESITE:
617,600
ACRES:
4.00 R1 T
|GRAND LIST
6,266.00
6,266.00
-----------------------------------------------------------------------------------------------------------------------------------HAYNES BYRON W
HMSTD FILED |
MUNICIPAL
HOMESTEAD
NON-RESIDENTIAL
HAYNES DEBORAH T
|LAND
152,700
11 CLIFF ST
|BUILDING
343,400
|TOTAL REAL
496,100
496,100
NORWICH VT 05055
|SPEC EXEMPTION
0
TAX MAP:
20-175.000
|
PROP DESC: 1.6 ACRES & DWL
|
911 ADDR: 11 CLIFF ST
|
PARCEL ID: 20-175.000 SPAN: 450-142-11876
|
HOUSESITE:
496,100
ACRES:
1.60 R1 T
|GRAND LIST
4,961.00
4,961.00
-----------------------------------------------------------------------------------------------------------------------------------HAYNES ROBERT E
|
MUNICIPAL
HOMESTEAD
NON-RESIDENTIAL
HAYNES BRENDA C.
|LAND
177,900
23 MAIN ST
|BUILDING
507,100
|TOTAL REAL
685,000
685,000
HANOVER NH 03755
|SPEC EXEMPTION
0
TAX MAP:
06-010.400
|
PROP DESC: 12.9 ACRES & DWL
|
911 ADDR: 534 VT ROUTE 132
|
PARCEL ID: 06-010.400 SPAN: 450-142-12775
|
HOUSESITE:
648,000
ACRES:
12.90 R2 T
|GRAND LIST
6,850.00
6,850.00
-----------------------------------------------------------------------------------------------------------------------------------HAYNES ROBERT E JR
|
MUNICIPAL
HOMESTEAD
NON-RESIDENTIAL
|LAND
150,300
23 MAIN ST
|BUILDING
452,800
|TOTAL REAL
603,100
603,100
HANOVER NH 03755
|SPEC EXEMPTION
0
TAX MAP:
20-120.000
|
PROP DESC: .29 ACRE & OFFICE BLDG
|
911 ADDR: 16 BEAVER MEADOW RD
|
PARCEL ID: 20-120.000 SPAN: 450-142-12225
|
HOUSESITE:
0
ACRES:
0.29 C
C
|GRAND LIST
6,031.00
6,031.00
------------------------------------------------------------------------------------------------------------------------------------
06/12/2015
01:32 pm
Town of Norwich Grand List
Grand List Report (Detail)
By Name For All Parcels In All Districts
Page 124
jbynum
PARCEL INFORMATION
TAXABLE VALUATIONS / EXEMPTIONS / CONTRACTS
-----------------------------------------------------------------------------------------------------------------------------------HAZARD ROWLAND G
HMSTD FILED |
MUNICIPAL
HOMESTEAD
NON-RESIDENTIAL
HAZARD LINDA
|LAND
155,900
PO BOX 1068 RD
|BUILDING
185,300
|TOTAL REAL
341,200
341,200
NORWICH VT 05055
|SPEC EXEMPTION
0
TAX MAP:
20-032.000
|
PROP DESC: 2.3 ACRES & DWL
|
911 ADDR: 27 HILLSIDE RD
|
PARCEL ID: 20-032.000 SPAN: 450-142-12055
|
HOUSESITE:
339,800
ACRES:
2.30 R1 T
|GRAND LIST
3,412.00
3,412.00
-----------------------------------------------------------------------------------------------------------------------------------HAZEN VIRGINIA
HMSTD FILED |
MUNICIPAL
HOMESTEAD
NON-RESIDENTIAL
RANSLOW LAWRENCE G
|LAND
226,600
56 MAPLE HILL RD
|BUILDING
205,400
|TOTAL REAL
432,000
432,000
NORWICH VT 05055
|SPEC EXEMPTION
0
TAX MAP:
11-203.000
|
PROP DESC: 35.8 ACRES & DWL
|
911 ADDR: 56 MAPLE HILL RD
|
PARCEL ID: 11-203.000 SPAN: 450-142-12174
|
HOUSESITE:
332,200
ACRES:
35.80 R2 T
|GRAND LIST
4,320.00
4,320.00
-----------------------------------------------------------------------------------------------------------------------------------HAZLETT ELIZABETH
HMSTD FILED |
MUNICIPAL
HOMESTEAD
NON-RESIDENTIAL
|LAND
109,600
37 HAZEN ST
|BUILDING
177,600
|TOTAL REAL
287,200
287,200
NORWICH VT 05055
|SPEC EXEMPTION
0
TAX MAP:
20-196.000
|
PROP DESC: .23 ACRE & DWL
|
911 ADDR: 37 HAZEN ST
|
PARCEL ID: 20-196.000 SPAN: 450-142-12029
|
HOUSESITE:
287,200
ACRES:
0.23 R1 T
|GRAND LIST
2,872.00
2,872.00
-----------------------------------------------------------------------------------------------------------------------------------HEAD DANA K
HMSTD FILED |
MUNICIPAL
HOMESTEAD
NON-RESIDENTIAL
HEAD MARCUS N
|LAND
99,100
255 RIVER RD
|BUILDING
203,600
|TOTAL REAL
302,700
253,036
49,664
NORWICH VT 05055
|SPEC EXEMPTION
0
0
TAX MAP:
16-061.000
|
PROP DESC: 2.95 ACRES & DWL/APT & MH
|
911 ADDR: 255 RIVER RD
|
PARCEL ID: 16-061.000 SPAN: 450-142-12654
|
HOUSESITE:
248,736
ACRES:
2.95 R1 T
|GRAND LIST
3,027.00
2,530.36
496.64
-----------------------------------------------------------------------------------------------------------------------------------HEALEY GENEVIEVE
|
MUNICIPAL
HOMESTEAD
NON-RESIDENTIAL
|LAND
129,000
20 FAIRVIEW TERRACE
|BUILDING
8,100
|TOTAL REAL
137,100
137,100
DERBY CT 06418
|SPEC EXEMPTION
0
TAX MAP:
09-020.000
|
PROP DESC: 28.35 ACRES & CAMP
|
911 ADDR: 191 TIGERTOWN RD
|CURRENT USE
60,148
60,148
PARCEL ID: 09-020.000 SPAN: 450-142-12826
|
HOUSESITE:
73,500
ACRES:
28.35 R2 NS
|GRAND LIST
769.52
769.52
------------------------------------------------------------------------------------------------------------------------------------
06/12/2015
01:32 pm
Town of Norwich Grand List
Grand List Report (Detail)
By Name For All Parcels In All Districts
Page 125
jbynum
PARCEL INFORMATION
TAXABLE VALUATIONS / EXEMPTIONS / CONTRACTS
-----------------------------------------------------------------------------------------------------------------------------------HEDGEPETH RONALD
HMSTD FILED |
MUNICIPAL
HOMESTEAD
NON-RESIDENTIAL
|LAND
178,500
511 VT ROUTE 132
|BUILDING
315,100
|TOTAL REAL
493,600
493,600
NORWICH VT 05055
|SPEC EXEMPTION
0
TAX MAP:
06-011.000
|
PROP DESC: 15 ACRES & DWL
|
911 ADDR: 511 VT ROUTE 132
|
PARCEL ID: 06-011.000 SPAN: 450-142-12776
|
HOUSESITE:
455,000
ACRES:
15.00 R2 T
|GRAND LIST
4,936.00
4,936.00
-----------------------------------------------------------------------------------------------------------------------------------HELBLE JOSEPH J
|
MUNICIPAL
HOMESTEAD
NON-RESIDENTIAL
DABORA REBECCA L
|LAND
213,000
250 BRIGHAM HILL RD
|BUILDING
535,600
|TOTAL REAL
748,600
748,600
NORWICH VT 05055
|SPEC EXEMPTION
0
TAX MAP:
10-048.000
|
PROP DESC: 10.1 ACRES & DWL
|
911 ADDR: 250 BRIGHAM HILL RD
|
PARCEL ID: 10-048.000 SPAN: 450-142-13233
|
HOUSESITE:
719,500
ACRES:
10.10 R2 T
|GRAND LIST
7,486.00
7,486.00
-----------------------------------------------------------------------------------------------------------------------------------HENDERSON CHRISTOPHER A
HMSTD FILED |
MUNICIPAL
HOMESTEAD
NON-RESIDENTIAL
HENDERSON LISA J
|LAND
95,300
PO BOX 861
|BUILDING
345,700
|TOTAL REAL
441,000
441,000
NORWICH VT 05055-0861
|SPEC EXEMPTION
0
TAX MAP:
11-103.200
|
PROP DESC: 2.1 ACRES & DWL
|
911 ADDR: 625 US ROUTE 5 NORTH
|
PARCEL ID: 11-103.200 SPAN: 450-142-12672
|
HOUSESITE:
440,500
ACRES:
2.10 R1 T
|GRAND LIST
4,410.00
4,410.00
-----------------------------------------------------------------------------------------------------------------------------------HENNEBERGER ELISABETH REVOCABLE TT
HMSTD FILED |
MUNICIPAL
HOMESTEAD
NON-RESIDENTIAL
|LAND
168,300
69 OLD COACH RD
|BUILDING
249,700
|TOTAL REAL
418,000
418,000
NORWICH VT 05055
|SPEC EXEMPTION
0
TAX MAP:
11-015.000
|
PROP DESC: 3.66 ACRES & DWL
|
911 ADDR: 69 OLD COACH RD
|
PARCEL ID: 11-015.000 SPAN: 450-142-12484
|
HOUSESITE:
410,500
ACRES:
3.66 R1 T
|GRAND LIST
4,180.00
4,180.00
-----------------------------------------------------------------------------------------------------------------------------------HENRY CHERI F
HMSTD FILED |
MUNICIPAL
HOMESTEAD
NON-RESIDENTIAL
|LAND
105,300
23 BROOKSIDE DR
|BUILDING
207,900
|TOTAL REAL
313,200
313,200
NORWICH VT 05055
|SPEC EXEMPTION
0
TAX MAP:
20-265.000
|
PROP DESC: .55 ACRES & DWL
|
911 ADDR: 23 BROOKSIDE DR
|
PARCEL ID: 20-265.000 SPAN: 450-142-11718
|
HOUSESITE:
313,200
ACRES:
0.55 R1 T
|GRAND LIST
3,132.00
3,132.00
------------------------------------------------------------------------------------------------------------------------------------
06/12/2015
01:32 pm
Town of Norwich Grand List
Grand List Report (Detail)
By Name For All Parcels In All Districts
Page 126
jbynum
PARCEL INFORMATION
TAXABLE VALUATIONS / EXEMPTIONS / CONTRACTS
-----------------------------------------------------------------------------------------------------------------------------------HENRY FORREST L JR
|
MUNICIPAL
HOMESTEAD
NON-RESIDENTIAL
HENRY TERRIE
|LAND
99,500
457 THURSTON HOLLOW
|BUILDING
134,400
|TOTAL REAL
233,900
233,900
CORINTH VT 05039
|SPEC EXEMPTION
0
TAX MAP:
11-152.200
|
PROP DESC: 2.1 ACRES AND DWL
|
911 ADDR: 207 GOODRICH FOUR CORNERS RD
|
PARCEL ID: 11-152.200 SPAN: 450-142-11990
|
HOUSESITE:
233,500
ACRES:
2.10 R1 S
|GRAND LIST
2,339.00
2,339.00
-----------------------------------------------------------------------------------------------------------------------------------HERNDON BROOKE
HMSTD FILED |
MUNICIPAL
HOMESTEAD
NON-RESIDENTIAL
MILLER ERIC
|LAND
66,300
97 MCKENNA RD
|BUILDING
206,000
|TOTAL REAL
272,300
272,300
NORWICH VT 05055
|SPEC EXEMPTION
0
TAX MAP:
16-082.000
|
PROP DESC: .36 ACRE & DWL
|
911 ADDR: 97 MCKENNA RD
|
PARCEL ID: 16-082.000 SPAN: 450-142-12192
|
HOUSESITE:
272,300
ACRES:
0.36 R1 T
|GRAND LIST
2,723.00
2,723.00
-----------------------------------------------------------------------------------------------------------------------------------HERRMANN CHERYL L
HMSTD FILED |
MUNICIPAL
HOMESTEAD
NON-RESIDENTIAL
|LAND
94,900
PO BOX 321
|BUILDING
298,400
|TOTAL REAL
393,300
393,300
NORWICH VT 05055-0321
|SPEC EXEMPTION
0
TAX MAP:
03-043.100
|
PROP DESC: 10.04 ACRES & DWL
|
911 ADDR: 578 CHAPEL HILL RD
|
PARCEL ID: 03-043.100 SPAN: 450-142-11816
|
HOUSESITE:
364,400
ACRES:
10.04 R2 T
|GRAND LIST
3,933.00
3,933.00
-----------------------------------------------------------------------------------------------------------------------------------HERRMANN CHERYL L
|
MUNICIPAL
HOMESTEAD
NON-RESIDENTIAL
STANZEL PETER
|LAND
316,300
PO BOX 321
|BUILDING
0
|TOTAL REAL
316,300
316,300
NORWICH VT 05055-0321
|SPEC EXEMPTION
0
TAX MAP:
03-043.110
|
PROP DESC: 114.96 ACRES
|
911 ADDR: CHAPEL HILL RD
|CURRENT USE
301,600
301,600
PARCEL ID: 03-043.110 SPAN: 450-142-13244
|
HOUSESITE:
0
ACRES:
114.96 M
T
|GRAND LIST
147.00
147.00
-----------------------------------------------------------------------------------------------------------------------------------HERRMANN CHERYL L
|
MUNICIPAL
HOMESTEAD
NON-RESIDENTIAL
STANZEL PETER
|LAND
204,500
PO BOX 321
|BUILDING
292,100
|TOTAL REAL
496,600
496,600
NORWICH VT 05055
|SPEC EXEMPTION
0
TAX MAP:
20-230.100
|
PROP DESC: .48 ACRE & COMM BLDG
|
911 ADDR: 306 MAIN ST
|
PARCEL ID: 20-230.100 SPAN: 450-142-12462
|
HOUSESITE:
0
ACRES:
0.48 C
T
|GRAND LIST
4,966.00
4,966.00
------------------------------------------------------------------------------------------------------------------------------------
06/12/2015
01:32 pm
Town of Norwich Grand List
Grand List Report (Detail)
By Name For All Parcels In All Districts
Page 127
jbynum
PARCEL INFORMATION
TAXABLE VALUATIONS / EXEMPTIONS / CONTRACTS
-----------------------------------------------------------------------------------------------------------------------------------HERSHENSON C DANIEL
HMSTD FILED |
MUNICIPAL
HOMESTEAD
NON-RESIDENTIAL
SCOTT CATHERINE W
|LAND
167,500
PO BOX 10
|BUILDING
405,300
|TOTAL REAL
572,800
572,800
NORWICH VT 05055-0010
|SPEC EXEMPTION
0
TAX MAP:
10-133.100
|
PROP DESC: 10.1 ACRES & DWL
|
911 ADDR: 6 DOUGLAS LN
|
PARCEL ID: 10-133.100 SPAN: 450-142-11912
|
HOUSESITE:
543,700
ACRES:
10.10 R2 T
|GRAND LIST
5,728.00
5,728.00
-----------------------------------------------------------------------------------------------------------------------------------HESS JAMIESON L
|
MUNICIPAL
HOMESTEAD
NON-RESIDENTIAL
|LAND
135,000
PO BOX 89
|BUILDING
361,600
|TOTAL REAL
496,600
496,600
NORWICH VT 05055-0089
|SPEC EXEMPTION
0
TAX MAP:
04-053.000
|
PROP DESC: 11.3 ACRES & DWL
|
911 ADDR: 207 UPPER TURNPIKE RD
|
PARCEL ID: 04-053.000 SPAN: 450-142-13118
|
HOUSESITE:
464,100
ACRES:
11.30 R2 T
|GRAND LIST
4,966.00
4,966.00
-----------------------------------------------------------------------------------------------------------------------------------HIGGINS ARTHUR J
HMSTD FILED |
MUNICIPAL
HOMESTEAD
NON-RESIDENTIAL
HIGGINS MILLICENT A
|LAND
128,400
39 DOUGLAS RIDGE RD
|BUILDING
435,600
|TOTAL REAL
564,000
564,000
NORWICH VT 05055
|SPEC EXEMPTION
0
TAX MAP:
10-150.000
|
PROP DESC: 2.3 ACRES & DWL
|
911 ADDR: 39 DOUGLAS RIDGE
|
PARCEL ID: 10-150.000 SPAN: 450-142-11901
|
HOUSESITE:
562,600
ACRES:
2.30 R1 T
|GRAND LIST
5,640.00
5,640.00
-----------------------------------------------------------------------------------------------------------------------------------HIGGINS JOHN H
HMSTD FILED |
MUNICIPAL
HOMESTEAD
NON-RESIDENTIAL
MCDOWELL SUZANNE M
|LAND
137,000
75 BOB WHITE LN
|BUILDING
381,400
|TOTAL REAL
518,400
518,400
NORWICH VT 05055
|SPEC EXEMPTION
0
TAX MAP:
10-082.000
|
PROP DESC: 12.4 AC & DWL
|
911 ADDR: 75 BOB WHITE LN
|
PARCEL ID: 10-082.000 SPAN: 450-142-12938
|
HOUSESITE:
482,800
ACRES:
12.40 R2 T
|GRAND LIST
5,184.00
5,184.00
-----------------------------------------------------------------------------------------------------------------------------------HINCH DANIEL
HMSTD FILED |
MUNICIPAL
HOMESTEAD
NON-RESIDENTIAL
|LAND
0
P O BOX 1325
|BUILDING
219,400
|TOTAL REAL
219,400
219,400
NORWICH VT 05055
|SPEC EXEMPTION
0
TAX MAP:
15-055.007
|
PROP DESC: 52 NORWICH MEADOWS UNIT 7
|
911 ADDR: 52 NORWICH MEADOWS 7
|
PARCEL ID: 15-055.007 SPAN: 450-142-11743
|
HOUSESITE:
219,400
ACRES:
0.00 O
T
|GRAND LIST
2,194.00
2,194.00
------------------------------------------------------------------------------------------------------------------------------------
06/12/2015
01:32 pm
Town of Norwich Grand List
Grand List Report (Detail)
By Name For All Parcels In All Districts
Page 128
jbynum
PARCEL INFORMATION
TAXABLE VALUATIONS / EXEMPTIONS / CONTRACTS
-----------------------------------------------------------------------------------------------------------------------------------HIRSCH MARIANNE
|
MUNICIPAL
HOMESTEAD
NON-RESIDENTIAL
SPITZER LEO
|LAND
170,000
355 ROUTE 132
|BUILDING
320,400
|TOTAL REAL
490,400
490,400
NORWICH VT 05055
|SPEC EXEMPTION
0
TAX MAP:
06-006.000
|
PROP DESC: 12.66 ACRES & DWL
|
911 ADDR: 335 VT ROUTE 132
|
PARCEL ID: 06-006.000 SPAN: 450-142-12772
|
HOUSESITE:
461,300
ACRES:
12.66 R2 T
|GRAND LIST
4,904.00
4,904.00
-----------------------------------------------------------------------------------------------------------------------------------HIRSCHMAN SCOTT A
HMSTD FILED |
MUNICIPAL
HOMESTEAD
NON-RESIDENTIAL
|LAND
89,600
22 JONES CIR
|BUILDING
328,500
|TOTAL REAL
418,100
418,100
NORWICH VT 05055
|SPEC EXEMPTION
0
TAX MAP:
20-288.000
|
PROP DESC: .19 ACRE & DWL
|
911 ADDR: 22 JONES CIR
|
PARCEL ID: 20-288.000 SPAN: 450-142-12108
|
HOUSESITE:
418,100
ACRES:
0.19 R1 T
|GRAND LIST
4,181.00
4,181.00
-----------------------------------------------------------------------------------------------------------------------------------HLUCHYJ JEFFREY P
HMSTD FILED |
MUNICIPAL
HOMESTEAD
NON-RESIDENTIAL
HLUCHYJ KATIE R
|LAND
158,300
218 UPPER TURNPIKE RD
|BUILDING
472,100
|TOTAL REAL
630,400
630,400
NORWICH VT 05055
|SPEC EXEMPTION
0
TAX MAP:
04-052.000
|
PROP DESC: 13 ACRES & DWL
|
911 ADDR: 218 UPPER TURNPIKE RD
|
PARCEL ID: 04-052.000 SPAN: 450-142-13119
|
HOUSESITE:
593,100
ACRES:
13.00 R2 T
|GRAND LIST
6,304.00
6,304.00
-----------------------------------------------------------------------------------------------------------------------------------HOBSON DAVID
HMSTD FILED |
MUNICIPAL
HOMESTEAD
NON-RESIDENTIAL
HOBSON ELLEN B.H.
|LAND
139,100
47 BLOOD HILL RD
|BUILDING
437,000
|TOTAL REAL
576,100
576,100
NORWICH VT 05055
|SPEC EXEMPTION
0
TAX MAP:
11-133.000
|
PROP DESC: 4.4 ACRES & DWL
|
911 ADDR: 47 BLOOD HILL RD
|
PARCEL ID: 11-133.000 SPAN: 450-142-11621
|
HOUSESITE:
565,300
ACRES:
4.40 R1 T
|GRAND LIST
5,761.00
5,761.00
-----------------------------------------------------------------------------------------------------------------------------------HOBSON DAVID A
|
MUNICIPAL
HOMESTEAD
NON-RESIDENTIAL
HOBSON ELLEN B
|LAND
123,700
47 BLOOD HILL ROAD
|BUILDING
208,500
|TOTAL REAL
332,200
332,200
NORWICH VT 05055
|SPEC EXEMPTION
0
TAX MAP:
04-028.000
|
PROP DESC: 2.5 ACRES & DWL
|
911 ADDR: 1322 TURNPIKE RD
|
PARCEL ID: 04-028.000 SPAN: 450-142-12973
|
HOUSESITE:
330,200
ACRES:
2.50 R1 T
|GRAND LIST
3,322.00
3,322.00
------------------------------------------------------------------------------------------------------------------------------------
06/12/2015
01:32 pm
Town of Norwich Grand List
Grand List Report (Detail)
By Name For All Parcels In All Districts
Page 129
jbynum
PARCEL INFORMATION
TAXABLE VALUATIONS / EXEMPTIONS / CONTRACTS
-----------------------------------------------------------------------------------------------------------------------------------HODDER CORNELIA
HMSTD FILED |
MUNICIPAL
HOMESTEAD
NON-RESIDENTIAL
|LAND
121,000
366 UNION VILLAGE RD
|BUILDING
186,500
|TOTAL REAL
307,500
307,500
NORWICH VT 05055
|SPEC EXEMPTION
0
TAX MAP:
11-140.000
|
PROP DESC: 1.6 ACRES & DWL
|
911 ADDR: 366 UNION VILLAGE RD
|
PARCEL ID: 11-140.000 SPAN: 450-142-13016
|
HOUSESITE:
307,500
ACRES:
1.60 R1 T
|GRAND LIST
3,075.00
3,075.00
-----------------------------------------------------------------------------------------------------------------------------------HOFFMAN DOUGLAS W
|
MUNICIPAL
HOMESTEAD
NON-RESIDENTIAL
|LAND
124,400
9477 WIND DANCER TRAIL RD
|BUILDING
274,400
|TOTAL REAL
398,800
398,800
LAS CRUCES NM 88011-9380
|SPEC EXEMPTION
0
TAX MAP:
14-035.000
|
PROP DESC: 7.51 ACRES & DWL
|
911 ADDR: 265 JOSHUA RD
|
PARCEL ID: 14-035.000 SPAN: 450-142-12803
|
HOUSESITE:
377,300
ACRES:
7.51 R2 NS
|GRAND LIST
3,988.00
3,988.00
-----------------------------------------------------------------------------------------------------------------------------------HOGGSON NANCY B ESTATE
|
MUNICIPAL
HOMESTEAD
NON-RESIDENTIAL
|LAND
125,000
128 TURNPIKE RD
|BUILDING
321,900
|TOTAL REAL
446,900
446,900
NORWICH VT 05055
|SPEC EXEMPTION
0
TAX MAP:
10-196.000
|
PROP DESC: 1 ACRE & DWL
|
911 ADDR: 128 TURNPIKE RD
|
PARCEL ID: 10-196.000 SPAN: 450-142-12901
|
HOUSESITE:
446,900
ACRES:
1.00 R1 T
|GRAND LIST
4,469.00
4,469.00
-----------------------------------------------------------------------------------------------------------------------------------HOISINGTON HARLAND
HMSTD FILED |
MUNICIPAL
HOMESTEAD
NON-RESIDENTIAL
HOISINGTON HEATHER
|LAND
142,400
190 NEW BOSTON RD
|BUILDING
192,300
|TOTAL REAL
334,700
334,700
NORWICH VT 05055
|SPEC EXEMPTION
0
TAX MAP:
10-187.000
|
PROP DESC: 6.9 ACRES & DWL
|
911 ADDR: 190 NEW BOSTON RD
|
PARCEL ID: 10-187.000 SPAN: 450-142-12275
|
HOUSESITE:
315,100
ACRES:
6.90 R2 T
|GRAND LIST
3,347.00
3,347.00
-----------------------------------------------------------------------------------------------------------------------------------HOISINGTON PAUL
|
MUNICIPAL
HOMESTEAD
NON-RESIDENTIAL
|LAND
136,900
1 MINK DR
|BUILDING
266,700
|TOTAL REAL
403,600
403,600
HANOVER NH 03755
|SPEC EXEMPTION
0
TAX MAP:
20-070.000
|
PROP DESC: .75 ACRE & DWL
|
911 ADDR: 179 BEAVER MEADOW RD
|
PARCEL ID: 20-070.000 SPAN: 450-142-12211
|
HOUSESITE:
403,600
ACRES:
0.75 R1 NS
|GRAND LIST
4,036.00
4,036.00
------------------------------------------------------------------------------------------------------------------------------------
06/12/2015
01:32 pm
Town of Norwich Grand List
Grand List Report (Detail)
By Name For All Parcels In All Districts
Page 130
jbynum
PARCEL INFORMATION
TAXABLE VALUATIONS / EXEMPTIONS / CONTRACTS
-----------------------------------------------------------------------------------------------------------------------------------HOLDING WENDY S
|
MUNICIPAL
HOMESTEAD
NON-RESIDENTIAL
MACINDOE LINDSAY A
|LAND
148,100
11 SALEM ST
|BUILDING
0
|TOTAL REAL
148,100
148,100
CAMBRIDGE MA 02139
|SPEC EXEMPTION
0
TAX MAP:
05-148.100
|
PROP DESC: 11.95 ACRES
|
911 ADDR: BARBARA LEE LN
|
PARCEL ID: 05-148.100 SPAN: 450-142-13358
|
HOUSESITE:
0
ACRES:
11.95 M
NS
|GRAND LIST
1,481.00
1,481.00
-----------------------------------------------------------------------------------------------------------------------------------HOLLAND MICHAEL
HMSTD FILED |
MUNICIPAL
HOMESTEAD
NON-RESIDENTIAL
|LAND
190,000
PO BOX 662
|BUILDING
280,300
|TOTAL REAL
470,300
470,300
NORWICH VT 05055
|SPEC EXEMPTION
0
TAX MAP:
20-007.000
|
PROP DESC: 2.5 ACRES & DWL
|
911 ADDR: 121 HICKORY RIDGE
|
PARCEL ID: 20-007.000 SPAN: 450-142-12037
|
HOUSESITE:
469,200
ACRES:
2.50 R1 T
|GRAND LIST
4,703.00
4,703.00
-----------------------------------------------------------------------------------------------------------------------------------HOLLERAN ALEXA R
HMSTD FILED |
MUNICIPAL
HOMESTEAD
NON-RESIDENTIAL
PETRELLA BRENDA L
|LAND
210,200
55 WALLACE FARM RD
|BUILDING
353,600
|TOTAL REAL
563,800
563,800
NORWICH VT 05055
|SPEC EXEMPTION
0
TAX MAP:
03-016.000
|
PROP DESC: 33.5 ACRES & DWL
|
911 ADDR: 55 WALLACE FARM RD
|CURRENT USE
66,400
66,400
PARCEL ID: 03-016.000 SPAN: 450-142-12263
|
HOUSESITE:
479,100
ACRES:
33.50 R2 T
|GRAND LIST
4,974.00
4,974.00
-----------------------------------------------------------------------------------------------------------------------------------HOLLEY ROBERT D REV TRUST
|
MUNICIPAL
HOMESTEAD
NON-RESIDENTIAL
HOLLEY LISA J REV TRUST
|LAND
123,400
8 FALCON LA
|BUILDING
191,100
|TOTAL REAL
314,500
314,500
NORWICH VT 05055
|SPEC EXEMPTION
0
TAX MAP:
11-176.000
|
PROP DESC: 1.21 ACRES & DWL
|
911 ADDR: 8 FALCON LN
|
PARCEL ID: 11-176.000 SPAN: 450-142-12538
|
HOUSESITE:
314,500
ACRES:
1.21 R1 T
|GRAND LIST
3,145.00
3,145.00
-----------------------------------------------------------------------------------------------------------------------------------HOLMES LAURENCE B.
HMSTD FILED |
MUNICIPAL
HOMESTEAD
NON-RESIDENTIAL
HOLMES JEANNE E.
|LAND
159,500
7 RIVER EDGE RD
|BUILDING
46,200
|TOTAL REAL
205,700
205,700
NORWICH VT 05055
|SPEC EXEMPTION
0
TAX MAP:
12-035.000
|
PROP DESC: .4 ACRE & MOBILE HOME
|
911 ADDR: 7 RIVER EDGE LN
|
PARCEL ID: 12-035.000 SPAN: 450-142-12617
|
HOUSESITE:
205,700
ACRES:
0.40 MHL T
|GRAND LIST
2,057.00
2,057.00
------------------------------------------------------------------------------------------------------------------------------------
06/12/2015
01:32 pm
Town of Norwich Grand List
Grand List Report (Detail)
By Name For All Parcels In All Districts
Page 131
jbynum
PARCEL INFORMATION
TAXABLE VALUATIONS / EXEMPTIONS / CONTRACTS
-----------------------------------------------------------------------------------------------------------------------------------HOLZBERGER KIMBERLY J TRUSTEE
HMSTD FILED |
MUNICIPAL
HOMESTEAD
NON-RESIDENTIAL
|LAND
364,100
835 BRAGG HILL RD
|BUILDING
686,700
|TOTAL REAL
1050,800
1050,800
NORWICH VT 05055
|SPEC EXEMPTION
0
TAX MAP:
10-004.200
|
PROP DESC: 57.2 ACRES & DWL; ADDL LOT/CONSV RESTR
|
911 ADDR: 835 BRAGG HILL RD
|
PARCEL ID: 10-004.200 SPAN: 450-142-11688
|
HOUSESITE:
887,600
ACRES:
59.20 R2 T
|GRAND LIST
10,508.00
10,508.00
-----------------------------------------------------------------------------------------------------------------------------------HOOD DAVID E
HMSTD FILED |
MUNICIPAL
HOMESTEAD
NON-RESIDENTIAL
|LAND
125,900
PO BOX 96
|BUILDING
128,800
|TOTAL REAL
254,700
254,700
EAST THETFORD VT 05043-0096
|SPEC EXEMPTION
0
TAX MAP:
06-040.000
|
PROP DESC: 10.1 ACRES & DWL
|
911 ADDR: 344 HOGBACK RD
|
PARCEL ID: 06-040.000 SPAN: 450-142-12047
|
HOUSESITE:
231,400
ACRES:
10.10 R2 T
|GRAND LIST
2,547.00
2,547.00
-----------------------------------------------------------------------------------------------------------------------------------HOOPER GOETINCK MICHAEL
HMSTD FILED |
MUNICIPAL
HOMESTEAD
NON-RESIDENTIAL
|LAND
120,700
31 BROOKSIDE DR
|BUILDING
147,700
|TOTAL REAL
268,400
268,400
NORWICH VT 05055
|SPEC EXEMPTION
0
TAX MAP:
20-264.000
|
PROP DESC: 0.65 ACRES & DWL
|
911 ADDR: 31 BROOKSIDE DR
|
PARCEL ID: 20-264.000 SPAN: 450-142-11719
|
HOUSESITE:
268,400
ACRES:
0.65 R1 T
|GRAND LIST
2,684.00
2,684.00
-----------------------------------------------------------------------------------------------------------------------------------HOOPER REBECCA J
HMSTD FILED |
MUNICIPAL
HOMESTEAD
NON-RESIDENTIAL
|LAND
148,700
PO BOX 850
|BUILDING
421,800
|TOTAL REAL
570,500
570,500
NORWICH VT 05055
|SPEC EXEMPTION
0
TAX MAP:
20-056.001
|
PROP DESC: 1.78 AC & DWLG
|
911 ADDR: 24 SIMPSON RD 1
|
PARCEL ID: 20-056.001 SPAN: 450-142-11661
|
HOUSESITE:
570,500
ACRES:
1.78 R1 T
|GRAND LIST
5,705.00
5,705.00
-----------------------------------------------------------------------------------------------------------------------------------HOPEMAN RILEY A
HMSTD FILED |
MUNICIPAL
HOMESTEAD
NON-RESIDENTIAL
HOPEMAN CAITLIN P
|LAND
142,500
54 CARPENTER STREET
|BUILDING
172,600
|TOTAL REAL
315,100
315,100
NORWICH VT 05055
|SPEC EXEMPTION
0
TAX MAP:
16-038.000
|
PROP DESC: .47 ACRE & DWL
|
911 ADDR: 54 CARPENTER ST
|
PARCEL ID: 16-038.000 SPAN: 450-142-11792
|
HOUSESITE:
315,100
ACRES:
0.47 R1 T
|GRAND LIST
3,151.00
3,151.00
------------------------------------------------------------------------------------------------------------------------------------
06/12/2015
01:32 pm
Town of Norwich Grand List
Grand List Report (Detail)
By Name For All Parcels In All Districts
Page 132
jbynum
PARCEL INFORMATION
TAXABLE VALUATIONS / EXEMPTIONS / CONTRACTS
-----------------------------------------------------------------------------------------------------------------------------------HOPKINS ALISON W
HMSTD FILED |
MUNICIPAL
HOMESTEAD
NON-RESIDENTIAL
|LAND
0
73 STARLAKE LN
|BUILDING
105,900
|TOTAL REAL
105,900
105,900
NORWICH VT 05055
|SPEC EXEMPTION
0
TAX MAP:
12-003.290
|
PROP DESC: DWELLING ONLY LOT 9
|
911 ADDR: 73 STARLAKE LN
|
PARCEL ID: 12-003.290 SPAN: 450-142-12696
|
HOUSESITE:
105,900
ACRES:
0.00 R1 T
|GRAND LIST
1,059.00
1,059.00
-----------------------------------------------------------------------------------------------------------------------------------HOPKINS SAMUEL P
HMSTD FILED |
MUNICIPAL
HOMESTEAD
NON-RESIDENTIAL
HOPKINS JENNIFER S
|LAND
142,500
47 CARPENTER ST
|BUILDING
199,300
|TOTAL REAL
341,800
341,800
NORWICH VT 05055
|SPEC EXEMPTION
0
TAX MAP:
20-218.000
|
PROP DESC: 0.47 ACRE & DWL
|
911 ADDR: 47 CARPENTER ST
|
PARCEL ID: 20-218.000 SPAN: 450-142-11790
|
HOUSESITE:
341,800
ACRES:
0.47 R1 T
|GRAND LIST
3,418.00
3,418.00
-----------------------------------------------------------------------------------------------------------------------------------HORAN DAVID E
HMSTD FILED |
MUNICIPAL
HOMESTEAD
NON-RESIDENTIAL
HORAN JOSEPHINE C
|LAND
556,400
24 STEVENS RD
|BUILDING
250,900
|TOTAL REAL
807,300
769,800
37,500
EAST THETFORD VT 05043-9640
|SPEC EXEMPTION
0
0
TAX MAP:
06-065.000
|
PROP DESC: 182 ACRES & DWL
|
911 ADDR: 24 STEVENS RD
|CURRENT USE
437,400
399,900
37,500
PARCEL ID: 06-065.000 SPAN: 450-142-12728
|
HOUSESITE:
324,400
ACRES:
182.00 F
T
|GRAND LIST
3,699.00
3,699.00
0.00
-----------------------------------------------------------------------------------------------------------------------------------HOROWITZ MIRIAM
HMSTD FILED |
MUNICIPAL
HOMESTEAD
NON-RESIDENTIAL
SCAVONE WILLIAM
|LAND
198,700
1655 TURNPIKE RD
|BUILDING
210,300
|TOTAL REAL
409,000
409,000
NORWICH VT 05055
|SPEC EXEMPTION
0
TAX MAP:
04-013.000
|
PROP DESC: 50.5 ACRES & DWLG & 2 ADDL LOTS (NV)
|
911 ADDR: 1655 TURNPIKE RD
|CURRENT USE
103,300
103,300
PARCEL ID: 04-013.000 SPAN: 450-142-12995
|
HOUSESITE:
297,300
ACRES:
50.50 R2 T
|GRAND LIST
3,057.00
3,057.00
-----------------------------------------------------------------------------------------------------------------------------------HOU HUAGANG
HMSTD FILED |
MUNICIPAL
HOMESTEAD
NON-RESIDENTIAL
DONG RUHONG
|LAND
81,000
185 CHAPEL HILL RD
|BUILDING
195,000
|TOTAL REAL
276,000
276,000
NORWICH VT 05055
|SPEC EXEMPTION
0
TAX MAP:
03-006.000
|
PROP DESC: 4.0 ACRES & DWL
|
911 ADDR: 185 CHAPEL HILL RD
|
PARCEL ID: 03-006.000 SPAN: 450-142-11824
|
HOUSESITE:
268,800
ACRES:
4.00 R1 T
|GRAND LIST
2,760.00
2,760.00
------------------------------------------------------------------------------------------------------------------------------------
06/12/2015
01:32 pm
Town of Norwich Grand List
Grand List Report (Detail)
By Name For All Parcels In All Districts
Page 133
jbynum
PARCEL INFORMATION
TAXABLE VALUATIONS / EXEMPTIONS / CONTRACTS
-----------------------------------------------------------------------------------------------------------------------------------HOWES ROGER
|
MUNICIPAL
HOMESTEAD
NON-RESIDENTIAL
HOWES PAULA
|LAND
131,900
773 TURNPIKE RD
|BUILDING
21,400
|TOTAL REAL
153,300
153,300
NORWICH VT 05055
|SPEC EXEMPTION
0
TAX MAP:
10-080.000
|
PROP DESC: 4.4 ACRES & DWL
|
911 ADDR: 773 TURNPIKE RD
|
PARCEL ID: 10-080.000 SPAN: 450-142-12936
|
HOUSESITE:
144,700
ACRES:
4.40 R1 T
|GRAND LIST
1,533.00
1,533.00
-----------------------------------------------------------------------------------------------------------------------------------HOYT KATHLEEN
HMSTD FILED |
MUNICIPAL
HOMESTEAD
NON-RESIDENTIAL
|LAND
195,600
PO BOX 775
|BUILDING
229,600
|TOTAL REAL
425,200
425,200
NORWICH VT 05055-0775
|SPEC EXEMPTION
0
TAX MAP:
05-099.000
|
PROP DESC: 24.4 ACRES & DWL
|
911 ADDR: 246 PATTRELL RD
|
PARCEL ID: 05-099.000 SPAN: 450-142-12508
|
HOUSESITE:
356,500
ACRES:
24.40 R2 T
|GRAND LIST
4,252.00
4,252.00
-----------------------------------------------------------------------------------------------------------------------------------HUANG YINA H
HMSTD FILED |
MUNICIPAL
HOMESTEAD
NON-RESIDENTIAL
HUANG JUN S
|LAND
99,800
70 HAWK PINE RD
|BUILDING
257,800
|TOTAL REAL
357,600
357,600
NORWICH VT 05055
|SPEC EXEMPTION
0
TAX MAP:
11-183.000
|
PROP DESC: 1.17 ACRES & DWL
|
911 ADDR: 70 HAWK PINE RD
|
PARCEL ID: 11-183.000 SPAN: 450-142-12525
|
HOUSESITE:
357,600
ACRES:
1.17 R1 T
|GRAND LIST
3,576.00
3,576.00
-----------------------------------------------------------------------------------------------------------------------------------HUBBARD DAVID W
HMSTD FILED |
MUNICIPAL
HOMESTEAD
NON-RESIDENTIAL
HUBBARD REGINA A
|LAND
117,100
687 CHAPEL HILL RD
|BUILDING
320,500
|TOTAL REAL
437,600
437,600
NORWICH VT 05055
|SPEC EXEMPTION
0
TAX MAP:
03-039.000
|
PROP DESC: 17 ACRES & DWL
|
911 ADDR: 687 CHAPEL HILL RD
|CURRENT USE
42,100
42,100
PARCEL ID: 03-039.000 SPAN: 450-142-11817
|
HOUSESITE:
393,000
ACRES:
17.00 R2 T
|GRAND LIST
3,955.00
3,955.00
-----------------------------------------------------------------------------------------------------------------------------------HUBBELL EDITH LARKIN TRUSTEE
HMSTD FILED |
MUNICIPAL
HOMESTEAD
NON-RESIDENTIAL
|LAND
216,100
452 BRADLEY HILL RD
|BUILDING
489,900
|TOTAL REAL
706,000
706,000
NORWICH VT 05055
|SPEC EXEMPTION
0
TAX MAP:
05-118.000
|
PROP DESC: 25.1 ACRES & DWL
|
911 ADDR: 452 BRADLEY HILL RD
|
PARCEL ID: 05-118.000 SPAN: 450-142-11649
|
HOUSESITE:
635,300
ACRES:
25.10 R2 T
|GRAND LIST
7,060.00
7,060.00
------------------------------------------------------------------------------------------------------------------------------------
06/12/2015
01:32 pm
Town of Norwich Grand List
Grand List Report (Detail)
By Name For All Parcels In All Districts
Page 134
jbynum
PARCEL INFORMATION
TAXABLE VALUATIONS / EXEMPTIONS / CONTRACTS
-----------------------------------------------------------------------------------------------------------------------------------HUIZENGA HUGH
|
MUNICIPAL
HOMESTEAD
NON-RESIDENTIAL
FISH VICTORIA
|LAND
124,600
224 WILLEY HILL RD
|BUILDING
322,400
|TOTAL REAL
447,000
447,000
NORWICH VT 05055
|SPEC EXEMPTION
0
TAX MAP:
11-188.000
|
PROP DESC: 1.17 ACRES & DWL
|
911 ADDR: 224 WILLEY HILL RD
|
PARCEL ID: 11-188.000 SPAN: 450-142-12518
|
HOUSESITE:
447,000
ACRES:
1.17 R1 T
|GRAND LIST
4,470.00
4,470.00
-----------------------------------------------------------------------------------------------------------------------------------HUKE ELEANOR H TRUSTEE
HMSTD FILED |
MUNICIPAL
HOMESTEAD
NON-RESIDENTIAL
|LAND
127,700
PO BOX 98
|BUILDING
155,500
|TOTAL REAL
283,200
283,200
NORWICH VT 05055-0098
|SPEC EXEMPTION
0
TAX MAP:
10-203.000
|
PROP DESC: 1.6 ACRES & DWL
|
911 ADDR: 38 PARTRIDGE HILL
|
PARCEL ID: 10-203.000 SPAN: 450-142-12488
|
HOUSESITE:
283,200
ACRES:
1.60 R1 T
|GRAND LIST
2,832.00
2,832.00
-----------------------------------------------------------------------------------------------------------------------------------HULLEBERG THOMAS
|
MUNICIPAL
HOMESTEAD
NON-RESIDENTIAL
GRAHAM KRISTIN R
|LAND
430,100
694 GOODRICH FOUR CORNERS RD
|BUILDING
1747,100
|TOTAL REAL
2177,200
2177,200
NORWICH VT 05055
|SPEC EXEMPTION
0
TAX MAP:
11-068.000
|
PROP DESC: 83.54 ACRES & 2 DWLS AND ADDL LOT
|
911 ADDR: 694 GOODRICH FOUR CORNERS RD
|CURRENT USE
209,000
209,000
PARCEL ID: 11-068.000 SPAN: 450-142-12012
|
HOUSESITE:
1410,500
ACRES:
83.54 R2 T
|GRAND LIST
19,682.00
19,682.00
-----------------------------------------------------------------------------------------------------------------------------------HUNT JAMES R
HMSTD FILED |
MUNICIPAL
HOMESTEAD
NON-RESIDENTIAL
|LAND
67,000
333 TOWN FARM RD
|BUILDING
60,500
|TOTAL REAL
127,500
127,500
NORWICH VT 05055
|SPEC EXEMPTION
0
TAX MAP:
11-077.300
|
PROP DESC: 2.17 ACRES AND HOUSE
|
911 ADDR: 333 TOWN FARM RD
|
PARCEL ID: 11-077.300 SPAN: 450-142-13184
|
HOUSESITE:
126,700
ACRES:
2.17 R1 T
|GRAND LIST
1,275.00
1,275.00
-----------------------------------------------------------------------------------------------------------------------------------HUNTON GEORGEANA
HMSTD FILED |
MUNICIPAL
HOMESTEAD
NON-RESIDENTIAL
|LAND
97,000
90 HUNTLEY ST
|BUILDING
223,400
|TOTAL REAL
320,400
320,400
NORWICH VT 05055
|SPEC EXEMPTION
0
TAX MAP:
20-083.000
|
PROP DESC: .36 ACRE & DWL
|
911 ADDR: 90 HUNTLEY ST
|
PARCEL ID: 20-083.000 SPAN: 450-142-12097
|
HOUSESITE:
320,400
ACRES:
0.36 R1 T
|GRAND LIST
3,204.00
3,204.00
------------------------------------------------------------------------------------------------------------------------------------
06/12/2015
01:32 pm
Town of Norwich Grand List
Grand List Report (Detail)
By Name For All Parcels In All Districts
Page 135
jbynum
PARCEL INFORMATION
TAXABLE VALUATIONS / EXEMPTIONS / CONTRACTS
-----------------------------------------------------------------------------------------------------------------------------------HUOT LAWRENCE L
|
MUNICIPAL
HOMESTEAD
NON-RESIDENTIAL
|LAND
0
352 EAST MOUNTAIN ROAD
|BUILDING
472,700
|TOTAL REAL
472,700
472,700
NEWPORT NH 03773
|SPEC EXEMPTION
0
TAX MAP:
|
PROP DESC: NORWICH GATEWAY CONDOMINIUM - UNIT 4
|
911 ADDR: 235 MAIN ST
|
PARCEL ID: 20-243.104 SPAN: 450-142-13406
|
HOUSESITE:
472,700
ACRES:
0.00 O
NS
|GRAND LIST
4,727.00
4,727.00
-----------------------------------------------------------------------------------------------------------------------------------HUSSEY P. & W. REV LIV TRUST
|
MUNICIPAL
HOMESTEAD
NON-RESIDENTIAL
|LAND
247,200
2407 EAST VALLEY STREET
|BUILDING
440,200
|TOTAL REAL
687,400
687,400
SEATTLE WA 98112
|SPEC EXEMPTION
0
TAX MAP:
10-096.000
|
PROP DESC: 6.81 ACRES & DWL & APT & ADDL LOT 10-096
|
911 ADDR: 15 UPPER TURNPIKE RD
|
PARCEL ID: 10-096.000 SPAN: 450-142-13106
|
HOUSESITE:
521,200
ACRES:
6.81 R2 NS
|GRAND LIST
6,874.00
6,874.00
-----------------------------------------------------------------------------------------------------------------------------------HUTCHINS LIVING TRUST
HMSTD FILED |
MUNICIPAL
HOMESTEAD
NON-RESIDENTIAL
HUTCHINS, MARY H & MARY E TRUS TEES
|LAND
110,300
PO BOX 127
|BUILDING
199,900
|TOTAL REAL
310,200
270,880
39,320
NORWICH VT 05055-0127
|SPEC EXEMPTION
0
0
TAX MAP:
11-053.100
|
PROP DESC: 4.4 ACRES & DWL/APT
|
911 ADDR: 937 UNION VILLAGE RD
|
PARCEL ID: 11-053.100 SPAN: 450-142-13042
|
HOUSESITE:
260,080
ACRES:
4.40 R1 T
|GRAND LIST
3,102.00
2,708.80
393.20
-----------------------------------------------------------------------------------------------------------------------------------HUTCHISON M LEE BALLOU
|
MUNICIPAL
HOMESTEAD
NON-RESIDENTIAL
|LAND
129,800
25 HOLDEN LAND
|BUILDING
0
|TOTAL REAL
129,800
129,800
MADISON NJ 07940
|SPEC EXEMPTION
0
TAX MAP:
11-067.200
|
PROP DESC: 14.31 ACRES ON UNION VILLAGE ROAD
|
911 ADDR: UNION VILLAGE RD
|
PARCEL ID: 11-067.200 SPAN: 450-142-13046
|
HOUSESITE:
0
ACRES:
14.31 M
NS
|GRAND LIST
1,298.00
1,298.00
-----------------------------------------------------------------------------------------------------------------------------------HYBELS RALPH C
HMSTD FILED |
MUNICIPAL
HOMESTEAD
NON-RESIDENTIAL
HYBELS CATHERINE S
|LAND
92,000
1110 NEW BOSTON ROAD
|BUILDING
303,300
|TOTAL REAL
395,300
395,300
NORWICH VT 05055
|SPEC EXEMPTION
0
TAX MAP:
05-127.000
|
PROP DESC: .77 ACRE & DWL
|
911 ADDR: 1110 NEW BOSTON RD
|
PARCEL ID: 05-127.000 SPAN: 450-142-12351
|
HOUSESITE:
395,300
ACRES:
0.77 R1 T
|GRAND LIST
3,953.00
3,953.00
------------------------------------------------------------------------------------------------------------------------------------
06/12/2015
01:32 pm
Town of Norwich Grand List
Grand List Report (Detail)
By Name For All Parcels In All Districts
Page 136
jbynum
PARCEL INFORMATION
TAXABLE VALUATIONS / EXEMPTIONS / CONTRACTS
-----------------------------------------------------------------------------------------------------------------------------------IRELAND GERALD R
HMSTD FILED |
MUNICIPAL
HOMESTEAD
NON-RESIDENTIAL
IRELAND SUZANNE D
|LAND
130,600
19 CHURCH STREET
|BUILDING
259,000
|TOTAL REAL
389,600
389,600
NORWICH VT 05055
|SPEC EXEMPTION
0
TAX MAP:
20-232.000
|
PROP DESC: .63 ACRE & DWL
|
911 ADDR: 19 CHURCH ST
|
PARCEL ID: 20-232.000 SPAN: 450-142-11842
|
HOUSESITE:
389,600
ACRES:
0.63 R1 T
|GRAND LIST
3,896.00
3,896.00
-----------------------------------------------------------------------------------------------------------------------------------IRELAND PETER M.
|
MUNICIPAL
HOMESTEAD
NON-RESIDENTIAL
IRELAND DOROTHY E.
|LAND
117,900
185 SHORE ROAD
|BUILDING
215,700
|TOTAL REAL
333,600
333,600
BURLINGTON VT 05408
|SPEC EXEMPTION
0
TAX MAP:
15-005.000
|
PROP DESC: 5.3 ACRES & DWL/WITH APT
|
911 ADDR: 730 NEWTON LN
|
PARCEL ID: 15-005.000 SPAN: 450-142-12797
|
HOUSESITE:
319,100
ACRES:
5.30 R1 S
|GRAND LIST
3,336.00
3,336.00
-----------------------------------------------------------------------------------------------------------------------------------IRELAND SUSAN DANA
|
MUNICIPAL
HOMESTEAD
NON-RESIDENTIAL
IRELAND GERALD R
|LAND
188,600
19 CHURCH STREET
|BUILDING
225,000
|TOTAL REAL
413,600
413,600
NORWICH VT 05055
|SPEC EXEMPTION
0
TAX MAP:
04-026.000
|
PROP DESC: 25 ACRES & DWL
|
911 ADDR: 44 BRAMBLE LN
|
PARCEL ID: 04-026.000 SPAN: 450-142-12975
|
HOUSESITE:
350,300
ACRES:
25.00 R2 T
|GRAND LIST
4,136.00
4,136.00
-----------------------------------------------------------------------------------------------------------------------------------IRWIN REBECCA
HMSTD FILED |
MUNICIPAL
HOMESTEAD
NON-RESIDENTIAL
|LAND
100,600
852 NEW BOSTON RD
|BUILDING
201,900
|TOTAL REAL
302,500
302,500
NORWICH VT 05055
|SPEC EXEMPTION
0
TAX MAP:
05-145.000
|
PROP DESC: 2.4 ACRES & DWL
|
911 ADDR: 852 NEW BOSTON RD
|
PARCEL ID: 05-145.000 SPAN: 450-142-12322
|
HOUSESITE:
300,900
ACRES:
2.40 R1 T
|GRAND LIST
3,025.00
3,025.00
-----------------------------------------------------------------------------------------------------------------------------------IVERSON DOUGLAS J.
HMSTD FILED |
MUNICIPAL
HOMESTEAD
NON-RESIDENTIAL
|LAND
114,300
24 HAZEN ST
|BUILDING
165,600
|TOTAL REAL
279,900
197,100
82,800
NORWICH VT 05055
|SPEC EXEMPTION
0
0
TAX MAP:
20-189.010
|
PROP DESC: 0.32 ACRE & DUPLEX
|
911 ADDR: 24 HAZEN ST
|
PARCEL ID: 20-189.010 SPAN: 450-142-12026
|
HOUSESITE:
197,100
ACRES:
0.32 R1 T
|GRAND LIST
2,799.00
1,971.00
828.00
------------------------------------------------------------------------------------------------------------------------------------
06/12/2015
01:32 pm
Town of Norwich Grand List
Grand List Report (Detail)
By Name For All Parcels In All Districts
Page 137
jbynum
PARCEL INFORMATION
TAXABLE VALUATIONS / EXEMPTIONS / CONTRACTS
-----------------------------------------------------------------------------------------------------------------------------------JABBS THEODORE H
HMSTD FILED |
MUNICIPAL
HOMESTEAD
NON-RESIDENTIAL
JABBS RUTH P.
|LAND
177,100
451 MAIN RD
|BUILDING
400,100
|TOTAL REAL
577,200
577,200
NORWICH VT 05055
|SPEC EXEMPTION
0
TAX MAP:
20-137.000
|
PROP DESC: 4 ACRES & DWL
|
911 ADDR: 451 MAIN ST
|
PARCEL ID: 20-137.000 SPAN: 450-142-12441
|
HOUSESITE:
570,000
ACRES:
4.00 R1 T
|GRAND LIST
5,772.00
5,772.00
-----------------------------------------------------------------------------------------------------------------------------------JACKSON JOANNA R.
|
MUNICIPAL
HOMESTEAD
NON-RESIDENTIAL
|LAND
411,100
8 DORRANCE PLACE
|BUILDING
718,700
|TOTAL REAL
1129,800
1129,800
HANOVER NH 03755
|SPEC EXEMPTION
0
TAX MAP:
11-198.000
|
PROP DESC: 10.33 ACRES & DWL INCL 2 ADDL LOTS
|
911 ADDR: 40 OVERLOOK DR
|
PARCEL ID: 11-198.000 SPAN: 450-142-13158
|
HOUSESITE:
876,300
ACRES:
10.33 R2 NS
|GRAND LIST
11,298.00
11,298.00
-----------------------------------------------------------------------------------------------------------------------------------JACKSON KAREN S
HMSTD FILED |
MUNICIPAL
HOMESTEAD
NON-RESIDENTIAL
|LAND
127,700
247 NEW BOSTON RD
|BUILDING
147,700
|TOTAL REAL
275,400
238,475
36,925
NORWICH VT 05055
|SPEC EXEMPTION
0
0
TAX MAP:
10-117.000
|
PROP DESC: 1.6 ACRES & DWL
|
911 ADDR: 247 NEW BOSTON RD
|
PARCEL ID: 10-117.000 SPAN: 450-142-12277
|
HOUSESITE:
238,475
ACRES:
1.60 R1 T
|GRAND LIST
2,754.00
2,384.75
369.25
-----------------------------------------------------------------------------------------------------------------------------------JACOBS ROBERT R.
HMSTD FILED |
MUNICIPAL
HOMESTEAD
NON-RESIDENTIAL
JACOBS MARCIA C.
|LAND
127,800
PO BOX 486
|BUILDING
370,300
|TOTAL REAL
498,100
498,100
NORWICH VT 05055-0486
|SPEC EXEMPTION
0
TAX MAP:
10-085.000
|
PROP DESC: 10.1 ACRES & DWL
|
911 ADDR: 76 BOB WHITE LN
|
PARCEL ID: 10-085.000 SPAN: 450-142-12939
|
HOUSESITE:
471,900
ACRES:
10.10 R2 T
|GRAND LIST
4,981.00
4,981.00
-----------------------------------------------------------------------------------------------------------------------------------JACOBSON GERALDINE TRUSTEE
HMSTD FILED |
MUNICIPAL
HOMESTEAD
NON-RESIDENTIAL
|LAND
673,000
635 BRAGG HILL RD
|BUILDING
575,200
|TOTAL REAL
1248,200
817,600
430,600
NORWICH VT 05055
|SPEC EXEMPTION
0
0
TAX MAP:
10-012.500
|
PROP DESC: 53.84 ACRES & 2 DWLS & 2 ADDL LOTS
|
911 ADDR: 635 BRAGG HILL RD
|CURRENT USE
109,000
109,000
PARCEL ID: 10-012.500 SPAN: 450-142-13275
|
HOUSESITE:
307,500
ACRES:
53.84 R2 T
|GRAND LIST
11,392.00
7,086.00
4,306.00
------------------------------------------------------------------------------------------------------------------------------------
06/12/2015
01:32 pm
Town of Norwich Grand List
Grand List Report (Detail)
By Name For All Parcels In All Districts
Page 138
jbynum
PARCEL INFORMATION
TAXABLE VALUATIONS / EXEMPTIONS / CONTRACTS
-----------------------------------------------------------------------------------------------------------------------------------JAFFE JOAN E
HMSTD FILED |
MUNICIPAL
HOMESTEAD
NON-RESIDENTIAL
|LAND
119,300
PO BOX 235
|BUILDING
146,200
|TOTAL REAL
265,500
265,500
NORWICH VT 05055-0235
|SPEC EXEMPTION
0
TAX MAP:
10-072.000
|
PROP DESC: 2.9 ACRES & DWL
|
911 ADDR: 449 TURNPIKE RD
|
PARCEL ID: 10-072.000 SPAN: 450-142-12921
|
HOUSESITE:
262,300
ACRES:
2.90 R1 T
|GRAND LIST
2,655.00
2,655.00
-----------------------------------------------------------------------------------------------------------------------------------JAMES MARTHA W TRUSTEE
HMSTD FILED |
MUNICIPAL
HOMESTEAD
NON-RESIDENTIAL
|LAND
168,800
31 UPPER PASTURE RD
|BUILDING
487,900
|TOTAL REAL
656,700
656,700
NORWICH VT 05055
|SPEC EXEMPTION
0
TAX MAP:
11-144.000
|
PROP DESC: 10.1 ACRES & DWL
|
911 ADDR: 31 UPPER PASTURE RD
|
PARCEL ID: 11-144.000 SPAN: 450-142-13095
|
HOUSESITE:
627,600
ACRES:
10.10 R2 T
|GRAND LIST
6,567.00
6,567.00
-----------------------------------------------------------------------------------------------------------------------------------JANEWAY EDWARD JR
|
MUNICIPAL
HOMESTEAD
NON-RESIDENTIAL
|LAND
181,500
PO BOX 846
|BUILDING
458,300
|TOTAL REAL
639,800
639,800
NORWICH VT 05055-0846
|SPEC EXEMPTION
0
TAX MAP:
14-027.000
|
PROP DESC: 19.2 ACRES & DWL
|
911 ADDR: 487 SUGARTOP RD
|CURRENT USE
48,600
48,600
PARCEL ID: 14-027.000 SPAN: 450-142-12808
|
HOUSESITE:
585,300
ACRES:
19.20 R2 T
|GRAND LIST
5,912.00
5,912.00
-----------------------------------------------------------------------------------------------------------------------------------JANKOWSKI MARY K
HMSTD FILED |
MUNICIPAL
HOMESTEAD
NON-RESIDENTIAL
|LAND
100,000
609 NEW BOSTON RD
|BUILDING
285,900
|TOTAL REAL
385,900
385,900
NORWICH VT 05055
|SPEC EXEMPTION
0
TAX MAP:
10-165.000
|
PROP DESC: 1 ACRES & DWL
|
911 ADDR: 609 NEW BOSTON RD
|
PARCEL ID: 10-165.000 SPAN: 450-142-12300
|
HOUSESITE:
385,900
ACRES:
1.00 R1 T
|GRAND LIST
3,859.00
3,859.00
-----------------------------------------------------------------------------------------------------------------------------------JEHLEN MYRA TRUSTEE
HMSTD FILED |
MUNICIPAL
HOMESTEAD
NON-RESIDENTIAL
MYRA JELEN TRUST
|LAND
150,600
PO BOX 1074
|BUILDING
167,800
|TOTAL REAL
318,400
318,400
NORWICH VT 05055-1074
|SPEC EXEMPTION
0
TAX MAP:
05-091.000
|
PROP DESC: 4.22 ACRES & DWL
|
911 ADDR: 784 PATTRELL RD
|
PARCEL ID: 05-091.000 SPAN: 450-142-12516
|
HOUSESITE:
308,400
ACRES:
4.22 R1 T
|GRAND LIST
3,184.00
3,184.00
------------------------------------------------------------------------------------------------------------------------------------
06/12/2015
01:32 pm
Town of Norwich Grand List
Grand List Report (Detail)
By Name For All Parcels In All Districts
Page 139
jbynum
PARCEL INFORMATION
TAXABLE VALUATIONS / EXEMPTIONS / CONTRACTS
-----------------------------------------------------------------------------------------------------------------------------------JENNINGS SUSAN B TRUST
|
MUNICIPAL
HOMESTEAD
NON-RESIDENTIAL
|LAND
653,400
PO BOX 25973
|BUILDING
255,400
|TOTAL REAL
908,800
908,800
HONOLULU HI 96825
|SPEC EXEMPTION
0
TAX MAP:
11-128.000
|
PROP DESC: 129.1 ACRES & DWL & 2 CAMPS & ADDL LOT
|
911 ADDR: 176 BLOOD HILL RD
|CURRENT USE
465,600
465,600
PARCEL ID: 11-128.000 SPAN: 450-142-11629
|
HOUSESITE:
370,200
ACRES:
129.10 R2 NS
|GRAND LIST
4,432.00
4,432.00
-----------------------------------------------------------------------------------------------------------------------------------JIMMAR REALTY LLC
|
MUNICIPAL
HOMESTEAD
NON-RESIDENTIAL
|LAND
393,200
PO BOX 352
|BUILDING
628,700
|TOTAL REAL
1021,900
1021,900
FAIRLEE VT 05045
|SPEC EXEMPTION
0
TAX MAP:
15-065.000
|
PROP DESC: 7.7 ACRES & CAR DEALERSHIP
|
911 ADDR: 63 US ROUTE 5 SOUTH
|
PARCEL ID: 15-065.000 SPAN: 450-142-12729
|
HOUSESITE:
0
ACRES:
7.70 C
C
|GRAND LIST
10,219.00
10,219.00
-----------------------------------------------------------------------------------------------------------------------------------JOHNSON BRIAN
HMSTD FILED |
MUNICIPAL
HOMESTEAD
NON-RESIDENTIAL
JOHNSON JAYE PERSHING
|LAND
186,800
80 BLOOD HILL RD PO BOX 266
|BUILDING
422,500
|TOTAL REAL
609,300
609,300
NORWICH VT 05055-0266
|SPEC EXEMPTION
0
TAX MAP:
11-131.000
|
PROP DESC: 21.17 ACRES & DWELLING & ADDL LOT (NV)
|
911 ADDR: 80 BLOOD HILL RD
|
PARCEL ID: 11-131.000 SPAN: 450-142-11622
|
HOUSESITE:
549,400
ACRES:
21.17 R2 T
|GRAND LIST
6,093.00
6,093.00
-----------------------------------------------------------------------------------------------------------------------------------JOHNSON CORLAN
HMSTD FILED |
MUNICIPAL
HOMESTEAD
NON-RESIDENTIAL
|LAND
96,100
PO BOX 847
|BUILDING
210,900
|TOTAL REAL
307,000
307,000
NORWICH VT 05055-0847
|SPEC EXEMPTION
0
TAX MAP:
20-095.000
|
PROP DESC: .34 ACRE & DWL
|
911 ADDR: 12 SARGENT ST
|
PARCEL ID: 20-095.000 SPAN: 450-142-12784
|
HOUSESITE:
307,000
ACRES:
0.34 R1 T
|GRAND LIST
3,070.00
3,070.00
-----------------------------------------------------------------------------------------------------------------------------------JOHNSON HAROLD W
|
MUNICIPAL
HOMESTEAD
NON-RESIDENTIAL
|LAND
91,500
1190 RTE 5 N
|BUILDING
34,700
|TOTAL REAL
126,200
126,200
NORWICH VT 05055
|SPEC EXEMPTION
0
TAX MAP:
12-044.000
|
PROP DESC: .69 ACRE & SHOP
|
911 ADDR: 1190 US ROUTE 5 NORTH
|
PARCEL ID: 12-044.000 SPAN: 450-142-12707
|
HOUSESITE:
0
ACRES:
0.69 C
T
|GRAND LIST
1,262.00
1,262.00
------------------------------------------------------------------------------------------------------------------------------------
06/12/2015
01:32 pm
Town of Norwich Grand List
Grand List Report (Detail)
By Name For All Parcels In All Districts
Page 140
jbynum
PARCEL INFORMATION
TAXABLE VALUATIONS / EXEMPTIONS / CONTRACTS
-----------------------------------------------------------------------------------------------------------------------------------JOHNSON POLLYANNA B
HMSTD FILED |
MUNICIPAL
HOMESTEAD
NON-RESIDENTIAL
|LAND
252,800
7 SPUR LA
|BUILDING
332,800
|TOTAL REAL
585,600
503,100
82,500
NORWICH VT 05055
|SPEC EXEMPTION
0
0
TAX MAP:
16-024.000
|
PROP DESC: 18.48 ACRES & 2 DWLS INCL 1 ADDL LOT
|
911 ADDR: 7 SPUR LN
|
PARCEL ID: 16-024.000 SPAN: 450-142-11971
|
HOUSESITE:
351,600
ACRES:
18.48 R2 T
|GRAND LIST
5,856.00
5,031.00
825.00
-----------------------------------------------------------------------------------------------------------------------------------JOHNSON ROBERT L JR
HMSTD FILED |
MUNICIPAL
HOMESTEAD
NON-RESIDENTIAL
ENGTRAKUL ALANYA M
|LAND
126,000
487 HAWK PINE RD
|BUILDING
209,900
|TOTAL REAL
335,900
335,900
NORWICH VT 05055
|SPEC EXEMPTION
0
TAX MAP:
16-148.000
|
PROP DESC: 1.48 ACRES & DWL
|
911 ADDR: 487 HAWK PINE RD
|
PARCEL ID: 16-148.000 SPAN: 450-142-12575
|
HOUSESITE:
335,900
ACRES:
1.48 R1 T
|GRAND LIST
3,359.00
3,359.00
-----------------------------------------------------------------------------------------------------------------------------------JOHNSON THE CAROL A TRUST
HMSTD FILED |
MUNICIPAL
HOMESTEAD
NON-RESIDENTIAL
|LAND
101,800
PO BOX 375
|BUILDING
173,100
|TOTAL REAL
274,900
274,900
NORWICH VT 05055-0375
|SPEC EXEMPTION
0
TAX MAP:
16-118.000
|
PROP DESC: 3.9 ACRES & DWL
|
911 ADDR: 24 MELVIEW RIDGE
|
PARCEL ID: 16-118.000 SPAN: 450-142-12244
|
HOUSESITE:
268,200
ACRES:
3.90 R1 T
|GRAND LIST
2,749.00
2,749.00
-----------------------------------------------------------------------------------------------------------------------------------JOHNSON THOMAS M
HMSTD FILED |
MUNICIPAL
HOMESTEAD
NON-RESIDENTIAL
SCHEININ JEANNIE E
|LAND
156,800
18 PATTRELL RD
|BUILDING
330,600
|TOTAL REAL
487,400
487,400
NORWICH VT 05055
|SPEC EXEMPTION
0
TAX MAP:
11-058.000
|
PROP DESC: 10.2 ACRES & DWL
|
911 ADDR: 18 PATTRELL RD
|
PARCEL ID: 11-058.000 SPAN: 450-142-12493
|
HOUSESITE:
458,000
ACRES:
10.20 R2 T
|GRAND LIST
4,874.00
4,874.00
-----------------------------------------------------------------------------------------------------------------------------------JONES DANIEL F
HMSTD FILED |
MUNICIPAL
HOMESTEAD
NON-RESIDENTIAL
ADAMI CLAUDIA A
|LAND
143,200
32 ELM ST
|BUILDING
574,100
|TOTAL REAL
717,300
698,900
18,400
NORWICH VT 05055-9446
|SPEC EXEMPTION
0
0
TAX MAP:
20-282.000
|
PROP DESC: .48 ACRE & DWL
|
911 ADDR: 32 ELM ST
|
PARCEL ID: 20-282.000 SPAN: 450-142-11942
|
HOUSESITE:
698,900
ACRES:
0.48 R1 T
|GRAND LIST
7,173.00
6,989.00
184.00
------------------------------------------------------------------------------------------------------------------------------------
06/12/2015
01:32 pm
Town of Norwich Grand List
Grand List Report (Detail)
By Name For All Parcels In All Districts
Page 141
jbynum
PARCEL INFORMATION
TAXABLE VALUATIONS / EXEMPTIONS / CONTRACTS
-----------------------------------------------------------------------------------------------------------------------------------JONES ROSS
HMSTD FILED |
MUNICIPAL
HOMESTEAD
NON-RESIDENTIAL
PRASAD ANITA
|LAND
68,400
6 STOWELL RD
|BUILDING
173,800
|TOTAL REAL
242,200
242,200
NORWICH VT 05055-9652
|SPEC EXEMPTION
0
TAX MAP:
05-027.000
|
PROP DESC: .99 ACRE & DWL
|
911 ADDR: 6 STOWELL RD
|
PARCEL ID: 05-027.000 SPAN: 450-142-12405
|
HOUSESITE:
242,200
ACRES:
0.99 R1 T
|GRAND LIST
2,422.00
2,422.00
-----------------------------------------------------------------------------------------------------------------------------------JORDAN FRANCIS B
HMSTD FILED |
MUNICIPAL
HOMESTEAD
NON-RESIDENTIAL
JORDAN ANITA
|LAND
92,300
393 BEAVER MEADOW RD
|BUILDING
113,600
|TOTAL REAL
205,900
205,900
NORWICH VT 05055
|SPEC EXEMPTION
0
TAX MAP:
10-023.000
|
PROP DESC: 0.78 ACRE & DWL
|
911 ADDR: 393 BEAVER MEADOW RD
|
PARCEL ID: 10-023.000 SPAN: 450-142-11587
|
HOUSESITE:
205,900
ACRES:
0.78 R1 T
|GRAND LIST
2,059.00
2,059.00
-----------------------------------------------------------------------------------------------------------------------------------JORGENSEN DAVID H
HMSTD FILED |
MUNICIPAL
HOMESTEAD
NON-RESIDENTIAL
JORGENSEN SUSAN C
|LAND
88,700
PO BOX 178
|BUILDING
128,500
|TOTAL REAL
217,200
217,200
NORWICH VT 05055-0178
|SPEC EXEMPTION
0
TAX MAP:
04-016.010
|
PROP DESC: 2.0 ACRES & DWELLING & STUDIO
|
911 ADDR: 1737 TURNPIKE RD
|
PARCEL ID: 04-016.010 SPAN: 450-142-13000
|
HOUSESITE:
217,200
ACRES:
2.00 R1 T
|GRAND LIST
2,172.00
2,172.00
-----------------------------------------------------------------------------------------------------------------------------------JUDD JOHN
|
MUNICIPAL
HOMESTEAD
NON-RESIDENTIAL
JUDD LOUISE
|LAND
193,800
247 LOWER BAILEY RD
|BUILDING
0
|TOTAL REAL
193,800
193,800
THETFORD CENTER VT 05075
|SPEC EXEMPTION
0
TAX MAP:
05-096.000
|
PROP DESC: 43.07 ACRES
|
911 ADDR: 148 MIDDLE RD
|CURRENT USE
181,600
181,600
PARCEL ID: 05-096.000 SPAN: 450-142-12251
|
HOUSESITE:
0
ACRES:
43.07 M
S
|GRAND LIST
122.00
122.00
-----------------------------------------------------------------------------------------------------------------------------------JUDD JOHN C
HMSTD FILED |
MUNICIPAL
HOMESTEAD
NON-RESIDENTIAL
JUDD ANDREA M
|LAND
127,700
1401 UNION VILLAGE RD
|BUILDING
193,500
|TOTAL REAL
321,200
321,200
NORWICH VT 05055
|SPEC EXEMPTION
0
TAX MAP:
05-081.000
|
PROP DESC: 10.1 ACRES & DWL
|
911 ADDR: 1401 UNION VILLAGE RD
|
PARCEL ID: 05-081.000 SPAN: 450-142-13061
|
HOUSESITE:
292,100
ACRES:
10.10 R2 T
|GRAND LIST
3,212.00
3,212.00
------------------------------------------------------------------------------------------------------------------------------------
06/12/2015
01:32 pm
Town of Norwich Grand List
Grand List Report (Detail)
By Name For All Parcels In All Districts
Page 142
jbynum
PARCEL INFORMATION
TAXABLE VALUATIONS / EXEMPTIONS / CONTRACTS
-----------------------------------------------------------------------------------------------------------------------------------JUDD MICHAEL J
HMSTD FILED |
MUNICIPAL
HOMESTEAD
NON-RESIDENTIAL
JUDD LISA M
|LAND
129,700
96 MIDDLE RD
|BUILDING
173,100
|TOTAL REAL
302,800
302,800
NORWICH VT 05055
|SPEC EXEMPTION
0
TAX MAP:
05-097.200
|
PROP DESC: 10.1 ACRES & DWL
|
911 ADDR: 96 MIDDLE RD
|
PARCEL ID: 05-097.200 SPAN: 450-142-12250
|
HOUSESITE:
273,700
ACRES:
10.10 R2 T
|GRAND LIST
3,028.00
3,028.00
-----------------------------------------------------------------------------------------------------------------------------------JULIAN KEEGAN D.W. TRUST
|
MUNICIPAL
HOMESTEAD
NON-RESIDENTIAL
ANKUDA STEPHEN S TRUSTEE
|LAND
249,700
P.O. BOX 519
|BUILDING
0
|TOTAL REAL
249,700
249,700
SPRINGFIELD VT 05156
|SPEC EXEMPTION
0
TAX MAP:
06-003.400
|
PROP DESC: 62.46 ACRES
|
911 ADDR: TOWN FARM RD
|CURRENT USE
241,700
241,700
PARCEL ID: 06-003.400 SPAN: 450-142-13195
|
HOUSESITE:
0
ACRES:
62.46 M
NS
|GRAND LIST
80.00
80.00
-----------------------------------------------------------------------------------------------------------------------------------JURADO JOSE
HMSTD FILED |
MUNICIPAL
HOMESTEAD
NON-RESIDENTIAL
DALTON MADELINE
|LAND
100,500
24 SARGENT ST
|BUILDING
225,600
|TOTAL REAL
326,100
326,100
NORWICH VT 05055
|SPEC EXEMPTION
0
TAX MAP:
20-093.000
|
PROP DESC: .44 ACRE & DWL
|
911 ADDR: 24 SARGENT ST
|
PARCEL ID: 20-093.000 SPAN: 450-142-12787
|
HOUSESITE:
326,100
ACRES:
0.44 R1 T
|GRAND LIST
3,261.00
3,261.00
-----------------------------------------------------------------------------------------------------------------------------------KABLE JASON ERIC
HMSTD FILED |
MUNICIPAL
HOMESTEAD
NON-RESIDENTIAL
KABLE LISA PORTER
|LAND
306,500
893 NEW BOSTON RD
|BUILDING
682,500
|TOTAL REAL
989,000
989,000
NORWICH VT 05055
|SPEC EXEMPTION
0
TAX MAP:
04-055.000
|
PROP DESC: 38.68 ACRES & DWL INCL 1 ADDL LOT
|
911 ADDR: 893 NEW BOSTON RD
|CURRENT USE
174,400
174,400
PARCEL ID: 04-055.000 SPAN: 450-142-12325
|
HOUSESITE:
809,900
ACRES:
38.68 R2 T
|GRAND LIST
8,146.00
8,146.00
-----------------------------------------------------------------------------------------------------------------------------------KAHAN ALEX
HMSTD FILED |
MUNICIPAL
HOMESTEAD
NON-RESIDENTIAL
KAHAN SUSAN
|LAND
250,100
PO BOX 1036
|BUILDING
599,500
|TOTAL REAL
849,600
849,600
NORWICH VT 05055-1036
|SPEC EXEMPTION
0
TAX MAP:
05-098.000
|
PROP DESC: 38.2 ACRES & DWL
|
911 ADDR: 245 MIDDLE RD
|CURRENT USE
100,700
100,700
PARCEL ID: 05-098.000 SPAN: 450-142-12252
|
HOUSESITE:
743,300
ACRES:
38.20 R2 T
|GRAND LIST
7,489.00
7,489.00
------------------------------------------------------------------------------------------------------------------------------------
06/12/2015
01:32 pm
Town of Norwich Grand List
Grand List Report (Detail)
By Name For All Parcels In All Districts
Page 143
jbynum
PARCEL INFORMATION
TAXABLE VALUATIONS / EXEMPTIONS / CONTRACTS
-----------------------------------------------------------------------------------------------------------------------------------KALISH JULIE
HMSTD FILED |
MUNICIPAL
HOMESTEAD
NON-RESIDENTIAL
|LAND
120,500
71 BRIGHAM HILL RD
|BUILDING
245,000
|TOTAL REAL
365,500
365,500
NORWICH VT 05055
|SPEC EXEMPTION
0
TAX MAP:
10-052.200
|
PROP DESC: 1.47 ACRES & DWL
|
911 ADDR: 71 BRIGHAM HILL RD
|
PARCEL ID: 10-052.200 SPAN: 450-142-11708
|
HOUSESITE:
365,500
ACRES:
1.47 R1 T
|GRAND LIST
3,655.00
3,655.00
-----------------------------------------------------------------------------------------------------------------------------------KAPLAN DEBORAH
HMSTD FILED |
MUNICIPAL
HOMESTEAD
NON-RESIDENTIAL
|LAND
155,500
225 DOUGLAS RD
|BUILDING
611,400
|TOTAL REAL
766,900
766,900
NORWICH VT 05055
|SPEC EXEMPTION
0
TAX MAP:
10-078.200
|
PROP DESC: 10.2 ACRES & DWL
|
911 ADDR: 225 DOUGLAS RD
|
PARCEL ID: 10-078.200 SPAN: 450-142-11914
|
HOUSESITE:
737,500
ACRES:
10.20 R2 T
|GRAND LIST
7,669.00
7,669.00
-----------------------------------------------------------------------------------------------------------------------------------KARON STUART
|
MUNICIPAL
HOMESTEAD
NON-RESIDENTIAL
WENGER JODI
|LAND
157,300
248 PARK STREET
|BUILDING
566,100
|TOTAL REAL
723,400
723,400
NEWTON MA 02458
|SPEC EXEMPTION
0
TAX MAP:
11-147.000
|
PROP DESC: 10.4 ACRES & DWL
|
911 ADDR: 113 UPPER PASTURE RD
|
PARCEL ID: 11-147.000 SPAN: 450-142-13099
|
HOUSESITE:
645,900
ACRES:
10.40 R2 T
|GRAND LIST
7,234.00
7,234.00
-----------------------------------------------------------------------------------------------------------------------------------KASPER LLOYD
HMSTD FILED |
MUNICIPAL
HOMESTEAD
NON-RESIDENTIAL
KASPER JUDITH
|LAND
170,300
PO BOX 1022
|BUILDING
490,400
|TOTAL REAL
660,700
660,700
NORWICH VT 05055-1022
|SPEC EXEMPTION
0
TAX MAP:
11-154.000
|
PROP DESC: 15.1 ACRES & DWL
|
911 ADDR: 128 UPPER PASTURE RD
|
PARCEL ID: 11-154.000 SPAN: 450-142-13101
|
HOUSESITE:
617,500
ACRES:
15.10 R2 T
|GRAND LIST
6,607.00
6,607.00
-----------------------------------------------------------------------------------------------------------------------------------KATUCKI CHRISTOPHER
HMSTD FILED |
MUNICIPAL
HOMESTEAD
NON-RESIDENTIAL
KATUCKI MARGARET
|LAND
157,700
47 OLD COACH RD
|BUILDING
441,800
|TOTAL REAL
599,500
599,500
NORWICH VT 05055
|SPEC EXEMPTION
0
TAX MAP:
11-014.000
|
PROP DESC: 1.31 ACRES & DWL/APT
|
911 ADDR: 47 OLD COACH RD
|
PARCEL ID: 11-014.000 SPAN: 450-142-12482
|
HOUSESITE:
599,500
ACRES:
1.31 R1 T
|GRAND LIST
5,995.00
5,995.00
------------------------------------------------------------------------------------------------------------------------------------
06/12/2015
01:32 pm
Town of Norwich Grand List
Grand List Report (Detail)
By Name For All Parcels In All Districts
Page 144
jbynum
PARCEL INFORMATION
TAXABLE VALUATIONS / EXEMPTIONS / CONTRACTS
-----------------------------------------------------------------------------------------------------------------------------------KATZ ANDREW
HMSTD FILED |
MUNICIPAL
HOMESTEAD
NON-RESIDENTIAL
KATZ NANCY
|LAND
99,600
PO BOX 1212
|BUILDING
296,500
|TOTAL REAL
396,100
396,100
NORWICH VT 05055-1212
|SPEC EXEMPTION
0
TAX MAP:
12-003.300
|
PROP DESC: 2.01 ACRES & DWL
|
911 ADDR: 241 FARRELL FARM RD
|
PARCEL ID: 12-003.300 SPAN: 450-142-12687
|
HOUSESITE:
396,000
ACRES:
2.01 R1 T
|GRAND LIST
3,961.00
3,961.00
-----------------------------------------------------------------------------------------------------------------------------------KATZENJAMMER PROPERTIES LLC
|
MUNICIPAL
HOMESTEAD
NON-RESIDENTIAL
C/O BRUCE D MACLEOD
|LAND
0
PO BOX 1623
|BUILDING
381,000
|TOTAL REAL
381,000
381,000
NORWICH VT 05055-1623
|SPEC EXEMPTION
0
TAX MAP:
20-214.010
|
PROP DESC: UNIT 1 1820 HOUSE & .32 INT IN BARN
|
911 ADDR: 326 MAIN ST
|
PARCEL ID: 20-214.010 SPAN: 450-142-12454
|
HOUSESITE:
0
ACRES:
0.00 C
C
|GRAND LIST
3,810.00
3,810.00
-----------------------------------------------------------------------------------------------------------------------------------KAUFMAN DENNIS M LIFE ESTATE
HMSTD FILED |
MUNICIPAL
HOMESTEAD
NON-RESIDENTIAL
KAUFMAN ROBERTA S LIFE ESTATE
|LAND
172,600
PO BOX 28
|BUILDING
719,900
|TOTAL REAL
892,500
699,100
193,400
NORWICH VT 05055-0028
|SPEC EXEMPTION
0
0
TAX MAP:
06-023.000
|
PROP DESC: 13.4 ACRES & 3 DWLS & 1 ADDL LOT (NV)
|
911 ADDR: 535 CAMPBELL FLATS RD
|
PARCEL ID: 06-023.000 SPAN: 450-142-11776
|
HOUSESITE:
670,300
ACRES:
13.40 R2 T
|GRAND LIST
8,925.00
6,991.00
1,934.00
-----------------------------------------------------------------------------------------------------------------------------------KAUFMAN PETER A
HMSTD FILED |
MUNICIPAL
HOMESTEAD
NON-RESIDENTIAL
WATERFALL ANN L R
|LAND
209,700
418 KERWIN HILL RD
|BUILDING
631,300
|TOTAL REAL
841,000
841,000
NORWICH VT 05055
|SPEC EXEMPTION
0
TAX MAP:
05-114.120
|
PROP DESC: 30.07 ACRES & DWL
|
911 ADDR: 418 KERWIN HILL RD
|
PARCEL ID: 05-114.120 SPAN: 450-142-12127
|
HOUSESITE:
756,800
ACRES:
30.07 R2 T
|GRAND LIST
8,410.00
8,410.00
-----------------------------------------------------------------------------------------------------------------------------------KAUR GURSHARAN
HMSTD FILED |
MUNICIPAL
HOMESTEAD
NON-RESIDENTIAL
|LAND
59,400
PO BOX 154
|BUILDING
202,000
|TOTAL REAL
261,400
160,500
100,900
BRADFORD VT 05033
|SPEC EXEMPTION
0
0
TAX MAP:
16-009.000
|
PROP DESC: 1.01 ACRES & DWL
|
911 ADDR: 117 UPPER LOVELAND RD
|
PARCEL ID: 16-009.000 SPAN: 450-142-13086
|
HOUSESITE:
160,500
ACRES:
1.01 R1 T
|GRAND LIST
2,614.00
1,605.00
1,009.00
------------------------------------------------------------------------------------------------------------------------------------
06/12/2015
01:32 pm
Town of Norwich Grand List
Grand List Report (Detail)
By Name For All Parcels In All Districts
Page 145
jbynum
PARCEL INFORMATION
TAXABLE VALUATIONS / EXEMPTIONS / CONTRACTS
-----------------------------------------------------------------------------------------------------------------------------------KAWECKI TRACEY
HMSTD FILED |
MUNICIPAL
HOMESTEAD
NON-RESIDENTIAL
KAWECKI PETER
|LAND
111,200
18 HAZEN ST
|BUILDING
144,400
|TOTAL REAL
255,600
255,600
NORWICH VT 05055
|SPEC EXEMPTION
0
TAX MAP:
20-190.000
|
PROP DESC: 0.26 ACRE & DWL
|
911 ADDR: 18 HAZEN ST
|
PARCEL ID: 20-190.000 SPAN: 450-142-12024
|
HOUSESITE:
255,600
ACRES:
0.26 R1 T
|GRAND LIST
2,556.00
2,556.00
-----------------------------------------------------------------------------------------------------------------------------------KAYEN KAREN
HMSTD FILED |
MUNICIPAL
HOMESTEAD
NON-RESIDENTIAL
|LAND
91,400
PO BOX 885
|BUILDING
245,200
|TOTAL REAL
336,600
336,600
NORWICH VT 05055-0885
|SPEC EXEMPTION
0
TAX MAP:
04-063.200
|
PROP DESC: 2.61 ACRES & DWL
|
911 ADDR: 1495 NEW BOSTON RD
|
PARCEL ID: 04-063.200 SPAN: 450-142-12375
|
HOUSESITE:
333,900
ACRES:
2.61 R1 T
|GRAND LIST
3,366.00
3,366.00
-----------------------------------------------------------------------------------------------------------------------------------KEALEY KEITH C
HMSTD FILED |
MUNICIPAL
HOMESTEAD
NON-RESIDENTIAL
KEALEY LANA LEGGETT
|LAND
142,700
261 BEAVER MEADOW RD
|BUILDING
532,200
|TOTAL REAL
674,900
674,900
NORWICH VT 05055
|SPEC EXEMPTION
0
TAX MAP:
10-017.100
|
PROP DESC: .806 ACRES
|
911 ADDR: 261 BEAVER MEADOW RD
|
PARCEL ID: 10-017.100 SPAN: 450-142-11979
|
HOUSESITE:
674,900
ACRES:
0.86 R1 T
|GRAND LIST
6,749.00
6,749.00
-----------------------------------------------------------------------------------------------------------------------------------KEARNEY THOMAS D
|
MUNICIPAL
HOMESTEAD
NON-RESIDENTIAL
|LAND
105,300
PO BOX 796
|BUILDING
330,300
|TOTAL REAL
435,600
435,600
NORWICH VT 05055-0796
|SPEC EXEMPTION
0
TAX MAP:
05-067.000
|
PROP DESC: 3.3 ACRES & DWL
|
911 ADDR: 1496 UNION VILLAGE RD
|
PARCEL ID: 05-067.000 SPAN: 450-142-13070
|
HOUSESITE:
429,800
ACRES:
3.30 R1 T
|GRAND LIST
4,356.00
4,356.00
-----------------------------------------------------------------------------------------------------------------------------------KEATS TRUST ALEXANDRA
HMSTD FILED |
MUNICIPAL
HOMESTEAD
NON-RESIDENTIAL
DICKINSON MARTHA
|LAND
93,100
1355 PODUNK RD
|BUILDING
295,300
|TOTAL REAL
388,400
361,000
27,400
WHITE RIVER JUNCTION VT 05001
|SPEC EXEMPTION
0
0
TAX MAP:
14-002.000
|
PROP DESC: 10.3 ACRES & DWL
|
911 ADDR: 1355 PODUNK RD
|
PARCEL ID: 14-002.000 SPAN: 450-142-12600
|
HOUSESITE:
337,300
ACRES:
10.30 R2 T
|GRAND LIST
3,884.00
3,610.00
274.00
------------------------------------------------------------------------------------------------------------------------------------
06/12/2015
01:32 pm
Town of Norwich Grand List
Grand List Report (Detail)
By Name For All Parcels In All Districts
Page 146
jbynum
PARCEL INFORMATION
TAXABLE VALUATIONS / EXEMPTIONS / CONTRACTS
-----------------------------------------------------------------------------------------------------------------------------------KEETON RICHARD
|
MUNICIPAL
HOMESTEAD
NON-RESIDENTIAL
|LAND
183,900
600 TRAVIS ST
|BUILDING
182,300
|TOTAL REAL
366,200
366,200
HOUSTON TX 77002
|SPEC EXEMPTION
0
TAX MAP:
20-240.000
|
PROP DESC: .77 ACRE & DWL
|
911 ADDR: 248 MAIN ST
|
PARCEL ID: 20-240.000 SPAN: 450-142-12474
|
HOUSESITE:
366,200
ACRES:
0.77 R1 NS
|GRAND LIST
3,662.00
3,662.00
-----------------------------------------------------------------------------------------------------------------------------------KELLY DANIEL
|
MUNICIPAL
HOMESTEAD
NON-RESIDENTIAL
KELLY JODI
|LAND
131,800
102 TURNPIKE RD
|BUILDING
393,000
|TOTAL REAL
524,800
524,800
NORWICH VT 05055
|SPEC EXEMPTION
0
TAX MAP:
10-197.000
|
PROP DESC: 2.7 ACRES & DWL
|
911 ADDR: 102 TURNPIKE RD
|
PARCEL ID: 10-197.000 SPAN: 450-142-12900
|
HOUSESITE:
522,000
ACRES:
2.70 R1 T
|GRAND LIST
5,248.00
5,248.00
-----------------------------------------------------------------------------------------------------------------------------------KENNEDY ELAINE A
HMSTD FILED |
MUNICIPAL
HOMESTEAD
NON-RESIDENTIAL
|LAND
91,700
PO BOX 855
|BUILDING
154,400
|TOTAL REAL
246,100
168,800
77,300
NORWICH VT 05055
|SPEC EXEMPTION
0
0
TAX MAP:
03-019.000
|
PROP DESC: 10.1 ACRES & DWL & CAMP
|
911 ADDR: 27 RIDGEWOOD HILL
|
PARCEL ID: 03-019.000 SPAN: 450-142-12259
|
HOUSESITE:
145,500
ACRES:
10.10 R2 T
|GRAND LIST
2,461.00
1,688.00
773.00
-----------------------------------------------------------------------------------------------------------------------------------KENNEY RICHARD M
HMSTD FILED |
MUNICIPAL
HOMESTEAD
NON-RESIDENTIAL
KENNEY SUSAN
|LAND
157,800
1299 PODUNK RD
|BUILDING
195,600
|TOTAL REAL
353,400
353,400
WHITE RIVER JCT VT 05001
|SPEC EXEMPTION
0
TAX MAP:
14-003.000
|
PROP DESC: 21.76 ACRES & DWL & ADDL LOT
|
911 ADDR: 1299 PODUNK RD
|
PARCEL ID: 14-003.000 SPAN: 450-142-12599
|
HOUSESITE:
263,200
ACRES:
21.76 R2 T
|GRAND LIST
3,534.00
3,534.00
-----------------------------------------------------------------------------------------------------------------------------------KENSETH JOY
HMSTD FILED |
MUNICIPAL
HOMESTEAD
NON-RESIDENTIAL
|LAND
59,300
133 UPPER LOVELAND RD
|BUILDING
193,900
|TOTAL REAL
253,200
253,200
NORWICH VT 05055
|SPEC EXEMPTION
0
TAX MAP:
16-008.000
|
PROP DESC: 1 ACRE & DWL
|
911 ADDR: 133 UPPER LOVELAND RD
|
PARCEL ID: 16-008.000 SPAN: 450-142-13087
|
HOUSESITE:
253,200
ACRES:
1.00 R1 T
|GRAND LIST
2,532.00
2,532.00
------------------------------------------------------------------------------------------------------------------------------------
06/12/2015
01:32 pm
Town of Norwich Grand List
Grand List Report (Detail)
By Name For All Parcels In All Districts
Page 147
jbynum
PARCEL INFORMATION
TAXABLE VALUATIONS / EXEMPTIONS / CONTRACTS
-----------------------------------------------------------------------------------------------------------------------------------KENYON JAMES S
HMSTD FILED |
MUNICIPAL
HOMESTEAD
NON-RESIDENTIAL
KENYON WENDY MCMILLAN
|LAND
90,100
7 BULLOCK RD
|BUILDING
189,400
|TOTAL REAL
279,500
279,500
NORWICH VT 05055
|SPEC EXEMPTION
0
TAX MAP:
11-084.000
|
PROP DESC: 7.7 ACRES & DWL
|
911 ADDR: 7 BULLOCK RD
|
PARCEL ID: 11-084.000 SPAN: 450-142-11726
|
HOUSESITE:
261,900
ACRES:
7.70 R2 T
|GRAND LIST
2,795.00
2,795.00
-----------------------------------------------------------------------------------------------------------------------------------KEOGH JOHN J
HMSTD FILED |
MUNICIPAL
HOMESTEAD
NON-RESIDENTIAL
KEOGH ELLEN J
|LAND
96,500
32 MELVIEW RIDGE
|BUILDING
278,800
|TOTAL REAL
375,300
375,300
NORWICH VT 05055
|SPEC EXEMPTION
0
TAX MAP:
16-117.000
|
PROP DESC: 2.4 ACRES & DWL
|
911 ADDR: 32 MELVIEW RIDGE
|
PARCEL ID: 16-117.000 SPAN: 450-142-12246
|
HOUSESITE:
373,900
ACRES:
2.40 R1 T
|GRAND LIST
3,753.00
3,753.00
-----------------------------------------------------------------------------------------------------------------------------------KERNER MICHAEL S
HMSTD FILED |
MUNICIPAL
HOMESTEAD
NON-RESIDENTIAL
KERNER AMELIA S
|LAND
142,500
53 CARPENTER ST
|BUILDING
302,100
|TOTAL REAL
444,600
444,600
NORWICH VT 05055
|SPEC EXEMPTION
0
TAX MAP:
16-035.000
|
PROP DESC: .47 ACRE & DWL
|
911 ADDR: 53 CARPENTER ST
|
PARCEL ID: 16-035.000 SPAN: 450-142-11793
|
HOUSESITE:
444,600
ACRES:
0.47 R1 T
|GRAND LIST
4,446.00
4,446.00
-----------------------------------------------------------------------------------------------------------------------------------KERR CHARLES E III
|
MUNICIPAL
HOMESTEAD
NON-RESIDENTIAL
|LAND
101,300
5 WILLEY HILL RD
|BUILDING
130,700
|TOTAL REAL
232,000
232,000
NORWICH VT 05055-9636
|SPEC EXEMPTION
0
TAX MAP:
03-010.000
|
PROP DESC: 2.4 ACRES & DWL
|
911 ADDR: 1645 BEAVER MEADOW RD
|
PARCEL ID: 03-010.000 SPAN: 450-142-11611
|
HOUSESITE:
230,200
ACRES:
2.40 R1 T
|GRAND LIST
2,320.00
2,320.00
-----------------------------------------------------------------------------------------------------------------------------------KERR DOUGLAS
HMSTD FILED |
MUNICIPAL
HOMESTEAD
NON-RESIDENTIAL
KERR LOIS
|LAND
101,400
958 NEW BOSTON RD
|BUILDING
199,000
|TOTAL REAL
300,400
300,400
NORWICH VT 05055
|SPEC EXEMPTION
0
TAX MAP:
05-141.000
|
PROP DESC: 1.3 ACRES & DWL
|
911 ADDR: 958 NEW BOSTON RD
|
PARCEL ID: 05-141.000 SPAN: 450-142-12329
|
HOUSESITE:
300,400
ACRES:
1.30 R1 T
|GRAND LIST
3,004.00
3,004.00
------------------------------------------------------------------------------------------------------------------------------------
06/12/2015
01:32 pm
Town of Norwich Grand List
Grand List Report (Detail)
By Name For All Parcels In All Districts
Page 148
jbynum
PARCEL INFORMATION
TAXABLE VALUATIONS / EXEMPTIONS / CONTRACTS
-----------------------------------------------------------------------------------------------------------------------------------KERR ROSALIE E
HMSTD FILED |
MUNICIPAL
HOMESTEAD
NON-RESIDENTIAL
|LAND
120,600
16 HOPSON ROAD
|BUILDING
266,700
|TOTAL REAL
387,300
321,175
66,125
NORWICH VT 05055
|SPEC EXEMPTION
0
0
TAX MAP:
20-038.000
|
PROP DESC: .44 ACRE & DWL/APT
|
911 ADDR: 16 HOPSON RD
|
PARCEL ID: 20-038.000 SPAN: 450-142-12236
|
HOUSESITE:
321,175
ACRES:
0.44 R1 T
|GRAND LIST
3,873.00
3,211.75
661.25
-----------------------------------------------------------------------------------------------------------------------------------KEWER ROBERT
HMSTD FILED |
MUNICIPAL
HOMESTEAD
NON-RESIDENTIAL
KEWER LORRAINE
|LAND
126,900
702 NEW BOSTON RD
|BUILDING
149,300
|TOTAL REAL
276,200
276,200
NORWICH VT 05055
|SPEC EXEMPTION
0
TAX MAP:
05-154.000
|
PROP DESC: 10.1 ACRES & DWL
|
911 ADDR: 702 NEW BOSTON RD
|
PARCEL ID: 05-154.000 SPAN: 450-142-12309
|
HOUSESITE:
252,900
ACRES:
10.10 R2 T
|GRAND LIST
2,762.00
2,762.00
-----------------------------------------------------------------------------------------------------------------------------------KIM SAMIN
HMSTD FILED |
MUNICIPAL
HOMESTEAD
NON-RESIDENTIAL
JOO JAYOUNG
|LAND
59,700
147 UPPER LOVELAND RD
|BUILDING
192,300
|TOTAL REAL
252,000
252,000
NORWICH VT 05055
|SPEC EXEMPTION
0
TAX MAP:
16-007.000
|
PROP DESC: 1.19 ACRES & DWL
|
911 ADDR: 147 UPPER LOVELAND RD
|
PARCEL ID: 16-007.000 SPAN: 450-142-13088
|
HOUSESITE:
252,000
ACRES:
1.19 R1 T
|GRAND LIST
2,520.00
2,520.00
-----------------------------------------------------------------------------------------------------------------------------------KING ARTHUR FLOUR CO. INC
|
MUNICIPAL
HOMESTEAD
NON-RESIDENTIAL
|LAND
1021,300
135 US ROUTE 5 SOUTH
|BUILDING
6130,200
|TOTAL REAL
7151,500
7151,500
NORWICH VT 05055
|SPEC EXEMPTION
0
TAX MAP:
15-069.000
|
PROP DESC: 14.42 ACRES & COMM BLDGS
|
911 ADDR: 135 US ROUTE 5 SOUTH
|
PARCEL ID: 15-069.000 SPAN: 450-142-12735
|
HOUSESITE:
0
ACRES:
14.42 C
C
|GRAND LIST
71,515.00
71,515.00
-----------------------------------------------------------------------------------------------------------------------------------KINGSTON DAVID C
HMSTD FILED |
MUNICIPAL
HOMESTEAD
NON-RESIDENTIAL
ERIKSSON MIA C
|LAND
156,800
73 BRADLEY HILL RD
|BUILDING
562,100
|TOTAL REAL
718,900
718,900
NORWICH VT 05055
|SPEC EXEMPTION
0
TAX MAP:
11-029.100
|
PROP DESC: 10.2 ACRES & DWL
|
911 ADDR: 73 BRADLEY HILL RD
|
PARCEL ID: 11-029.100 SPAN: 450-142-11632
|
HOUSESITE:
689,500
ACRES:
10.20 R2 T
|GRAND LIST
7,189.00
7,189.00
------------------------------------------------------------------------------------------------------------------------------------
06/12/2015
01:32 pm
Town of Norwich Grand List
Grand List Report (Detail)
By Name For All Parcels In All Districts
Page 149
jbynum
PARCEL INFORMATION
TAXABLE VALUATIONS / EXEMPTIONS / CONTRACTS
-----------------------------------------------------------------------------------------------------------------------------------KINNEY JEAN
HMSTD FILED |
MUNICIPAL
HOMESTEAD
NON-RESIDENTIAL
|LAND
137,700
PO BOX 22
|BUILDING
264,300
|TOTAL REAL
402,000
402,000
NORWICH VT 05055-0022
|SPEC EXEMPTION
0
TAX MAP:
06-053.000
|
PROP DESC: .66 ACRE & DWL
|
911 ADDR: 227 VT ROUTE 132
|
PARCEL ID: 06-053.000 SPAN: 450-142-12768
|
HOUSESITE:
402,000
ACRES:
0.66 R1 T
|GRAND LIST
4,020.00
4,020.00
-----------------------------------------------------------------------------------------------------------------------------------KIRK CHRISTOPHER G
|
MUNICIPAL
HOMESTEAD
NON-RESIDENTIAL
KIRK BREANNA P
|LAND
182,600
11 DRIFTWOOD LANE
|BUILDING
936,900
|TOTAL REAL
1119,500
1119,500
WESTON MA 02493
|SPEC EXEMPTION
0
TAX MAP:
20-133.000
|
PROP DESC: 2.7 ACRES & DWL
|
911 ADDR: 395 MAIN ST
|
PARCEL ID: 20-133.000 SPAN: 450-142-12432
|
HOUSESITE:
1116,400
ACRES:
2.70 R1 NS
|GRAND LIST
11,195.00
11,195.00
-----------------------------------------------------------------------------------------------------------------------------------KIRKLAND KATHRYN B
HMSTD FILED |
MUNICIPAL
HOMESTEAD
NON-RESIDENTIAL
EVANCICH ESTATE OF DAVID
|LAND
139,900
37 MEETINGHOUSE RD
|BUILDING
443,800
|TOTAL REAL
583,700
583,700
NORWICH VT 05055-9660
|SPEC EXEMPTION
0
TAX MAP:
05-130.000
|
PROP DESC: 15 ACRES & DWL
|
911 ADDR: 37 MEETINGHOUSE RD
|
PARCEL ID: 05-130.000 SPAN: 450-142-12347
|
HOUSESITE:
545,100
ACRES:
15.00 R2 T
|GRAND LIST
5,837.00
5,837.00
-----------------------------------------------------------------------------------------------------------------------------------KIRSCHNER VIRGINIA STILLMAN
HMSTD FILED |
MUNICIPAL
HOMESTEAD
NON-RESIDENTIAL
KIRSCHNER BERNARD BUDDY
|LAND
120,800
PO BOX 165
|BUILDING
363,800
|TOTAL REAL
484,600
484,600
NORWICH VT 05055-0165
|SPEC EXEMPTION
0
TAX MAP:
16-125.000
|
PROP DESC: 1.8 ACRES & DWL
|
911 ADDR: 340 HAWK PINE RD
|
PARCEL ID: 16-125.000 SPAN: 450-142-12557
|
HOUSESITE:
484,600
ACRES:
1.80 R1 T
|GRAND LIST
4,846.00
4,846.00
-----------------------------------------------------------------------------------------------------------------------------------KITCHEL DAVIS
HMSTD FILED |
MUNICIPAL
HOMESTEAD
NON-RESIDENTIAL
KITCHEL KATHARINE
|LAND
366,400
597 SUGARTOP RD
|BUILDING
397,000
|TOTAL REAL
763,400
763,400
WHITE RIVER JUNCTION VT 05001
|SPEC EXEMPTION
0
TAX MAP:
14-026.000
|
PROP DESC: 109.2 ACRES & DWL
|
911 ADDR: 597 SUGARTOP RD
|CURRENT USE
225,800
225,800
PARCEL ID: 14-026.000 SPAN: 450-142-12811
|
HOUSESITE:
523,600
ACRES:
109.20 R2 T
|GRAND LIST
5,376.00
5,376.00
------------------------------------------------------------------------------------------------------------------------------------
06/12/2015
01:32 pm
Town of Norwich Grand List
Grand List Report (Detail)
By Name For All Parcels In All Districts
Page 150
jbynum
PARCEL INFORMATION
TAXABLE VALUATIONS / EXEMPTIONS / CONTRACTS
-----------------------------------------------------------------------------------------------------------------------------------KITCHEL ELLEN
HMSTD FILED |
MUNICIPAL
HOMESTEAD
NON-RESIDENTIAL
|LAND
114,800
641 BRADLEY HILL RD
|BUILDING
147,500
|TOTAL REAL
262,300
262,300
NORWICH VT 05055
|SPEC EXEMPTION
0
TAX MAP:
05-122.000
|
PROP DESC: 4.5 ACRES & DWL
|
911 ADDR: 641 BRADLEY HILL RD
|
PARCEL ID: 05-122.000 SPAN: 450-142-11654
|
HOUSESITE:
251,000
ACRES:
4.50 R1 T
|GRAND LIST
2,623.00
2,623.00
-----------------------------------------------------------------------------------------------------------------------------------KITCHEL WILLIAM L III
|
MUNICIPAL
HOMESTEAD
NON-RESIDENTIAL
|LAND
276,900
709 PENNSTONE RD
|BUILDING
92,200
|TOTAL REAL
369,100
369,100
BRYN MAWR PA 19010
|SPEC EXEMPTION
0
TAX MAP:
09-022.200
|
PROP DESC: 50.8 ACRES & DWL
|
911 ADDR: 295 TUCKER HILL RD
|CURRENT USE
115,200
115,200
PARCEL ID: 09-022.200 SPAN: 450-142-12886
|
HOUSESITE:
242,100
ACRES:
50.80 R2 NS
|GRAND LIST
2,539.00
2,539.00
-----------------------------------------------------------------------------------------------------------------------------------KLAUS SIDNEY
HMSTD FILED |
MUNICIPAL
HOMESTEAD
NON-RESIDENTIAL
SHIVAS ANNE
|LAND
96,400
PO BOX 443
|BUILDING
202,400
|TOTAL REAL
298,800
298,800
NORWICH VT 05055
|SPEC EXEMPTION
0
TAX MAP:
11-092.000
|
PROP DESC: 1.4 ACRES & DWL
|
911 ADDR: 312 GOODRICH FOUR CORNERS RD
|
PARCEL ID: 11-092.000 SPAN: 450-142-11999
|
HOUSESITE:
298,800
ACRES:
1.40 R1 T
|GRAND LIST
2,988.00
2,988.00
-----------------------------------------------------------------------------------------------------------------------------------KLEINHANS ANN F LIFE ESTATE
HMSTD FILED |
MUNICIPAL
HOMESTEAD
NON-RESIDENTIAL
KLEINHANS DANIEL B
|LAND
141,900
282 CAMPBELL FLATS RD
|BUILDING
227,300
|TOTAL REAL
369,200
369,200
NORWICH VT 05055
|SPEC EXEMPTION
0
TAX MAP:
06-029.000
|
PROP DESC: 6.2 ACRES & DWL
|
911 ADDR: 282 CAMPBELL FLATS RD
|
PARCEL ID: 06-029.000 SPAN: 450-142-11765
|
HOUSESITE:
355,300
ACRES:
6.20 R2 T
|GRAND LIST
3,692.00
3,692.00
-----------------------------------------------------------------------------------------------------------------------------------KNAPP ARIANNA
HMSTD FILED |
MUNICIPAL
HOMESTEAD
NON-RESIDENTIAL
|LAND
98,600
11 LOVELAND RD
|BUILDING
142,200
|TOTAL REAL
240,800
240,800
NORWICH VT 05055
|SPEC EXEMPTION
0
TAX MAP:
16-113.000
|
PROP DESC: 2 ACRES & DWL
|
911 ADDR: 11 LOVELAND RD
|
PARCEL ID: 16-113.000 SPAN: 450-142-12160
|
HOUSESITE:
240,800
ACRES:
2.00 R1 T
|GRAND LIST
2,408.00
2,408.00
------------------------------------------------------------------------------------------------------------------------------------
06/12/2015
01:32 pm
Town of Norwich Grand List
Grand List Report (Detail)
By Name For All Parcels In All Districts
Page 151
jbynum
PARCEL INFORMATION
TAXABLE VALUATIONS / EXEMPTIONS / CONTRACTS
-----------------------------------------------------------------------------------------------------------------------------------KNIFFIN WAYNE D
HMSTD FILED |
MUNICIPAL
HOMESTEAD
NON-RESIDENTIAL
KNIFFIN KAREN S
|LAND
236,500
509 BRAGG HILL RD
|BUILDING
266,500
|TOTAL REAL
503,000
503,000
NORWICH VT 05055
|SPEC EXEMPTION
0
TAX MAP:
15-016.000
|
PROP DESC: 12.2 ACRES & DWL
|
911 ADDR: 509 BRAGG HILL RD
|
PARCEL ID: 15-016.000 SPAN: 450-142-11675
|
HOUSESITE:
467,900
ACRES:
12.20 R2 T
|GRAND LIST
5,030.00
5,030.00
-----------------------------------------------------------------------------------------------------------------------------------KNIGHT DIANE
|
MUNICIPAL
HOMESTEAD
NON-RESIDENTIAL
|LAND
150,600
12 EASTWAY
|BUILDING
924,800
|TOTAL REAL
1075,400
1075,400
BRONXVILLE NY 10708
|SPEC EXEMPTION
0
TAX MAP:
11-193.000
|
PROP DESC: 8 ACRES
|
911 ADDR: 196 MAPLE HILL RD
|
PARCEL ID: 11-193.000 SPAN: 450-142-13165
|
HOUSESITE:
1052,400
ACRES:
8.00 R2 NS
|GRAND LIST
10,754.00
10,754.00
-----------------------------------------------------------------------------------------------------------------------------------KNIGHT HOWARD A
HMSTD FILED |
MUNICIPAL
HOMESTEAD
NON-RESIDENTIAL
KNIGHT MARINA G
|LAND
124,200
63 PATTRELL RD
|BUILDING
292,600
|TOTAL REAL
416,800
416,800
NORWICH VT 05055
|SPEC EXEMPTION
0
TAX MAP:
11-055.000
|
PROP DESC: 1.1 ACRE & DWL
|
911 ADDR: 63 PATTRELL RD
|
PARCEL ID: 11-055.000 SPAN: 450-142-12497
|
HOUSESITE:
416,800
ACRES:
1.10 R1 T
|GRAND LIST
4,168.00
4,168.00
-----------------------------------------------------------------------------------------------------------------------------------KNIGHTS CALVIN E. REV. TRUST
HMSTD FILED |
MUNICIPAL
HOMESTEAD
NON-RESIDENTIAL
|LAND
152,900
PO BOX 213
|BUILDING
394,100
|TOTAL REAL
547,000
547,000
NORWICH VT 05055-0213
|SPEC EXEMPTION
0
TAX MAP:
11-050.140
|
PROP DESC: 10.58 ACRES & DWL
|
911 ADDR: 831 UNION VILLAGE RD
|
PARCEL ID: 11-050.140 SPAN: 450-142-13034
|
HOUSESITE:
516,500
ACRES:
10.58 R2 T
|GRAND LIST
5,470.00
5,470.00
-----------------------------------------------------------------------------------------------------------------------------------KOEHLER CONRAD F III
|
MUNICIPAL
HOMESTEAD
NON-RESIDENTIAL
KOEHLER TRACEY A
|LAND
102,700
91 HUNTLEY ST
|BUILDING
257,800
|TOTAL REAL
360,500
360,500
NORWICH VT 05055-9408
|SPEC EXEMPTION
0
TAX MAP:
20-106.000
|
PROP DESC: .49 ACRE & DWL
|
911 ADDR: 91 HUNTLEY ST
|
PARCEL ID: 20-106.000 SPAN: 450-142-12098
|
HOUSESITE:
360,500
ACRES:
0.49 R1 T
|GRAND LIST
3,605.00
3,605.00
------------------------------------------------------------------------------------------------------------------------------------
06/12/2015
01:32 pm
Town of Norwich Grand List
Grand List Report (Detail)
By Name For All Parcels In All Districts
Page 152
jbynum
PARCEL INFORMATION
TAXABLE VALUATIONS / EXEMPTIONS / CONTRACTS
-----------------------------------------------------------------------------------------------------------------------------------KOHL ELIZABETH
|
MUNICIPAL
HOMESTEAD
NON-RESIDENTIAL
|LAND
187,100
15 HAPPY HILL RD
|BUILDING
717,300
|TOTAL REAL
904,400
904,400
NORWICH VT 05055-0712
|SPEC EXEMPTION
0
TAX MAP:
15-011.300
|
PROP DESC: 10.00 ACRES & DWL
|
911 ADDR: 15 HAPPY HILL RD
|
PARCEL ID: 15-011.300 SPAN: 450-142-12017
|
HOUSESITE:
875,600
ACRES:
10.00 R2 T
|GRAND LIST
9,044.00
9,044.00
-----------------------------------------------------------------------------------------------------------------------------------KOREY KENNETH
HMSTD FILED |
MUNICIPAL
HOMESTEAD
NON-RESIDENTIAL
KOREY JANE S
|LAND
115,900
1226 NEW BOSTON RD
|BUILDING
362,600
|TOTAL REAL
478,500
478,500
NORWICH VT 05055
|SPEC EXEMPTION
0
TAX MAP:
05-017.000
|
PROP DESC: 11 ACRES & DWL
|
911 ADDR: 1226 NEW BOSTON RD
|
PARCEL ID: 05-017.000 SPAN: 450-142-12359
|
HOUSESITE:
450,300
ACRES:
11.00 R2 T
|GRAND LIST
4,785.00
4,785.00
-----------------------------------------------------------------------------------------------------------------------------------KORNFELD JEANNIE M
HMSTD FILED |
MUNICIPAL
HOMESTEAD
NON-RESIDENTIAL
KORNFELD MICHAEL S
|LAND
129,500
79 DOUGLAS RD
|BUILDING
460,800
|TOTAL REAL
590,300
590,300
NORWICH VT 05055
|SPEC EXEMPTION
0
TAX MAP:
10-129.000
|
PROP DESC: 2 ACRES & DWLG
|
911 ADDR: 79 DOUGLAS RD
|
PARCEL ID: 10-129.000 SPAN: 450-142-11895
|
HOUSESITE:
590,300
ACRES:
2.00 R1 T
|GRAND LIST
5,903.00
5,903.00
-----------------------------------------------------------------------------------------------------------------------------------KORNFELD MICHAEL S
|
MUNICIPAL
HOMESTEAD
NON-RESIDENTIAL
KORNFELD JEANNIE M
|LAND
113,200
79 DOUGLAS ROAD
|BUILDING
0
|TOTAL REAL
113,200
113,200
NORWICH VT 05055
|SPEC EXEMPTION
0
TAX MAP:
|
PROP DESC: 7.04 ACRES
|
911 ADDR: UPPER TURNPIKE RD
|
PARCEL ID: 10-134.200 SPAN: 450-142-13409
|
HOUSESITE:
0
ACRES:
7.04 M
S
|GRAND LIST
1,132.00
1,132.00
-----------------------------------------------------------------------------------------------------------------------------------KORTFELT JENNIFER A
HMSTD FILED |
MUNICIPAL
HOMESTEAD
NON-RESIDENTIAL
BIVONA ERIC J
|LAND
96,400
914 UNION VILLAGE RD
|BUILDING
119,000
|TOTAL REAL
215,400
215,400
NORWICH VT 05055
|SPEC EXEMPTION
0
TAX MAP:
11-123.000
|
PROP DESC: 3.75 ACRES & DWL
|
911 ADDR: 914 UNION VILLAGE RD
|
PARCEL ID: 11-123.000 SPAN: 450-142-13039
|
HOUSESITE:
213,400
ACRES:
3.75 R1 T
|GRAND LIST
2,154.00
2,154.00
------------------------------------------------------------------------------------------------------------------------------------
06/12/2015
01:32 pm
Town of Norwich Grand List
Grand List Report (Detail)
By Name For All Parcels In All Districts
Page 153
jbynum
PARCEL INFORMATION
TAXABLE VALUATIONS / EXEMPTIONS / CONTRACTS
-----------------------------------------------------------------------------------------------------------------------------------KOWALSKY SUSAN
HMSTD FILED |
MUNICIPAL
HOMESTEAD
NON-RESIDENTIAL
|LAND
67,500
P O 851
|BUILDING
186,000
|TOTAL REAL
253,500
253,500
NORWICH VT 05055
|SPEC EXEMPTION
0
TAX MAP:
16-083.000
|
PROP DESC: .4 ACRES & DWL
|
911 ADDR: 91 MCKENNA RD
|
PARCEL ID: 16-083.000 SPAN: 450-142-12191
|
HOUSESITE:
253,500
ACRES:
0.40 R1 T
|GRAND LIST
2,535.00
2,535.00
-----------------------------------------------------------------------------------------------------------------------------------KRASS PETER
HMSTD FILED |
MUNICIPAL
HOMESTEAD
NON-RESIDENTIAL
KRASS DIANA
|LAND
384,300
1399 NEW BOSTON ROAD
|BUILDING
275,100
|TOTAL REAL
659,400
659,400
NORWICH VT 05055
|SPEC EXEMPTION
0
TAX MAP:
04-058.000
|
PROP DESC: 99.5 ACRES & DWL INCL 1 ADDL LOT
|
911 ADDR: 1399 NEW BOSTON RD
|CURRENT USE
282,500
282,500
PARCEL ID: 04-058.000 SPAN: 450-142-12368
|
HOUSESITE:
362,100
ACRES:
99.50 R2 T
|GRAND LIST
3,769.00
3,769.00
-----------------------------------------------------------------------------------------------------------------------------------KRAVITZ TOBY P
|
MUNICIPAL
HOMESTEAD
NON-RESIDENTIAL
KRAVITZ JENNIFER R
|LAND
0
303 ROUTE 5 SOUTH UNIT 4
|BUILDING
333,100
|TOTAL REAL
333,100
333,100
NORWICH VT 05055
|SPEC EXEMPTION
0
TAX MAP:
15-073.010
|
PROP DESC: UNIT 1A AND 1B
|
911 ADDR: 303 US ROUTE 5 SOUTH 1A & B
|
PARCEL ID: 15-073.010 SPAN: 450-142-12747
|
HOUSESITE:
0
ACRES:
0.00 C
T
|GRAND LIST
3,331.00
3,331.00
-----------------------------------------------------------------------------------------------------------------------------------KRAWIEC DANIEL
HMSTD FILED |
MUNICIPAL
HOMESTEAD
NON-RESIDENTIAL
MILLER SUSAN K
|LAND
126,000
442 MAIN ST
|BUILDING
189,100
|TOTAL REAL
315,100
315,100
NORWICH VT 05055
|SPEC EXEMPTION
0
TAX MAP:
20-170.000
|
PROP DESC: .2 ACRE & DWL
|
911 ADDR: 442 MAIN ST
|
PARCEL ID: 20-170.000 SPAN: 450-142-12440
|
HOUSESITE:
315,100
ACRES:
0.20 R1 T
|GRAND LIST
3,151.00
3,151.00
-----------------------------------------------------------------------------------------------------------------------------------KRAWITT BRIAN J
HMSTD FILED |
MUNICIPAL
HOMESTEAD
NON-RESIDENTIAL
KRAWITT JENNIFER
|LAND
283,800
752 BRAGG HILL RD
|BUILDING
670,800
|TOTAL REAL
954,600
954,600
NORWICH VT 05055
|SPEC EXEMPTION
0
TAX MAP:
10-009.000
|
PROP DESC: 15 ACRES & DWL
|
911 ADDR: 752 BRAGG HILL RD
|
PARCEL ID: 10-009.000 SPAN: 450-142-11685
|
HOUSESITE:
911,700
ACRES:
15.00 R2 T
|GRAND LIST
9,546.00
9,546.00
------------------------------------------------------------------------------------------------------------------------------------
06/12/2015
01:32 pm
Town of Norwich Grand List
Grand List Report (Detail)
By Name For All Parcels In All Districts
Page 154
jbynum
PARCEL INFORMATION
TAXABLE VALUATIONS / EXEMPTIONS / CONTRACTS
-----------------------------------------------------------------------------------------------------------------------------------KREIDER MARY ELLEN
HMSTD FILED |
MUNICIPAL
HOMESTEAD
NON-RESIDENTIAL
|LAND
128,900
33 NEEDHAM RD
|BUILDING
430,800
|TOTAL REAL
559,700
559,700
NORWICH VT 05055-9511
|SPEC EXEMPTION
0
TAX MAP:
04-036.200
|
PROP DESC: 2.13 ACRES & DWL
|
911 ADDR: 33 NEEDHAM RD
|
PARCEL ID: 04-036.200 SPAN: 450-142-13129
|
HOUSESITE:
559,100
ACRES:
2.13 R1 T
|GRAND LIST
5,597.00
5,597.00
-----------------------------------------------------------------------------------------------------------------------------------KREMBS JESSE
|
MUNICIPAL
HOMESTEAD
NON-RESIDENTIAL
|LAND
84,200
72 HICKOK ST
|BUILDING
160,100
|TOTAL REAL
244,300
244,300
WINOOSKI VT 05404
|SPEC EXEMPTION
0
TAX MAP:
04-070.000
|
PROP DESC: 1 ACRE & DWL
|
911 ADDR: 1396 NEW BOSTON RD
|
PARCEL ID: 04-070.000 SPAN: 450-142-12367
|
HOUSESITE:
244,300
ACRES:
1.00 R1 S
|GRAND LIST
2,443.00
2,443.00
-----------------------------------------------------------------------------------------------------------------------------------KREMER RICHARD E TRUSTEE
|
MUNICIPAL
HOMESTEAD
NON-RESIDENTIAL
MCKRENSKY-KREMER ANDREA C TRUSTEE
|LAND
168,100
128 ELM ST
|BUILDING
478,300
|TOTAL REAL
646,400
646,400
NORWICH VT 05055
|SPEC EXEMPTION
0
TAX MAP:
20-273.000
|
PROP DESC: 2.8 ACRES & DWL
|
911 ADDR: 128 ELM ST
|
PARCEL ID: 20-273.000 SPAN: 450-142-11957
|
HOUSESITE:
642,800
ACRES:
2.80 R1 T
|GRAND LIST
6,464.00
6,464.00
-----------------------------------------------------------------------------------------------------------------------------------KRIEG CARL
|
MUNICIPAL
HOMESTEAD
NON-RESIDENTIAL
KNIPFER MARGARET
|LAND
76,100
PO BOX 515
|BUILDING
0
|TOTAL REAL
76,100
76,100
RIDGWAY CO 81432
|SPEC EXEMPTION
0
TAX MAP:
11-168.000
|
PROP DESC: 1.17 ACRES
|
911 ADDR: 144 HAWK PINE RD
|
PARCEL ID: 11-168.000 SPAN: 450-142-12532
|
HOUSESITE:
0
ACRES:
1.10 M
NS
|GRAND LIST
761.00
761.00
-----------------------------------------------------------------------------------------------------------------------------------KRIEG CARL E
|
MUNICIPAL
HOMESTEAD
NON-RESIDENTIAL
|LAND
205,600
PO BOX 515
|BUILDING
428,000
|TOTAL REAL
633,600
633,600
RIDGWAY CO 81432
|SPEC EXEMPTION
0
TAX MAP:
10-168.100
|
PROP DESC: 3.25 ACRES & APTS
|
911 ADDR: 574 NEW BOSTON RD
|
PARCEL ID: 10-168.100 SPAN: 450-142-12301
|
HOUSESITE:
0
ACRES:
3.25 CA NS
|GRAND LIST
6,336.00
6,336.00
------------------------------------------------------------------------------------------------------------------------------------
06/12/2015
01:32 pm
Town of Norwich Grand List
Grand List Report (Detail)
By Name For All Parcels In All Districts
Page 155
jbynum
PARCEL INFORMATION
TAXABLE VALUATIONS / EXEMPTIONS / CONTRACTS
-----------------------------------------------------------------------------------------------------------------------------------KRIEG JEAN A TRUSTEE
HMSTD FILED |
MUNICIPAL
HOMESTEAD
NON-RESIDENTIAL
|LAND
64,700
65 LADEAU RD
|BUILDING
175,200
|TOTAL REAL
239,900
152,750
87,150
NORWICH VT 05055
|SPEC EXEMPTION
0
0
TAX MAP:
05-039.000
|
PROP DESC: 3 ACRES & DUPLEX
|
911 ADDR: 65 LADEAU RD
|
PARCEL ID: 05-039.000 SPAN: 450-142-12146
|
HOUSESITE:
148,250
ACRES:
3.00 R1 T
|GRAND LIST
2,399.00
1,527.50
871.50
-----------------------------------------------------------------------------------------------------------------------------------KRIEG JEAN A TRUSTEE
|
MUNICIPAL
HOMESTEAD
NON-RESIDENTIAL
|LAND
63,500
65 LADEAU RD
|BUILDING
91,700
|TOTAL REAL
155,200
155,200
NORWICH VT 05055
|SPEC EXEMPTION
0
TAX MAP:
05-041.000
|
PROP DESC: 1.4 ACRES & 2 DWLS
|
911 ADDR: 81 LADEAU RD
|
PARCEL ID: 05-041.000 SPAN: 450-142-12142
|
HOUSESITE:
155,200
ACRES:
1.40 R1 T
|GRAND LIST
1,552.00
1,552.00
-----------------------------------------------------------------------------------------------------------------------------------KRIEG JEAN A TRUSTEE
|
MUNICIPAL
HOMESTEAD
NON-RESIDENTIAL
|LAND
63,500
65 LADEAU RD
|BUILDING
102,100
|TOTAL REAL
165,600
165,600
NORWICH VT 05055
|SPEC EXEMPTION
0
TAX MAP:
05-042.000
|
PROP DESC: 1.4 ACRES & 2 DWLS
|
911 ADDR: 91 LADEAU RD
|
PARCEL ID: 05-042.000 SPAN: 450-142-12143
|
HOUSESITE:
165,600
ACRES:
1.40 R1 T
|GRAND LIST
1,656.00
1,656.00
-----------------------------------------------------------------------------------------------------------------------------------KRIEG JEAN A TRUSTEE
|
MUNICIPAL
HOMESTEAD
NON-RESIDENTIAL
|LAND
61,700
65 LADEAU RD
|BUILDING
112,200
|TOTAL REAL
173,900
173,900
NORWICH VT 05055
|SPEC EXEMPTION
0
TAX MAP:
05-043.000
|
PROP DESC: 1 ACRE & 2 DWLS
|
911 ADDR: 95 LADEAU RD
|
PARCEL ID: 05-043.000 SPAN: 450-142-12144
|
HOUSESITE:
173,900
ACRES:
1.00 R1 T
|GRAND LIST
1,739.00
1,739.00
-----------------------------------------------------------------------------------------------------------------------------------KRIMMEL DAVID G
HMSTD FILED |
MUNICIPAL
HOMESTEAD
NON-RESIDENTIAL
|LAND
155,000
1512 BEAVER MEADOW RD
|BUILDING
330,600
|TOTAL REAL
485,600
485,600
NORWICH VT 05055
|SPEC EXEMPTION
0
TAX MAP:
03-056.000
|
PROP DESC: 10.2 ACRES & DWL
|
911 ADDR: 1512 BEAVER MEADOW RD
|
PARCEL ID: 03-056.000 SPAN: 450-142-11604
|
HOUSESITE:
459,200
ACRES:
10.20 R2 T
|GRAND LIST
4,856.00
4,856.00
------------------------------------------------------------------------------------------------------------------------------------
06/12/2015
01:32 pm
Town of Norwich Grand List
Grand List Report (Detail)
By Name For All Parcels In All Districts
Page 156
jbynum
PARCEL INFORMATION
TAXABLE VALUATIONS / EXEMPTIONS / CONTRACTS
-----------------------------------------------------------------------------------------------------------------------------------KRUSI ELIZABETH A
HMSTD FILED |
MUNICIPAL
HOMESTEAD
NON-RESIDENTIAL
|LAND
186,500
PO BOX 1254
|BUILDING
400,200
|TOTAL REAL
586,700
466,640
120,060
NORWICH VT 05055-1254
|SPEC EXEMPTION
0
0
TAX MAP:
10-096.100
|
PROP DESC: 16.56 ACRES & DWL
|
911 ADDR: 19 UPPER TURNPIKE RD
|
PARCEL ID: 10-096.100 SPAN: 450-142-13107
|
HOUSESITE:
419,440
ACRES:
16.56 R2 T
|GRAND LIST
5,867.00
4,666.40
1,200.60
-----------------------------------------------------------------------------------------------------------------------------------KUCER JOHN
HMSTD FILED |
MUNICIPAL
HOMESTEAD
NON-RESIDENTIAL
KUCER ROBERTA
|LAND
122,900
PO BOX 192
|BUILDING
203,000
|TOTAL REAL
325,900
325,900
NORWICH VT 05055-0192
|SPEC EXEMPTION
0
TAX MAP:
15-002.000
|
PROP DESC: 7 ACRES & DWL
|
911 ADDR: 554 NEWTON LN
|
PARCEL ID: 15-002.000 SPAN: 450-142-12793
|
HOUSESITE:
306,000
ACRES:
7.00 R2 T
|GRAND LIST
3,259.00
3,259.00
-----------------------------------------------------------------------------------------------------------------------------------KUHNS RICHARD F JR TRUSTEE
|
MUNICIPAL
HOMESTEAD
NON-RESIDENTIAL
|LAND
411,300
420 RIVERSIDE DR APT 7C
|BUILDING
258,100
|TOTAL REAL
669,400
669,400
NEW YORK NY 10025-7780
|SPEC EXEMPTION
0
TAX MAP:
05-117.000
|
PROP DESC: 113.34 ACRES & DWL
|
911 ADDR: 524 BRADLEY HILL RD
|
PARCEL ID: 05-117.000 SPAN: 450-142-11651
|
HOUSESITE:
359,900
ACRES:
113.34 R2 NS
|GRAND LIST
6,694.00
6,694.00
-----------------------------------------------------------------------------------------------------------------------------------KUNZ BRIAN
HMSTD FILED |
MUNICIPAL
HOMESTEAD
NON-RESIDENTIAL
PUTNAM LINDSAY D
|LAND
85,900
PO BOX 467
|BUILDING
173,100
|TOTAL REAL
259,000
259,000
NORWICH VT 05055-0457
|SPEC EXEMPTION
0
TAX MAP:
04-011.100
|
PROP DESC: 11.2 ACRES & DWL (15 AC MORE IN SHARON)
|
911 ADDR: 2844 CHAPEL HILL RD
|CURRENT USE
21,600
21,600
PARCEL ID: 04-011.100 SPAN: 450-142-12991
|
HOUSESITE:
236,100
ACRES:
11.20 R2 T
|GRAND LIST
2,374.00
2,374.00
-----------------------------------------------------------------------------------------------------------------------------------KUROKAWA MANABU
HMSTD FILED |
MUNICIPAL
HOMESTEAD
NON-RESIDENTIAL
KUROKAWA YOKO
|LAND
101,200
1024 NEW BOSTON RD
|BUILDING
283,200
|TOTAL REAL
384,400
384,400
NORWICH VT 05055
|SPEC EXEMPTION
0
TAX MAP:
05-136.000
|
PROP DESC: 2.53 ACRES & DWL
|
911 ADDR: 1024 NEW BOSTON RD
|
PARCEL ID: 05-136.000 SPAN: 450-142-12340
|
HOUSESITE:
382,300
ACRES:
2.53 R1 T
|GRAND LIST
3,844.00
3,844.00
------------------------------------------------------------------------------------------------------------------------------------
06/12/2015
01:32 pm
Town of Norwich Grand List
Grand List Report (Detail)
By Name For All Parcels In All Districts
Page 157
jbynum
PARCEL INFORMATION
TAXABLE VALUATIONS / EXEMPTIONS / CONTRACTS
-----------------------------------------------------------------------------------------------------------------------------------LABOMBARD GRACE M H TRUSTEE
|
MUNICIPAL
HOMESTEAD
NON-RESIDENTIAL
GRACE M H LABOMBARD REVOC TR
|LAND
234,000
12 RIDEOUT LN
|BUILDING
0
|TOTAL REAL
234,000
234,000
BROOKLINE NH 03033
|SPEC EXEMPTION
0
TAX MAP:
04-008.000
|
PROP DESC: 105 ACRES
|
911 ADDR: TURNPIKE RD
|CURRENT USE
220,500
220,500
PARCEL ID: 04-008.000 SPAN: 450-142-12981
|
HOUSESITE:
0
ACRES:
105.00 M
NS
|GRAND LIST
135.00
135.00
-----------------------------------------------------------------------------------------------------------------------------------LACEY ALICE BROWN TRUSTEE
HMSTD FILED |
MUNICIPAL
HOMESTEAD
NON-RESIDENTIAL
|LAND
165,300
720 PATTRELL RD
|BUILDING
307,800
|TOTAL REAL
473,100
473,100
NORWICH VT 05055-0605
|SPEC EXEMPTION
0
TAX MAP:
05-094.000
|
PROP DESC: 3.5 ACRES & DWL
|
911 ADDR: 720 PATTRELL RD
|
PARCEL ID: 05-094.000 SPAN: 450-142-12513
|
HOUSESITE:
467,000
ACRES:
3.50 R1 T
|GRAND LIST
4,731.00
4,731.00
-----------------------------------------------------------------------------------------------------------------------------------LADENSON JACK H
|
MUNICIPAL
HOMESTEAD
NON-RESIDENTIAL
LADENSON RUTH C
|LAND
371,600
449 HOGBACK RD
|BUILDING
668,500
|TOTAL REAL
1040,100
1040,100
NORWICH VT 05055-9489
|SPEC EXEMPTION
0
TAX MAP:
06-034.000
|
PROP DESC: 68.4 ACRES & DWL & ADDL LOT
|
911 ADDR: 449 HOGBACK RD
|CURRENT USE
259,200
259,200
PARCEL ID: 06-034.000 SPAN: 450-142-12050
|
HOUSESITE:
770,400
ACRES:
68.40 R2 T
|GRAND LIST
7,809.00
7,809.00
-----------------------------------------------------------------------------------------------------------------------------------LAJOIE MICHAEL S
HMSTD FILED |
MUNICIPAL
HOMESTEAD
NON-RESIDENTIAL
LAJOIE RITA
|LAND
258,300
14 OLCOTT RD
|BUILDING
1119,200
|TOTAL REAL
1377,500
1377,500
NORWICH VT 05055
|SPEC EXEMPTION
0
TAX MAP:
10-188.100
|
PROP DESC: 23.1 ACRES & DWL
|
911 ADDR: 14 OLCOTT RD
|
PARCEL ID: 10-188.100 SPAN: 450-142-13204
|
HOUSESITE:
1312,300
ACRES:
23.10 R2 T
|GRAND LIST
13,775.00
13,775.00
-----------------------------------------------------------------------------------------------------------------------------------LAKE MITCHELL TROUT CLUB INC
|
MUNICIPAL
HOMESTEAD
NON-RESIDENTIAL
|LAND
627,600
P O BOX 771
|BUILDING
0
|TOTAL REAL
627,600
627,600
HANOVER NH 03755
|SPEC EXEMPTION
0
TAX MAP:
09-001.000
|
PROP DESC: 348 ACRES
|
911 ADDR: TIGERTOWN RD
|CURRENT USE
583,000
583,000
PARCEL ID: 09-001.000 SPAN: 450-142-12821
|
HOUSESITE:
0
ACRES:
348.00 M
C
|GRAND LIST
446.00
446.00
------------------------------------------------------------------------------------------------------------------------------------
06/12/2015
01:32 pm
Town of Norwich Grand List
Grand List Report (Detail)
By Name For All Parcels In All Districts
Page 158
jbynum
PARCEL INFORMATION
TAXABLE VALUATIONS / EXEMPTIONS / CONTRACTS
-----------------------------------------------------------------------------------------------------------------------------------LAKE NORAH S
|
MUNICIPAL
HOMESTEAD
NON-RESIDENTIAL
POLASHENSKI CHRISTOPHER M
|LAND
132,800
97 KERWIN HILL RD
|BUILDING
160,600
|TOTAL REAL
293,400
293,400
NORWICH VT 05055
|SPEC EXEMPTION
0
TAX MAP:
05-095.300
|
PROP DESC: 56.44 ACRES AND DWELLING; FARM LOTS 3 &
|
911 ADDR: 742 VT ROUTE 132
|CURRENT USE
107,700
107,700
PARCEL ID: 05-095.300 SPAN: 450-142-13240
|
HOUSESITE:
156,500
ACRES:
56.44 R2 T
|GRAND LIST
1,857.00
1,857.00
-----------------------------------------------------------------------------------------------------------------------------------LAKE NORAH S
HMSTD FILED |
MUNICIPAL
HOMESTEAD
NON-RESIDENTIAL
POLASHENSKI CHRISTOPHER M
|LAND
40,900
97 KERWIN HILL RD
|BUILDING
222,800
|TOTAL REAL
263,700
85,780
177,920
NORWICH VT 05055
|SPEC EXEMPTION
0
0
TAX MAP:
|
PROP DESC: 21.19 ACRES AND DWLG; FARM LOTS 1 & 2
|
911 ADDR: 97 KERWIN HILL RD
|CURRENT USE
112,200
21,400
90,800
PARCEL ID: 05-095.400 SPAN: 450-142-13213
|CONTRACTS
4,800
4,800
HOUSESITE:
58,980
ACRES:
21.19 F
T
|GRAND LIST
1,467.00
595.80
871.20
-----------------------------------------------------------------------------------------------------------------------------------LAMPERTI AARON ET AL.
|
MUNICIPAL
HOMESTEAD
NON-RESIDENTIAL
LAMPERTI NOELLE ET AL.
|LAND
95,500
557 NEW BOSTON ROAD
|BUILDING
32,500
|TOTAL REAL
128,000
128,000
NORWICH VT 05055
|SPEC EXEMPTION
0
TAX MAP:
11-162.000
|
PROP DESC: 3.5 ACRES & DWLG
|
911 ADDR: 229 UPPER LOVELAND RD
|
PARCEL ID: 11-162.000 SPAN: 450-142-13091
|
HOUSESITE:
121,200
ACRES:
3.50 R2 T
|GRAND LIST
1,280.00
1,280.00
-----------------------------------------------------------------------------------------------------------------------------------LAMPERTI AARON M
HMSTD FILED |
MUNICIPAL
HOMESTEAD
NON-RESIDENTIAL
EANET FRANCES E
|LAND
385,600
557 NEW BOSTON RD
|BUILDING
318,300
|TOTAL REAL
703,900
525,700
178,200
NORWICH VT 05055
|SPEC EXEMPTION
0
0
TAX MAP:
10-161.000
|
PROP DESC: 86 ACRES & 2 DWLS INCL 1 ADDL LOT
|
911 ADDR: 557 NEW BOSTON RD
|CURRENT USE
178,900
178,900
PARCEL ID: 10-161.000 SPAN: 450-142-12297
|
HOUSESITE:
232,400
ACRES:
86.00 R2 T
|GRAND LIST
5,250.00
3,468.00
1,782.00
-----------------------------------------------------------------------------------------------------------------------------------LAMPERTI JOHN
HMSTD FILED |
MUNICIPAL
HOMESTEAD
NON-RESIDENTIAL
LAMPERTI CLAUDIA
|LAND
187,800
244 UPPER LOVELAND RD
|BUILDING
132,900
|TOTAL REAL
320,700
320,700
NORWICH VT 05055
|SPEC EXEMPTION
0
TAX MAP:
11-159.000
|
PROP DESC: 38.12 ACRES & DWL
|
911 ADDR: 244 UPPER LOVELAND RD
|
PARCEL ID: 11-159.000 SPAN: 450-142-13092
|
HOUSESITE:
220,000
ACRES:
38.12 R2 T
|GRAND LIST
3,207.00
3,207.00
------------------------------------------------------------------------------------------------------------------------------------
06/12/2015
01:32 pm
Town of Norwich Grand List
Grand List Report (Detail)
By Name For All Parcels In All Districts
Page 159
jbynum
PARCEL INFORMATION
TAXABLE VALUATIONS / EXEMPTIONS / CONTRACTS
-----------------------------------------------------------------------------------------------------------------------------------LANDAU STEVEN
|
MUNICIPAL
HOMESTEAD
NON-RESIDENTIAL
LANDAU BARBARA
|LAND
376,600
10 LONGFELLOW RD
|BUILDING
399,000
|TOTAL REAL
775,600
775,600
WINCHESTER MA 01890
|SPEC EXEMPTION
0
TAX MAP:
11-124.000
|
PROP DESC: 102 ACRES & DWL
|
911 ADDR: 784 UNION VILLAGE RD
|CURRENT USE
249,200
249,200
PARCEL ID: 11-124.000 SPAN: 450-142-13031
|
HOUSESITE:
496,800
ACRES:
102.00 R2 NS
|GRAND LIST
5,264.00
5,264.00
-----------------------------------------------------------------------------------------------------------------------------------LANG CHRISTOPHER W
|
MUNICIPAL
HOMESTEAD
NON-RESIDENTIAL
LANG CAROLE L
|LAND
279,800
208 HAPPY HILL RD
|BUILDING
438,100
|TOTAL REAL
717,900
717,900
NORWICH VT 05055
|SPEC EXEMPTION
0
TAX MAP:
15-012.000
|
PROP DESC: 68.22 ACRES & DWL
|
911 ADDR: 208 HAPPY HILL RD
|CURRENT USE
129,700
129,700
PARCEL ID: 15-012.000 SPAN: 450-142-12021
|
HOUSESITE:
564,700
ACRES:
68.22 R2 T
|GRAND LIST
5,882.00
5,882.00
-----------------------------------------------------------------------------------------------------------------------------------LANGHUS JOHN L
HMSTD FILED |
MUNICIPAL
HOMESTEAD
NON-RESIDENTIAL
LANGHUS JENNIFER A
|LAND
129,500
517 UNION VILLAGE ROAD
|BUILDING
482,200
|TOTAL REAL
611,700
611,700
NORWICH VT 05055
|SPEC EXEMPTION
0
TAX MAP:
11-026.200
|
PROP DESC: 2 ACRES & DWL
|
911 ADDR: 517 UNION VILLAGE RD
|
PARCEL ID: 11-026.200 SPAN: 450-142-13020
|
HOUSESITE:
611,700
ACRES:
2.00 R1 T
|GRAND LIST
6,117.00
6,117.00
-----------------------------------------------------------------------------------------------------------------------------------LANGLOIS ALBERT L
HMSTD FILED |
MUNICIPAL
HOMESTEAD
NON-RESIDENTIAL
LANGLOIS BETTY
|LAND
126,900
201 BRADLEY HILL RD
|BUILDING
204,400
|TOTAL REAL
331,300
331,300
NORWICH VT 05055
|SPEC EXEMPTION
0
TAX MAP:
11-035.000
|
PROP DESC: 1.7 ACRES & DWL
|
911 ADDR: 201 BRADLEY HILL RD
|
PARCEL ID: 11-035.000 SPAN: 450-142-11643
|
HOUSESITE:
331,300
ACRES:
1.70 R1 T
|GRAND LIST
3,313.00
3,313.00
-----------------------------------------------------------------------------------------------------------------------------------LANGLOIS MARK
HMSTD FILED |
MUNICIPAL
HOMESTEAD
NON-RESIDENTIAL
|LAND
598,000
153 BRADLEY HILL RD
|BUILDING
422,800
|TOTAL REAL
1020,800
953,400
67,400
NORWICH VT 05055
|SPEC EXEMPTION
0
0
TAX MAP:
11-045.400
|
PROP DESC: 143.1 ACRES & 2 DWLGS & ADDL LOT
|
911 ADDR: 136 BRADLEY HILL RD
|CURRENT USE
385,400
318,000
67,400
PARCEL ID: 11-045.400 SPAN: 450-142-11639
|
HOUSESITE:
609,400
ACRES:
143.10 R2 T
|GRAND LIST
6,354.00
6,354.00
0.00
------------------------------------------------------------------------------------------------------------------------------------
06/12/2015
01:32 pm
Town of Norwich Grand List
Grand List Report (Detail)
By Name For All Parcels In All Districts
Page 160
jbynum
PARCEL INFORMATION
TAXABLE VALUATIONS / EXEMPTIONS / CONTRACTS
-----------------------------------------------------------------------------------------------------------------------------------LAROCK GREGORY J
HMSTD FILED |
MUNICIPAL
HOMESTEAD
NON-RESIDENTIAL
LAROCK TERI B
|LAND
111,600
28 LOVELAND RD
|BUILDING
383,100
|TOTAL REAL
494,700
494,700
NORWICH VT 05055
|SPEC EXEMPTION
0
TAX MAP:
16-116.400
|
PROP DESC: 6.09 ACRES & DWL
|
911 ADDR: 28 LOVELAND RD
|
PARCEL ID: 16-116.400 SPAN: 450-142-12161
|
HOUSESITE:
477,600
ACRES:
6.09 R2 T
|GRAND LIST
4,947.00
4,947.00
-----------------------------------------------------------------------------------------------------------------------------------LARROW LONNIE A
|
MUNICIPAL
HOMESTEAD
NON-RESIDENTIAL
|LAND
98,700
88 ICE HOUSE RD
|BUILDING
700
|TOTAL REAL
99,400
99,400
LEBANON NH 03766-2047
|SPEC EXEMPTION
0
TAX MAP:
10-166.000
|
PROP DESC: 2.94 ACRES
|
911 ADDR: 617 NEW BOSTON RD
|
PARCEL ID: 10-166.000 SPAN: 450-142-12306
|
HOUSESITE:
0
ACRES:
2.94 M
NS
|GRAND LIST
994.00
994.00
-----------------------------------------------------------------------------------------------------------------------------------LASER MARK S
HMSTD FILED |
MUNICIPAL
HOMESTEAD
NON-RESIDENTIAL
GREEN ALICIA N
|LAND
110,600
43 HAZEN ST
|BUILDING
232,000
|TOTAL REAL
342,600
342,600
NORWICH VT 05055
|SPEC EXEMPTION
0
TAX MAP:
20-197.000
|
PROP DESC: 0.25 ACRE & DUPLEX
|
911 ADDR: 43 HAZEN ST
|
PARCEL ID: 20-197.000 SPAN: 450-142-12031
|
HOUSESITE:
342,600
ACRES:
0.25 R1 T
|GRAND LIST
3,426.00
3,426.00
-----------------------------------------------------------------------------------------------------------------------------------LAUREN`S VERMONT LLC
|
MUNICIPAL
HOMESTEAD
NON-RESIDENTIAL
C/O L. HALPERN
|LAND
187,100
117 DOUGLAS ROAD
|BUILDING
669,100
|TOTAL REAL
856,200
856,200
NORWICH VT 05055
|SPEC EXEMPTION
0
TAX MAP:
10-131.000
|
PROP DESC: 10 ACRES & DWL
|
911 ADDR: 117 DOUGLAS RD
|
PARCEL ID: 10-131.000 SPAN: 450-142-11908
|
HOUSESITE:
827,400
ACRES:
10.00 R2 T
|GRAND LIST
8,562.00
8,562.00
-----------------------------------------------------------------------------------------------------------------------------------LAURIN SUSAN D
|
MUNICIPAL
HOMESTEAD
NON-RESIDENTIAL
DERRICK DAVID A
|LAND
34,300
PO BOX 1382
|BUILDING
13,900
|TOTAL REAL
48,200
48,200
WHITE RIVER JUNCTION VT 05001
|SPEC EXEMPTION
0
TAX MAP:
09-070.000
|
PROP DESC: 1 ACRE & CAMP
|
911 ADDR: 577 BURTON WOODS RD
|
PARCEL ID: 09-070.000 SPAN: 450-142-12606
|
HOUSESITE:
48,200
ACRES:
1.00 S1 S
|GRAND LIST
482.00
482.00
------------------------------------------------------------------------------------------------------------------------------------
06/12/2015
01:32 pm
Town of Norwich Grand List
Grand List Report (Detail)
By Name For All Parcels In All Districts
Page 161
jbynum
PARCEL INFORMATION
TAXABLE VALUATIONS / EXEMPTIONS / CONTRACTS
-----------------------------------------------------------------------------------------------------------------------------------LAVOIE JANICE REV LIVING TRUST
HMSTD FILED |
MUNICIPAL
HOMESTEAD
NON-RESIDENTIAL
|LAND
127,400
50 CHURCH ST
|BUILDING
287,700
|TOTAL REAL
415,100
229,135
185,965
NORWICH VT 05055-9737
|SPEC EXEMPTION
0
0
TAX MAP:
16-046.000
|
PROP DESC: 0.57 ACRE & DWL/2 APTS
|
911 ADDR: 50 CHURCH ST
|
PARCEL ID: 16-046.000 SPAN: 450-142-11849
|
HOUSESITE:
229,135
ACRES:
0.57 R1 T
|GRAND LIST
4,151.00
2,291.35
1,859.65
-----------------------------------------------------------------------------------------------------------------------------------LAWE JOHN
HMSTD FILED |
MUNICIPAL
HOMESTEAD
NON-RESIDENTIAL
LAWE JEAN M C
|LAND
193,000
PO BOX 66
|BUILDING
447,300
|TOTAL REAL
640,300
640,300
NORWICH VT 05055-0066
|SPEC EXEMPTION
0
TAX MAP:
11-132.000
|
PROP DESC: 12.13 ACRES & DWL
|
911 ADDR: 60 BLOOD HILL RD
|
PARCEL ID: 11-132.000 SPAN: 450-142-11623
|
HOUSESITE:
605,400
ACRES:
12.13 R2 T
|GRAND LIST
6,403.00
6,403.00
-----------------------------------------------------------------------------------------------------------------------------------LAWE JOHN
|
MUNICIPAL
HOMESTEAD
NON-RESIDENTIAL
LAWE JEAN M C
|LAND
29,800
PO BOX 66
|BUILDING
0
|TOTAL REAL
29,800
29,800
NORWICH VT 05055-0066
|SPEC EXEMPTION
0
TAX MAP:
11-135.000
|
PROP DESC: 7.7 ACRES WOODLOT
|
911 ADDR: BLOOD HILL RD
|
PARCEL ID: 11-135.000 SPAN: 450-142-11626
|
HOUSESITE:
0
ACRES:
7.70 M
T
|GRAND LIST
298.00
298.00
-----------------------------------------------------------------------------------------------------------------------------------LAWLOR BONNIE
HMSTD FILED |
MUNICIPAL
HOMESTEAD
NON-RESIDENTIAL
LAWLOR WILLIAM J.
|LAND
127,200
22 CARPENTER ST
|BUILDING
180,300
|TOTAL REAL
307,500
307,500
NORWICH VT 05055
|SPEC EXEMPTION
0
TAX MAP:
20-221.000
|
PROP DESC: 0.22 ACRE & DWL
|
911 ADDR: 22 CARPENTER ST
|
PARCEL ID: 20-221.000 SPAN: 450-142-11783
|
HOUSESITE:
307,500
ACRES:
0.22 R1 T
|GRAND LIST
3,075.00
3,075.00
-----------------------------------------------------------------------------------------------------------------------------------LAYNE CRAIG DAVID
HMSTD FILED |
MUNICIPAL
HOMESTEAD
NON-RESIDENTIAL
LAYNE AMY FORSTER
|LAND
91,500
782 TIGERTOWN RD
|BUILDING
155,000
|TOTAL REAL
246,500
246,500
WHITE RIVER JUNCTION VT 05001
|SPEC EXEMPTION
0
TAX MAP:
08-003.000
|
PROP DESC: 8 ACRES & DWL
|
911 ADDR: 782 TIGERTOWN RD
|
PARCEL ID: 08-003.000 SPAN: 450-142-12849
|
HOUSESITE:
228,100
ACRES:
8.00 R2 T
|GRAND LIST
2,465.00
2,465.00
------------------------------------------------------------------------------------------------------------------------------------
06/12/2015
01:32 pm
Town of Norwich Grand List
Grand List Report (Detail)
By Name For All Parcels In All Districts
Page 162
jbynum
PARCEL INFORMATION
TAXABLE VALUATIONS / EXEMPTIONS / CONTRACTS
-----------------------------------------------------------------------------------------------------------------------------------LAYTON JOHN
HMSTD FILED |
MUNICIPAL
HOMESTEAD
NON-RESIDENTIAL
LAYTON MARY DRAKE
|LAND
127,700
1463 UNION VILLAGE RD
|BUILDING
277,300
|TOTAL REAL
405,000
338,448
66,552
NORWICH VT 05055
|SPEC EXEMPTION
0
0
TAX MAP:
05-083.000
|
PROP DESC: 10.1 ACRES & DWL W/APT
|
911 ADDR: 1463 UNION VILLAGE RD
|
PARCEL ID: 05-083.000 SPAN: 450-142-13067
|
HOUSESITE:
309,348
ACRES:
10.10 R2 T
|GRAND LIST
4,050.00
3,384.48
665.52
-----------------------------------------------------------------------------------------------------------------------------------LEATHERWOOD DAVID B
|
MUNICIPAL
HOMESTEAD
NON-RESIDENTIAL
LEATHERWOOD LORETTA E
|LAND
284,000
500 SAWGRASS PLACE
|BUILDING
1098,500
|TOTAL REAL
1382,500
1382,500
SANIBEL FL 33957
|SPEC EXEMPTION
0
TAX MAP:
10-001.100
|
PROP DESC: 15.08 ACRES & DWELLING
|
911 ADDR: 741 BRAGG HILL RD
|
PARCEL ID: 10-001.100 SPAN: 450-142-11680
|
HOUSESITE:
1339,400
ACRES:
15.08 R2 NS
|GRAND LIST
13,825.00
13,825.00
-----------------------------------------------------------------------------------------------------------------------------------LEATHERWOOD DAVID B
|
MUNICIPAL
HOMESTEAD
NON-RESIDENTIAL
LEATHERWOOD LORETTA E
|LAND
815,600
500 SAWGRASS PLACE
|BUILDING
1839,300
|TOTAL REAL
2654,900
2654,900
SANIBEL FL 33957
|SPEC EXEMPTION
0
TAX MAP:
12-041.000
|
PROP DESC: 3.6 ACRES & 2 DWL
|
911 ADDR: 1224 US ROUTE 5 NORTH
|
PARCEL ID: 12-041.000 SPAN: 450-142-12708
|
HOUSESITE:
2371,400
ACRES:
3.60 R1 NS
|GRAND LIST
26,549.00
26,549.00
-----------------------------------------------------------------------------------------------------------------------------------LEATON ROBERT N
HMSTD FILED |
MUNICIPAL
HOMESTEAD
NON-RESIDENTIAL
|LAND
155,000
PO BOX 323
|BUILDING
402,800
|TOTAL REAL
557,800
557,800
NORWICH VT 05055-0323
|SPEC EXEMPTION
0
TAX MAP:
04-002.600
|
PROP DESC: 11.3 ACRES & DWL
|
911 ADDR: 35 OLD ORCHARD LN
|
PARCEL ID: 04-002.600 SPAN: 450-142-12956
|
HOUSESITE:
528,500
ACRES:
11.30 R2 T
|GRAND LIST
5,578.00
5,578.00
-----------------------------------------------------------------------------------------------------------------------------------LEAVEY JOHANNES ET AL
|
MUNICIPAL
HOMESTEAD
NON-RESIDENTIAL
APPLEBY ROBIN
|LAND
114,400
1320 E MADISON PARK 3
|BUILDING
342,400
|TOTAL REAL
456,800
456,800
CHICAGO IL 60615
|SPEC EXEMPTION
0
TAX MAP:
03-054.200
|
PROP DESC: 5.45 ACRES & DWL
|
911 ADDR: 27 STAGECOACH RD
|
PARCEL ID: 03-054.200 SPAN: 450-142-11608
|
HOUSESITE:
444,800
ACRES:
5.45 R1 NS
|GRAND LIST
4,568.00
4,568.00
------------------------------------------------------------------------------------------------------------------------------------
06/12/2015
01:32 pm
Town of Norwich Grand List
Grand List Report (Detail)
By Name For All Parcels In All Districts
Page 163
jbynum
PARCEL INFORMATION
TAXABLE VALUATIONS / EXEMPTIONS / CONTRACTS
-----------------------------------------------------------------------------------------------------------------------------------LEAZIER CHRISTOPHER J
HMSTD FILED |
MUNICIPAL
HOMESTEAD
NON-RESIDENTIAL
ALLEN AMY R
|LAND
150,900
101 CHURCH ST
|BUILDING
328,500
|TOTAL REAL
479,400
479,400
NORWICH VT 05055
|SPEC EXEMPTION
0
TAX MAP:
16-027.000
|
PROP DESC: 1.2 ACRES & DWL
|
911 ADDR: 101 CHURCH ST
|
PARCEL ID: 16-027.000 SPAN: 450-142-11858
|
HOUSESITE:
479,400
ACRES:
1.20 R1 T
|GRAND LIST
4,794.00
4,794.00
-----------------------------------------------------------------------------------------------------------------------------------LEBER BARTLETT F
|
MUNICIPAL
HOMESTEAD
NON-RESIDENTIAL
ROCKWELL ANDREW R
|LAND
751,000
PO BOX 422
|BUILDING
527,300
|TOTAL REAL
1278,300
1278,300
NORWICH VT 05055
|SPEC EXEMPTION
0
TAX MAP:
11-112.000
|
PROP DESC: 3.72 AC & DWL INCL 1 ADDL LOT (NV)
|
911 ADDR: 288 US ROUTE 5 NORTH
|
PARCEL ID: 11-112.000 SPAN: 450-142-12667
|
HOUSESITE:
1247,300
ACRES:
3.72 R1 T
|GRAND LIST
12,783.00
12,783.00
-----------------------------------------------------------------------------------------------------------------------------------LEDGES ON RIVER ROAD
|
MUNICIPAL
HOMESTEAD
NON-RESIDENTIAL
THRALL, ROGER
|LAND
100,900
2243 GODFREY RD
|BUILDING
688,400
|TOTAL REAL
789,300
789,300
EAST THETFORD VT 05043
|SPEC EXEMPTION
0
TAX MAP:
16-058.000
|
PROP DESC: 2.3 ACRES & 2 APT BLDGS & DWLG
|
911 ADDR: 345 RIVER RD
|
PARCEL ID: 16-058.000 SPAN: 450-142-12658
|
HOUSESITE:
0
ACRES:
2.30 CA S
|GRAND LIST
7,893.00
7,893.00
-----------------------------------------------------------------------------------------------------------------------------------LEFCOURT REBECCA
|
MUNICIPAL
HOMESTEAD
NON-RESIDENTIAL
KERWIN AMY
|LAND
128,400
86 BRADFORD AV
|BUILDING
900
|TOTAL REAL
129,300
129,300
HAVERHILL MA 01835
|SPEC EXEMPTION
0
TAX MAP:
05-046.100
|
PROP DESC: 2.3 ACRES & MOBILE HOME
|
911 ADDR: 468 KERWIN HILL RD
|
PARCEL ID: 05-046.100 SPAN: 450-142-12133
|
HOUSESITE:
127,900
ACRES:
2.30 MHL NS
|GRAND LIST
1,293.00
1,293.00
-----------------------------------------------------------------------------------------------------------------------------------LEIGH JOHN S
HMSTD FILED |
MUNICIPAL
HOMESTEAD
NON-RESIDENTIAL
PINES EYDIE D
|LAND
144,700
318 HOPSON RD
|BUILDING
172,300
|TOTAL REAL
317,000
317,000
NORWICH VT 05055
|SPEC EXEMPTION
0
TAX MAP:
15-050.000
|
PROP DESC: 2.6 ACRES & DWL
|
911 ADDR: 318 HOPSON RD
|
PARCEL ID: 15-050.000 SPAN: 450-142-12070
|
HOUSESITE:
314,300
ACRES:
2.60 R1 T
|GRAND LIST
3,170.00
3,170.00
------------------------------------------------------------------------------------------------------------------------------------
06/12/2015
01:32 pm
Town of Norwich Grand List
Grand List Report (Detail)
By Name For All Parcels In All Districts
Page 164
jbynum
PARCEL INFORMATION
TAXABLE VALUATIONS / EXEMPTIONS / CONTRACTS
-----------------------------------------------------------------------------------------------------------------------------------LEMAL DAVID MARKHAM
HMSTD FILED |
MUNICIPAL
HOMESTEAD
NON-RESIDENTIAL
|LAND
126,700
38 HAWK PINE RD
|BUILDING
410,300
|TOTAL REAL
537,000
537,000
NORWICH VT 05055
|SPEC EXEMPTION
0
TAX MAP:
11-185.000
|
PROP DESC: 3.02 ACRES & DWL
|
911 ADDR: 38 HAWK PINE RD
|
PARCEL ID: 11-185.000 SPAN: 450-142-12522
|
HOUSESITE:
532,400
ACRES:
3.02 R1 T
|GRAND LIST
5,370.00
5,370.00
-----------------------------------------------------------------------------------------------------------------------------------LEMS AMY L
HMSTD FILED |
MUNICIPAL
HOMESTEAD
NON-RESIDENTIAL
|LAND
91,100
171 ROUTE 5 NORTH
|BUILDING
190,500
|TOTAL REAL
281,600
218,700
62,900
NORWICH VT 05055
|SPEC EXEMPTION
0
0
TAX MAP:
16-110.100
|
PROP DESC: 2.5 ACRES & 2 DWLS & 1 ADDL LOT (NV)
|
911 ADDR: 171 US ROUTE 5 NORTH
|
PARCEL ID: 16-110.100 SPAN: 450-142-12664
|
HOUSESITE:
216,900
ACRES:
2.50 R1 T
|GRAND LIST
2,816.00
2,187.00
629.00
-----------------------------------------------------------------------------------------------------------------------------------LENCK-SANTINI PIERRE-PASCAL
HMSTD FILED |
MUNICIPAL
HOMESTEAD
NON-RESIDENTIAL
SAINT JEAN CATHERINE
|LAND
88,600
24 RIDGEWOOD HILL RD
|BUILDING
159,300
|TOTAL REAL
247,900
247,900
NORWICH VT 05055
|SPEC EXEMPTION
0
TAX MAP:
03-020.000
|
PROP DESC: 10.4 ACRES & DWL
|
911 ADDR: 24 RIDGEWOOD HILL
|
PARCEL ID: 03-020.000 SPAN: 450-142-12258
|
HOUSESITE:
223,900
ACRES:
10.40 R2 T
|GRAND LIST
2,479.00
2,479.00
-----------------------------------------------------------------------------------------------------------------------------------LENZNER JEAN F
HMSTD FILED |
MUNICIPAL
HOMESTEAD
NON-RESIDENTIAL
|LAND
92,200
24 JONES CIRCLE
|BUILDING
230,000
|TOTAL REAL
322,200
322,200
NORWICH VT 05055
|SPEC EXEMPTION
0
TAX MAP:
20-287.000
|
PROP DESC: .25 ACRE & DWL
|
911 ADDR: 24 JONES CIR
|
PARCEL ID: 20-287.000 SPAN: 450-142-12109
|
HOUSESITE:
322,200
ACRES:
0.25 R1 T
|GRAND LIST
3,222.00
3,222.00
-----------------------------------------------------------------------------------------------------------------------------------LEOPOLD KENNETH A
|
MUNICIPAL
HOMESTEAD
NON-RESIDENTIAL
LEOPOLD LORI E
|LAND
126,100
3 MOUNTAIN ESTATES
|BUILDING
268,800
|TOTAL REAL
394,900
394,900
AVON CT 06001
|SPEC EXEMPTION
0
TAX MAP:
16-149.000
|
PROP DESC: 1.5 ACRES & DWL
|
911 ADDR: 503 HAWK PINE RD
|
PARCEL ID: 16-149.000 SPAN: 450-142-12577
|
HOUSESITE:
394,900
ACRES:
1.50 R1 NS
|GRAND LIST
3,949.00
3,949.00
------------------------------------------------------------------------------------------------------------------------------------
06/12/2015
01:32 pm
Town of Norwich Grand List
Grand List Report (Detail)
By Name For All Parcels In All Districts
Page 165
jbynum
PARCEL INFORMATION
TAXABLE VALUATIONS / EXEMPTIONS / CONTRACTS
-----------------------------------------------------------------------------------------------------------------------------------LES MITCHEL BROOK LLC
|
MUNICIPAL
HOMESTEAD
NON-RESIDENTIAL
|LAND
117,600
357 EAST 57TH ST APT 9A
|BUILDING
0
|TOTAL REAL
117,600
117,600
NEW YORK NY 10022
|SPEC EXEMPTION
0
TAX MAP:
08-001.000
|
PROP DESC: 54 ACRES IN NORWICH - REST IN SHARON
|
911 ADDR: 844 TIGERTOWN RD
|CURRENT USE
110,526
110,526
PARCEL ID: 08-001.000 SPAN: 450-142-12852
|
HOUSESITE:
0
ACRES:
54.00 M
NS
|GRAND LIST
70.74
70.74
-----------------------------------------------------------------------------------------------------------------------------------LESKOVAR LUDWIG A
HMSTD FILED |
MUNICIPAL
HOMESTEAD
NON-RESIDENTIAL
LESKOVAR DIANA HANES
|LAND
131,800
674 BEAVER MEADOW RD
|BUILDING
429,400
|TOTAL REAL
561,200
455,120
106,080
NORWICH VT 05055
|SPEC EXEMPTION
0
0
TAX MAP:
10-033.000
|
PROP DESC: 2.5 ACRES & DWL
|
911 ADDR: 674 BEAVER MEADOW RD
|
PARCEL ID: 10-033.000 SPAN: 450-142-11590
|
HOUSESITE:
452,820
ACRES:
2.50 R1 T
|GRAND LIST
5,612.00
4,551.20
1,060.80
-----------------------------------------------------------------------------------------------------------------------------------LESKOVAR LUDWIG A
|
MUNICIPAL
HOMESTEAD
NON-RESIDENTIAL
LESKOVAR DIANA HANES
|LAND
95,900
674 BEAVER MEADOW RD
|BUILDING
1,700
|TOTAL REAL
97,600
97,600
NORWICH VT 05055
|SPEC EXEMPTION
0
TAX MAP:
11-067.000
|
PROP DESC: 3.32 ACRES & DW NV
|
911 ADDR: 1045 UNION VILLAGE RD
|
PARCEL ID: 11-067.000 SPAN: 450-142-13045
|
HOUSESITE:
0
ACRES:
3.32 M
T
|GRAND LIST
976.00
976.00
-----------------------------------------------------------------------------------------------------------------------------------LESOURD NANCY E
HMSTD FILED |
MUNICIPAL
HOMESTEAD
NON-RESIDENTIAL
|LAND
103,100
PO BOX 267
|BUILDING
155,700
|TOTAL REAL
258,800
258,800
NORWICH VT 05055-0267
|SPEC EXEMPTION
0
TAX MAP:
20-263.000
|
PROP DESC: .21 ACRE & DWL
|
911 ADDR: 11 HOPSON RD
|
PARCEL ID: 20-263.000 SPAN: 450-142-12235
|
HOUSESITE:
258,800
ACRES:
0.21 R1 T
|GRAND LIST
2,588.00
2,588.00
-----------------------------------------------------------------------------------------------------------------------------------LEVIN THEODORE
HMSTD FILED |
MUNICIPAL
HOMESTEAD
NON-RESIDENTIAL
|LAND
189,300
DEPT. OF MUSIC DARTMOUTH COLLEGE
|BUILDING
380,500
|TOTAL REAL
569,800
569,800
HANOVER NH 03755
|SPEC EXEMPTION
0
TAX MAP:
14-030.000
|
PROP DESC: 10.8 ACRES & BARN DWL
|
911 ADDR: 208 JOSHUA RD
|
PARCEL ID: 14-030.000 SPAN: 450-142-12802
|
HOUSESITE:
538,700
ACRES:
10.80 R2 T
|GRAND LIST
5,698.00
5,698.00
------------------------------------------------------------------------------------------------------------------------------------
06/12/2015
01:32 pm
Town of Norwich Grand List
Grand List Report (Detail)
By Name For All Parcels In All Districts
Page 166
jbynum
PARCEL INFORMATION
TAXABLE VALUATIONS / EXEMPTIONS / CONTRACTS
-----------------------------------------------------------------------------------------------------------------------------------LEVINE SHIFRA TRUSTEE
HMSTD FILED |
MUNICIPAL
HOMESTEAD
NON-RESIDENTIAL
MULLEY LINDA L TRUSTEE
|LAND
104,300
PO BOX 7
|BUILDING
248,300
|TOTAL REAL
352,600
316,975
35,625
NORWICH VT 05055-0007
|SPEC EXEMPTION
0
0
TAX MAP:
06-035.000
|
PROP DESC: 2.48 ACRES & DWL
|
911 ADDR: 467 HOGBACK RD
|
PARCEL ID: 06-035.000 SPAN: 450-142-12052
|
HOUSESITE:
315,275
ACRES:
2.48 R1 T
|GRAND LIST
3,526.00
3,169.75
356.25
-----------------------------------------------------------------------------------------------------------------------------------LEVINGER LAURIE
HMSTD FILED |
MUNICIPAL
HOMESTEAD
NON-RESIDENTIAL
|LAND
116,200
28 MCKENNA RD
|BUILDING
250,900
|TOTAL REAL
367,100
256,746
110,354
NORWICH VT 05055
|SPEC EXEMPTION
0
0
TAX MAP:
16-068.000
|
PROP DESC: 4.61 ACRES & DWL
|
911 ADDR: 28 MCKENNA RD
|
PARCEL ID: 16-068.000 SPAN: 450-142-12176
|
HOUSESITE:
245,046
ACRES:
4.61 R1 T
|GRAND LIST
3,671.00
2,567.46
1,103.54
-----------------------------------------------------------------------------------------------------------------------------------LEVY LAWRENCE CAMPBELL
HMSTD FILED |
MUNICIPAL
HOMESTEAD
NON-RESIDENTIAL
LEVY JENNIFER F
|LAND
104,000
114 ACADEMY RD
|BUILDING
418,300
|TOTAL REAL
522,300
522,300
NORWICH VT 05055
|SPEC EXEMPTION
0
TAX MAP:
06-076.000
|
PROP DESC: .62 ACRE & DWL
|
911 ADDR: 114 ACADEMY RD
|
PARCEL ID: 06-076.000 SPAN: 450-142-13078
|
HOUSESITE:
522,300
ACRES:
0.62 R1 T
|GRAND LIST
5,223.00
5,223.00
-----------------------------------------------------------------------------------------------------------------------------------LEVY NORMAN
HMSTD FILED |
MUNICIPAL
HOMESTEAD
NON-RESIDENTIAL
ORGREN ROSEMARY
|LAND
136,700
16 KOCH RD
|BUILDING
438,500
|TOTAL REAL
575,200
497,900
77,300
NORWICH VT 05055
|SPEC EXEMPTION
0
0
TAX MAP:
20-167.000
|
PROP DESC: 3.59 ACRES & DWL
|
911 ADDR: 16 KOCH RD
|
PARCEL ID: 20-167.000 SPAN: 450-142-12149
|
HOUSESITE:
490,700
ACRES:
3.59 R1 T
|GRAND LIST
5,752.00
4,979.00
773.00
-----------------------------------------------------------------------------------------------------------------------------------LEWY ROBERT TRUSTEE
|
MUNICIPAL
HOMESTEAD
NON-RESIDENTIAL
LEWY BARBARA TRUSTEE
|LAND
146,400
864 BRADLEY PKWY
|BUILDING
560,500
|TOTAL REAL
706,900
706,900
BLAUVELT NY 10913
|SPEC EXEMPTION
0
TAX MAP:
10-141.000
|
PROP DESC: 10.02 ACRES & DWL
|
911 ADDR: 176 UPPER TURNPIKE RD
|
PARCEL ID: 10-141.000 SPAN: 450-142-13115
|
HOUSESITE:
678,000
ACRES:
10.02 R2 NS
|GRAND LIST
7,069.00
7,069.00
------------------------------------------------------------------------------------------------------------------------------------
06/12/2015
01:32 pm
Town of Norwich Grand List
Grand List Report (Detail)
By Name For All Parcels In All Districts
Page 167
jbynum
PARCEL INFORMATION
TAXABLE VALUATIONS / EXEMPTIONS / CONTRACTS
-----------------------------------------------------------------------------------------------------------------------------------LIBROT STEVEN
HMSTD FILED |
MUNICIPAL
HOMESTEAD
NON-RESIDENTIAL
LIBROT IRIS
|LAND
136,500
PO BOX 1258
|BUILDING
399,600
|TOTAL REAL
536,100
536,100
NORWICH VT 05055-1258
|SPEC EXEMPTION
0
TAX MAP:
05-036.000
|
PROP DESC: 13.2 ACRES & DWL & ADDL LOT (NV)
|
911 ADDR: 80 NORFORD LAKE RD
|
PARCEL ID: 05-036.000 SPAN: 450-142-12393
|
HOUSESITE:
502,000
ACRES:
13.20 R2 T
|GRAND LIST
5,361.00
5,361.00
-----------------------------------------------------------------------------------------------------------------------------------LIEB-LAPPEN ROSS
HMSTD FILED |
MUNICIPAL
HOMESTEAD
NON-RESIDENTIAL
|LAND
0
55 NORWICH MEADOWS #3
|BUILDING
171,300
|TOTAL REAL
171,300
86,450
84,850
NORWICH VT 05055
|SPEC EXEMPTION
0
0
TAX MAP:
15-055.003
|
PROP DESC: 55 NORWICH MEADOWS UNIT 3
|
911 ADDR: 55 NORWICH MEADOWS 3
|
PARCEL ID: 15-055.003 SPAN: 450-142-11739
|
HOUSESITE:
86,450
ACRES:
0.00 O
T
|GRAND LIST
1,713.00
864.50
848.50
-----------------------------------------------------------------------------------------------------------------------------------LINDBERG CHERYL A TRUSTEE
HMSTD FILED |
MUNICIPAL
HOMESTEAD
NON-RESIDENTIAL
CHERYL A LINDBERG REV TRUST
|LAND
116,300
PO BOX 621
|BUILDING
436,900
|TOTAL REAL
553,200
553,200
NORWICH VT 05055-0621
|SPEC EXEMPTION
0
TAX MAP:
20-159.000
|
PROP DESC: 1.77 ACRES & DWL
|
911 ADDR: 59 KOCH RD
|
PARCEL ID: 20-159.000 SPAN: 450-142-12155
|
HOUSESITE:
553,200
ACRES:
1.77 R1 T
|GRAND LIST
5,532.00
5,532.00
-----------------------------------------------------------------------------------------------------------------------------------LINDELL ASSOC
|
MUNICIPAL
HOMESTEAD
NON-RESIDENTIAL
|LAND
143,300
PO BOX 621
|BUILDING
211,800
|TOTAL REAL
355,100
355,100
NORWICH VT 05055-0621
|SPEC EXEMPTION
0
TAX MAP:
20-223.000
|
PROP DESC: .19 ACRE & COMM BLDG
|
911 ADDR: 8 CARPENTER ST
|
PARCEL ID: 20-223.000 SPAN: 450-142-11780
|
HOUSESITE:
0
ACRES:
0.19 C
C
|GRAND LIST
3,551.00
3,551.00
-----------------------------------------------------------------------------------------------------------------------------------LINDNER CHARLES
HMSTD FILED |
MUNICIPAL
HOMESTEAD
NON-RESIDENTIAL
FINLAY JANE
|LAND
125,200
455 HAWK PINE RD
|BUILDING
228,700
|TOTAL REAL
353,900
353,900
NORWICH VT 05055
|SPEC EXEMPTION
0
TAX MAP:
16-146.000
|
PROP DESC: 1.38 ACRES & DWL
|
911 ADDR: 455 HAWK PINE RD
|
PARCEL ID: 16-146.000 SPAN: 450-142-12570
|
HOUSESITE:
353,900
ACRES:
1.38 R1 T
|GRAND LIST
3,539.00
3,539.00
------------------------------------------------------------------------------------------------------------------------------------
06/12/2015
01:32 pm
Town of Norwich Grand List
Grand List Report (Detail)
By Name For All Parcels In All Districts
Page 168
jbynum
PARCEL INFORMATION
TAXABLE VALUATIONS / EXEMPTIONS / CONTRACTS
-----------------------------------------------------------------------------------------------------------------------------------LINNEHAN ANNEMARIE
HMSTD FILED |
MUNICIPAL
HOMESTEAD
NON-RESIDENTIAL
FORDY PIERRE
|LAND
77,300
PO BOX 794
|BUILDING
242,000
|TOTAL REAL
319,300
319,300
NORWICH VT 05055
|SPEC EXEMPTION
0
TAX MAP:
05-040.000
|
PROP DESC: 6.2 ACRES & DWL
|
911 ADDR: 73 LADEAU RD
|
PARCEL ID: 05-040.000 SPAN: 450-142-12145
|
HOUSESITE:
301,900
ACRES:
6.20 R2 T
|GRAND LIST
3,193.00
3,193.00
-----------------------------------------------------------------------------------------------------------------------------------LIPPMAN JOHN
HMSTD FILED |
MUNICIPAL
HOMESTEAD
NON-RESIDENTIAL
ZUKOWSKI EVE
|LAND
150,900
336 KERWIN HILL RD
|BUILDING
363,500
|TOTAL REAL
514,400
514,400
NORWICH VT 05055
|SPEC EXEMPTION
0
TAX MAP:
05-114.150
|
PROP DESC: 10.2 ACRES & DWL
|
911 ADDR: 336 KERWIN HILL RD
|
PARCEL ID: 05-114.150 SPAN: 450-142-12129
|
HOUSESITE:
490,900
ACRES:
10.20 R2 T
|GRAND LIST
5,144.00
5,144.00
-----------------------------------------------------------------------------------------------------------------------------------LIQUINVIVO LLC
|
MUNICIPAL
HOMESTEAD
NON-RESIDENTIAL
|LAND
158,400
70 FLINT POND DRIVE
|BUILDING
247,000
|TOTAL REAL
405,400
405,400
HOLLIS NH 03049
|SPEC EXEMPTION
0
TAX MAP:
16-105.000
|
PROP DESC: .26 ACRE & DWL
|
911 ADDR: 182 RIVER RD
|
PARCEL ID: 16-105.000 SPAN: 450-142-12647
|
HOUSESITE:
405,400
ACRES:
0.26 R1 C
|GRAND LIST
4,054.00
4,054.00
-----------------------------------------------------------------------------------------------------------------------------------LIU STEPHEN K
HMSTD FILED |
MUNICIPAL
HOMESTEAD
NON-RESIDENTIAL
LIU CARA C
|LAND
144,600
1399 BEAVER MEADOW RD
|BUILDING
461,700
|TOTAL REAL
606,300
606,300
NORWICH VT 05055
|SPEC EXEMPTION
0
TAX MAP:
09-035.100
|
PROP DESC: 6.1 ACRES & DWL
|
911 ADDR: 1399 BEAVER MEADOW RD
|
PARCEL ID: 09-035.100 SPAN: 450-142-11601
|
HOUSESITE:
590,900
ACRES:
6.10 R2 T
|GRAND LIST
6,063.00
6,063.00
-----------------------------------------------------------------------------------------------------------------------------------LIVINGSTON BRIAN F.
HMSTD FILED |
MUNICIPAL
HOMESTEAD
NON-RESIDENTIAL
LIVINGSTON ELAINE P.
|LAND
142,700
124 BEAVER MEADOW RD
|BUILDING
296,000
|TOTAL REAL
438,700
370,804
67,896
NORWICH VT 05055
|SPEC EXEMPTION
0
0
TAX MAP:
20-113.000
|
PROP DESC: .86 ACRE & DWL
|
911 ADDR: 124 BEAVER MEADOW RD
|
PARCEL ID: 20-113.000 SPAN: 450-142-12204
|
HOUSESITE:
370,804
ACRES:
0.86 R1 T
|GRAND LIST
4,387.00
3,708.04
678.96
------------------------------------------------------------------------------------------------------------------------------------
06/12/2015
01:32 pm
Town of Norwich Grand List
Grand List Report (Detail)
By Name For All Parcels In All Districts
Page 169
jbynum
PARCEL INFORMATION
TAXABLE VALUATIONS / EXEMPTIONS / CONTRACTS
-----------------------------------------------------------------------------------------------------------------------------------LLOYD RICHARD J
HMSTD FILED |
MUNICIPAL
HOMESTEAD
NON-RESIDENTIAL
|LAND
96,100
PO BOX 18
|BUILDING
135,900
|TOTAL REAL
232,000
232,000
NORWICH VT 05055-0018
|SPEC EXEMPTION
0
TAX MAP:
20-103.000
|
PROP DESC: 0.34 ACRE & DWL
|
911 ADDR: 53 HUNTLEY ST
|
PARCEL ID: 20-103.000 SPAN: 450-142-12091
|
HOUSESITE:
232,000
ACRES:
0.34 R1 T
|GRAND LIST
2,320.00
2,320.00
-----------------------------------------------------------------------------------------------------------------------------------LOBB JOHN
HMSTD FILED |
MUNICIPAL
HOMESTEAD
NON-RESIDENTIAL
LOBB ROBIN
|LAND
112,700
243 CHURCH ST
|BUILDING
238,900
|TOTAL REAL
351,600
351,600
NORWICH VT 05055
|SPEC EXEMPTION
0
TAX MAP:
16-015.200
|
PROP DESC: 10.2 ACRES & DWL
|
911 ADDR: 243 CHURCH ST
|
PARCEL ID: 16-015.200 SPAN: 450-142-11873
|
HOUSESITE:
327,800
ACRES:
10.20 R2 T
|GRAND LIST
3,516.00
3,516.00
-----------------------------------------------------------------------------------------------------------------------------------LOGAN ADRIAN
HMSTD FILED |
MUNICIPAL
HOMESTEAD
NON-RESIDENTIAL
LOGAN BRIDGET
|LAND
119,600
63 GLEN RIDGE ROAD
|BUILDING
221,100
|TOTAL REAL
340,700
340,700
NORWICH VT 05055
|SPEC EXEMPTION
0
TAX MAP:
20-075.000
|
PROP DESC: 1.23 ACRES & DWL
|
911 ADDR: 63 GLEN RIDGE RD
|
PARCEL ID: 20-075.000 SPAN: 450-142-11986
|
HOUSESITE:
340,700
ACRES:
1.23 R1 T
|GRAND LIST
3,407.00
3,407.00
-----------------------------------------------------------------------------------------------------------------------------------LOOMIS JASON LIV TRUST
HMSTD FILED |
MUNICIPAL
HOMESTEAD
NON-RESIDENTIAL
TUCKER MICAELA LIV TRUST
|LAND
113,500
51 JUSTIN MORRILL HIGHWAY
|BUILDING
203,500
|TOTAL REAL
317,000
317,000
SOUTH STRAFFORD VT 05070
|SPEC EXEMPTION
0
TAX MAP:
11-062.000
|
PROP DESC: 3 ACRES & DWL
|
911 ADDR: 1153 UNION VILLAGE RD
|
PARCEL ID: 11-062.000 SPAN: 450-142-13055
|
HOUSESITE:
312,500
ACRES:
3.00 R1 T
|GRAND LIST
3,170.00
3,170.00
-----------------------------------------------------------------------------------------------------------------------------------LOUD KEITH J
HMSTD FILED |
MUNICIPAL
HOMESTEAD
NON-RESIDENTIAL
LOUD NINA S
|LAND
0
PO BOX 603
|BUILDING
472,700
|TOTAL REAL
472,700
472,700
NORWICH VT 05055
|SPEC EXEMPTION
0
TAX MAP:
|
PROP DESC: NORWICH GATEWAY CONDOMINIUM - UNIT 3
|
911 ADDR: 235 MAIN ST
|
PARCEL ID: 20-243.103 SPAN: 450-142-13405
|
HOUSESITE:
472,700
ACRES:
0.00 O
T
|GRAND LIST
4,727.00
4,727.00
------------------------------------------------------------------------------------------------------------------------------------
06/12/2015
01:32 pm
Town of Norwich Grand List
Grand List Report (Detail)
By Name For All Parcels In All Districts
Page 170
jbynum
PARCEL INFORMATION
TAXABLE VALUATIONS / EXEMPTIONS / CONTRACTS
-----------------------------------------------------------------------------------------------------------------------------------LOUGHMAN STEPHEN
HMSTD FILED |
MUNICIPAL
HOMESTEAD
NON-RESIDENTIAL
LOUGHMAN KATHLEEN
|LAND
173,100
1639 NEW BOSTON ROAD
|BUILDING
846,600
|TOTAL REAL
1019,700
1019,700
NORWICH VT 05055
|SPEC EXEMPTION
0
TAX MAP:
04-065.000
|
PROP DESC: 31 ACRES & DWL
|
911 ADDR: 1639 NEW BOSTON RD
|CURRENT USE
75,800
75,800
PARCEL ID: 04-065.000 SPAN: 450-142-12379
|
HOUSESITE:
933,800
ACRES:
31.00 R2 T
|GRAND LIST
9,439.00
9,439.00
-----------------------------------------------------------------------------------------------------------------------------------LOVELAND GEORGE R
HMSTD FILED |
MUNICIPAL
HOMESTEAD
NON-RESIDENTIAL
LOVELAND CAROL A
|LAND
227,500
32 BUTTERNUT RD
|BUILDING
859,100
|TOTAL REAL
1086,600
601,872
484,728
NORWICH VT 05055
|SPEC EXEMPTION
0
0
TAX MAP:
11-102.000
|VETERAN
40,000
40,000
PROP DESC: 37 ACRES & DWL & ADDL LOT
|
911 ADDR: 32 BUTTERNUT RD
|CURRENT USE
93,300
93,300
PARCEL ID: 11-102.000 SPAN: 450-142-11721
|
HOUSESITE:
502,272
ACRES:
37.20 R2 T
|GRAND LIST
9,533.00
4,685.72
4,847.28
-----------------------------------------------------------------------------------------------------------------------------------LUBELL JEFFREY M
HMSTD FILED |
MUNICIPAL
HOMESTEAD
NON-RESIDENTIAL
LUBELL KAREN G
|LAND
139,500
23 SPRING POND RD
|BUILDING
568,500
|TOTAL REAL
708,000
708,000
NORWICH VT 05055
|SPEC EXEMPTION
0
TAX MAP:
20-018.000
|
PROP DESC: .8 ACRES & DWL
|
911 ADDR: 23 SPRING POND RD
|
PARCEL ID: 20-018.000 SPAN: 450-142-12592
|
HOUSESITE:
708,000
ACRES:
0.80 R1 T
|GRAND LIST
7,080.00
7,080.00
-----------------------------------------------------------------------------------------------------------------------------------LUBIN ADAM
HMSTD FILED |
MUNICIPAL
HOMESTEAD
NON-RESIDENTIAL
|LAND
76,000
55 MCKENNA RD
|BUILDING
285,300
|TOTAL REAL
361,300
361,300
NORWICH VT 05055
|SPEC EXEMPTION
0
TAX MAP:
16-087.000
|
PROP DESC: .55 ACRE & DWL
|
911 ADDR: 55 MCKENNA RD
|
PARCEL ID: 16-087.000 SPAN: 450-142-12182
|
HOUSESITE:
361,300
ACRES:
0.55 R1 T
|GRAND LIST
3,613.00
3,613.00
-----------------------------------------------------------------------------------------------------------------------------------LUCAS BRIAN P
HMSTD FILED |
MUNICIPAL
HOMESTEAD
NON-RESIDENTIAL
LUCAS ROBERTA
|LAND
174,900
76 CHURCH ST
|BUILDING
592,500
|TOTAL REAL
767,400
767,400
NORWICH VT 05055
|SPEC EXEMPTION
0
TAX MAP:
16-048.000
|
PROP DESC: 7.34 ACRES & DWL/APT
|
911 ADDR: 76 CHURCH ST
|
PARCEL ID: 16-048.000 SPAN: 450-142-11854
|
HOUSESITE:
746,400
ACRES:
7.34 R2 T
|GRAND LIST
7,674.00
7,674.00
------------------------------------------------------------------------------------------------------------------------------------
06/12/2015
01:32 pm
Town of Norwich Grand List
Grand List Report (Detail)
By Name For All Parcels In All Districts
Page 171
jbynum
PARCEL INFORMATION
TAXABLE VALUATIONS / EXEMPTIONS / CONTRACTS
-----------------------------------------------------------------------------------------------------------------------------------LUFKIN DOUGLAS J.
HMSTD FILED |
MUNICIPAL
HOMESTEAD
NON-RESIDENTIAL
GNAEDINGER ELLEN A.
|LAND
150,400
313 BEAVER MEADOW RD
|BUILDING
298,700
|TOTAL REAL
449,100
391,460
57,640
NORWICH VT 05055
|SPEC EXEMPTION
0
0
TAX MAP:
10-020.200
|
PROP DESC: 1.1 ACRES & DWL
|
911 ADDR: 313 BEAVER MEADOW RD
|
PARCEL ID: 10-020.200 SPAN: 450-142-11583
|
HOUSESITE:
391,460
ACRES:
1.10 R1 T
|GRAND LIST
4,491.00
3,914.60
576.40
-----------------------------------------------------------------------------------------------------------------------------------LUKOVITS TIMOTHY
HMSTD FILED |
MUNICIPAL
HOMESTEAD
NON-RESIDENTIAL
LUKOVITS MARGARET
|LAND
171,300
186 HOPSON RD
|BUILDING
249,500
|TOTAL REAL
420,800
420,800
NORWICH VT 05055
|SPEC EXEMPTION
0
TAX MAP:
20-019.000
|
PROP DESC: 2.4 ACRES & DWL
|
911 ADDR: 186 HOPSON RD
|
PARCEL ID: 20-019.000 SPAN: 450-142-12061
|
HOUSESITE:
419,000
ACRES:
2.40 R1 T
|GRAND LIST
4,208.00
4,208.00
-----------------------------------------------------------------------------------------------------------------------------------LUMBRA PAUL D
|
MUNICIPAL
HOMESTEAD
NON-RESIDENTIAL
LUMBRA SUSAN L
|LAND
92,400
2775 VT RTE 113
|BUILDING
76,800
|TOTAL REAL
169,200
169,200
WEST FAIRLEE VT 05083
|SPEC EXEMPTION
0
TAX MAP:
12-009.000
|
PROP DESC: 1.66 ACRES & CAMP
|
911 ADDR: 95 HEMLOCK RD
|
PARCEL ID: 12-009.000 SPAN: 450-142-13133
|
HOUSESITE:
169,200
ACRES:
1.66 R1 S
|GRAND LIST
1,692.00
1,692.00
-----------------------------------------------------------------------------------------------------------------------------------LUMBRA PAUL D
|
MUNICIPAL
HOMESTEAD
NON-RESIDENTIAL
LUMBRA SUSAN L
|LAND
91,300
2775 VT RTE 113
|BUILDING
87,500
|TOTAL REAL
178,800
178,800
WEST FAIRLEE VT 05083
|SPEC EXEMPTION
0
TAX MAP:
12-010.000
|
PROP DESC: 1.2 ACRES & DWL
|
911 ADDR: 101 HEMLOCK RD
|
PARCEL ID: 12-010.000 SPAN: 450-142-13134
|
HOUSESITE:
178,800
ACRES:
1.20 R1 S
|GRAND LIST
1,788.00
1,788.00
-----------------------------------------------------------------------------------------------------------------------------------LUXON THOMAS
HMSTD FILED |
MUNICIPAL
HOMESTEAD
NON-RESIDENTIAL
SCHWEITZER IVY
|LAND
125,900
24 HOPSON RD
|BUILDING
334,400
|TOTAL REAL
460,300
393,580
66,720
NORWICH VT 05055
|SPEC EXEMPTION
0
0
TAX MAP:
20-037.000
|
PROP DESC: .54 ACRE & DWL/APT
|
911 ADDR: 24 HOPSON RD
|
PARCEL ID: 20-037.000 SPAN: 450-142-12237
|
HOUSESITE:
393,580
ACRES:
0.54 R1 T
|GRAND LIST
4,603.00
3,935.80
667.20
------------------------------------------------------------------------------------------------------------------------------------
06/12/2015
01:32 pm
Town of Norwich Grand List
Grand List Report (Detail)
By Name For All Parcels In All Districts
Page 172
jbynum
PARCEL INFORMATION
TAXABLE VALUATIONS / EXEMPTIONS / CONTRACTS
-----------------------------------------------------------------------------------------------------------------------------------LYONS JOHN H
HMSTD FILED |
MUNICIPAL
HOMESTEAD
NON-RESIDENTIAL
LYONS TERESA G
|LAND
339,700
21 SUN LION RD
|BUILDING
880,200
|TOTAL REAL
1219,900
1014,400
205,500
NORWICH VT 05055
|SPEC EXEMPTION
0
0
TAX MAP:
10-064.000
|
PROP DESC: 31.54 ACRES & DWL INCL 1 ADDL LOT
|
911 ADDR: 21 SUN LION DR
|
PARCEL ID: 10-064.000 SPAN: 450-142-12908
|
HOUSESITE:
802,700
ACRES:
31.50 R2 T
|GRAND LIST
12,199.00
10,144.00
2,055.00
-----------------------------------------------------------------------------------------------------------------------------------LYONS MICHAEL L.
HMSTD FILED |
MUNICIPAL
HOMESTEAD
NON-RESIDENTIAL
BRIGGS STEPHANIE
|LAND
107,500
17 CARPENTER ST
|BUILDING
294,300
|TOTAL REAL
401,800
401,800
NORWICH VT 05055
|SPEC EXEMPTION
0
TAX MAP:
20-215.000
|
PROP DESC: .19 ACRE & DWL
|
911 ADDR: 17 CARPENTER ST
|
PARCEL ID: 20-215.000 SPAN: 450-142-11782
|
HOUSESITE:
401,800
ACRES:
0.19 R1 T
|GRAND LIST
4,018.00
4,018.00
-----------------------------------------------------------------------------------------------------------------------------------LYONS SUZANNE S TRUSTEE
HMSTD FILED |
MUNICIPAL
HOMESTEAD
NON-RESIDENTIAL
SUZANNE S LYONS FAMILY TRUST
|LAND
0
PO BOX 1041
|BUILDING
322,500
|TOTAL REAL
322,500
322,500
NORWICH VT 05055-1041
|SPEC EXEMPTION
0
TAX MAP:
20-043.800
|
PROP DESC: UNIT 8 HERITAGE TOWNHOUSES
|
911 ADDR: 31 HERITAGE LN
|
PARCEL ID: 20-043.800 SPAN: 450-142-11758
|
HOUSESITE:
322,500
ACRES:
0.00 O
T
|GRAND LIST
3,225.00
3,225.00
-----------------------------------------------------------------------------------------------------------------------------------LYONS WILLIAM G
HMSTD FILED |
MUNICIPAL
HOMESTEAD
NON-RESIDENTIAL
DIESEL SUSAN J
|LAND
159,500
PO BOX 1388
|BUILDING
445,400
|TOTAL REAL
604,900
604,900
NORWICH VT 05055-1388
|SPEC EXEMPTION
0
TAX MAP:
10-064.100
|
PROP DESC: 10.78 ACS & DWELLING
|
911 ADDR: 32 SUN LION DR
|
PARCEL ID: 10-064.100 SPAN: 450-142-12909
|
HOUSESITE:
573,900
ACRES:
10.78 R2 T
|GRAND LIST
6,049.00
6,049.00
-----------------------------------------------------------------------------------------------------------------------------------MACADAM R BRUCE
HMSTD FILED |
MUNICIPAL
HOMESTEAD
NON-RESIDENTIAL
DUSCHESNE CLAUDIA K S
|LAND
81,000
1165 PODUNK RD
|BUILDING
148,600
|TOTAL REAL
229,600
229,600
WHITE RIVER JUNCTION VT 05001
|SPEC EXEMPTION
0
TAX MAP:
14-005.000
|
PROP DESC: 10.6 ACRES & DWL
|
911 ADDR: 1165 PODUNK RD
|
PARCEL ID: 14-005.000 SPAN: 450-142-12596
|
HOUSESITE:
206,700
ACRES:
10.60 R2 T
|GRAND LIST
2,296.00
2,296.00
------------------------------------------------------------------------------------------------------------------------------------
06/12/2015
01:32 pm
Town of Norwich Grand List
Grand List Report (Detail)
By Name For All Parcels In All Districts
Page 173
jbynum
PARCEL INFORMATION
TAXABLE VALUATIONS / EXEMPTIONS / CONTRACTS
-----------------------------------------------------------------------------------------------------------------------------------MACAULAY DAVID A
HMSTD FILED |
MUNICIPAL
HOMESTEAD
NON-RESIDENTIAL
MURRAY RUTH E
|LAND
118,000
17 BEAVER MEADOW RD
|BUILDING
465,900
|TOTAL REAL
583,900
583,900
NORWICH VT 05055
|SPEC EXEMPTION
0
TAX MAP:
20-257.000
|
PROP DESC: .17 ACRE & DWL
|
911 ADDR: 17 BEAVER MEADOW RD
|
PARCEL ID: 20-257.000 SPAN: 450-142-12226
|
HOUSESITE:
583,900
ACRES:
0.17 R1 T
|GRAND LIST
5,839.00
5,839.00
-----------------------------------------------------------------------------------------------------------------------------------MACCARTHY CHRISTOPHER
HMSTD FILED |
MUNICIPAL
HOMESTEAD
NON-RESIDENTIAL
MACCARTHY NANCY
|LAND
0
23 HERITAGE LANE #6
|BUILDING
290,500
|TOTAL REAL
290,500
290,500
NORWICH VT 05055
|SPEC EXEMPTION
0
TAX MAP:
20-043.600
|
PROP DESC: UNIT 6 HERITAGE TOWNHOUSES
|
911 ADDR: 23 HERITAGE LN
|
PARCEL ID: 20-043.600 SPAN: 450-142-11756
|
HOUSESITE:
290,500
ACRES:
0.00 O
T
|GRAND LIST
2,905.00
2,905.00
-----------------------------------------------------------------------------------------------------------------------------------MACCORMICK ROBERT G
HMSTD FILED |
MUNICIPAL
HOMESTEAD
NON-RESIDENTIAL
MACCORMICK ALLISON W
|LAND
115,500
365 CHAPEL HILL RD
|BUILDING
377,500
|TOTAL REAL
493,000
493,000
NORWICH VT 05055
|SPEC EXEMPTION
0
TAX MAP:
03-034.000
|
PROP DESC: 15 ACRES & DWL
|
911 ADDR: 365 CHAPEL HILL RD
|
PARCEL ID: 03-034.000 SPAN: 450-142-11808
|
HOUSESITE:
450,100
ACRES:
15.00 R2 T
|GRAND LIST
4,930.00
4,930.00
-----------------------------------------------------------------------------------------------------------------------------------MACINTYRE JEAN
|
MUNICIPAL
HOMESTEAD
NON-RESIDENTIAL
|LAND
94,500
6619 SODOM-HUTCHINGS RD
|BUILDING
0
|TOTAL REAL
94,500
94,500
GIRARD OH 44420
|SPEC EXEMPTION
0
TAX MAP:
16-115.000
|
PROP DESC: 4.3 ACRES
|
911 ADDR: US ROUTE 5 NORTH
|
PARCEL ID: 16-115.000 SPAN: 450-142-12163
|
HOUSESITE:
0
ACRES:
4.30 M
NS
|GRAND LIST
945.00
945.00
-----------------------------------------------------------------------------------------------------------------------------------MACK LEILA
HMSTD FILED |
MUNICIPAL
HOMESTEAD
NON-RESIDENTIAL
|LAND
0
PO BOX 545
|BUILDING
160,400
|TOTAL REAL
160,400
160,400
NORWICH VT 05055
|SPEC EXEMPTION
0
TAX MAP:
15-055.004
|
PROP DESC: 55 NORWICH MEADOWS UNIT 4
|
911 ADDR: 55 NORWICH MEADOWS 4
|
PARCEL ID: 15-055.004 SPAN: 450-142-11740
|
HOUSESITE:
160,400
ACRES:
0.00 O
T
|GRAND LIST
1,604.00
1,604.00
------------------------------------------------------------------------------------------------------------------------------------
06/12/2015
01:32 pm
Town of Norwich Grand List
Grand List Report (Detail)
By Name For All Parcels In All Districts
Page 174
jbynum
PARCEL INFORMATION
TAXABLE VALUATIONS / EXEMPTIONS / CONTRACTS
-----------------------------------------------------------------------------------------------------------------------------------MACKALL DANIEL JAMES
HMSTD FILED |
MUNICIPAL
HOMESTEAD
NON-RESIDENTIAL
PEREIRA DONNA
|LAND
98,700
36 GOODRICH FOUR CORNERS RD
|BUILDING
287,600
|TOTAL REAL
386,300
357,400
28,900
NORWICH VT 05055
|SPEC EXEMPTION
0
0
TAX MAP:
11-094.000
|
PROP DESC: 3.33 ACRES & DWL
|
911 ADDR: 36 GOODRICH FOUR CORNERS RD
|
PARCEL ID: 11-094.000 SPAN: 450-142-12665
|
HOUSESITE:
352,600
ACRES:
3.33 R1 T
|GRAND LIST
3,863.00
3,574.00
289.00
-----------------------------------------------------------------------------------------------------------------------------------MACKENZIE TODD A
HMSTD FILED |
MUNICIPAL
HOMESTEAD
NON-RESIDENTIAL
GRANIZO AMANDA ELLEN
|LAND
110,800
1128 UNION VILLAGE RD
|BUILDING
209,300
|TOTAL REAL
320,100
320,100
NORWICH VT 05055
|SPEC EXEMPTION
0
TAX MAP:
11-063.000
|
PROP DESC: 4.5 ACRES & DWL
|
911 ADDR: 1128 UNION VILLAGE RD
|
PARCEL ID: 11-063.000 SPAN: 450-142-13054
|
HOUSESITE:
308,800
ACRES:
4.50 R1 T
|GRAND LIST
3,201.00
3,201.00
-----------------------------------------------------------------------------------------------------------------------------------MACKENZIE TODD F
HMSTD FILED |
MUNICIPAL
HOMESTEAD
NON-RESIDENTIAL
MACKENZIE LAURA S
|LAND
100,000
883 NEW BOSTON RD
|BUILDING
117,300
|TOTAL REAL
217,300
193,840
23,460
NORWICH VT 05055-1500
|SPEC EXEMPTION
0
0
TAX MAP:
05-003.000
|
PROP DESC: 2.39 ACRES & DWL
|
911 ADDR: 883 NEW BOSTON RD
|
PARCEL ID: 05-003.000 SPAN: 450-142-12324
|
HOUSESITE:
192,440
ACRES:
2.39 R1 T
|GRAND LIST
2,173.00
1,938.40
234.60
-----------------------------------------------------------------------------------------------------------------------------------MACKINNON BARCLAY E JR
HMSTD FILED |
MUNICIPAL
HOMESTEAD
NON-RESIDENTIAL
|LAND
173,700
60 PINE TREE RD
|BUILDING
227,700
|TOTAL REAL
401,400
401,400
NORWICH VT 05055
|SPEC EXEMPTION
0
TAX MAP:
20-027.000
|
PROP DESC: .79 ACRE & DWL
|
911 ADDR: 60 PINE TREE RD
|
PARCEL ID: 20-027.000 SPAN: 450-142-12585
|
HOUSESITE:
401,400
ACRES:
0.79 R1 T
|GRAND LIST
4,014.00
4,014.00
-----------------------------------------------------------------------------------------------------------------------------------MACMILLEN JENNIFER D
HMSTD FILED |
MUNICIPAL
HOMESTEAD
NON-RESIDENTIAL
|LAND
139,600
218 HOPSON RD
|BUILDING
222,100
|TOTAL REAL
361,700
361,700
NORWICH VT 05055
|SPEC EXEMPTION
0
TAX MAP:
20-003.000
|
PROP DESC: 4.6 ACRES & DWL
|
911 ADDR: 218 HOPSON RD
|
PARCEL ID: 20-003.000 SPAN: 450-142-12063
|
HOUSESITE:
351,200
ACRES:
4.60 R1 T
|GRAND LIST
3,617.00
3,617.00
------------------------------------------------------------------------------------------------------------------------------------
06/12/2015
01:32 pm
Town of Norwich Grand List
Grand List Report (Detail)
By Name For All Parcels In All Districts
Page 175
jbynum
PARCEL INFORMATION
TAXABLE VALUATIONS / EXEMPTIONS / CONTRACTS
-----------------------------------------------------------------------------------------------------------------------------------MADDEN JOHN REESE JR
HMSTD FILED |
MUNICIPAL
HOMESTEAD
NON-RESIDENTIAL
MADDEN KATHERINE MORAN
|LAND
131,300
223 TURNPIKE RD
|BUILDING
367,200
|TOTAL REAL
498,500
498,500
NORWICH VT 05055
|SPEC EXEMPTION
0
TAX MAP:
10-064.200
|
PROP DESC: 2.41 ACRES & DWL
|
911 ADDR: 223 TURNPIKE RD
|
PARCEL ID: 10-064.200 SPAN: 450-142-12910
|
HOUSESITE:
496,700
ACRES:
2.41 R1 T
|GRAND LIST
4,985.00
4,985.00
-----------------------------------------------------------------------------------------------------------------------------------MAGUIRE JAMES M
HMSTD FILED |
MUNICIPAL
HOMESTEAD
NON-RESIDENTIAL
MAGUIRE ROSANNE
|LAND
126,900
375 HAWK PINE RD
|BUILDING
247,800
|TOTAL REAL
374,700
374,700
NORWICH VT 05055-0561
|SPEC EXEMPTION
0
TAX MAP:
16-158.000
|
PROP DESC: 1.68 ACRES & DWL
|
911 ADDR: 375 HAWK PINE RD
|
PARCEL ID: 16-158.000 SPAN: 450-142-12560
|
HOUSESITE:
374,700
ACRES:
1.68 R1 T
|GRAND LIST
3,747.00
3,747.00
-----------------------------------------------------------------------------------------------------------------------------------MAHON IAN T
HMSTD FILED |
MUNICIPAL
HOMESTEAD
NON-RESIDENTIAL
MAHON KATHERINE D
|LAND
76,300
24 STOWELL RD
|BUILDING
212,400
|TOTAL REAL
288,700
288,700
NORWICH VT 05055
|SPEC EXEMPTION
0
TAX MAP:
05-026.000
|
PROP DESC: 2.72 ACRES & DWL
|
911 ADDR: 24 STOWELL RD
|
PARCEL ID: 05-026.000 SPAN: 450-142-12406
|
HOUSESITE:
285,500
ACRES:
2.72 R1 T
|GRAND LIST
2,887.00
2,887.00
-----------------------------------------------------------------------------------------------------------------------------------MALO WILLIAM
HMSTD FILED |
MUNICIPAL
HOMESTEAD
NON-RESIDENTIAL
MALO CATHERINE
|LAND
118,100
64 WALLACE FARM RD
|BUILDING
257,300
|TOTAL REAL
375,400
375,400
NORWICH VT 05055
|SPEC EXEMPTION
0
TAX MAP:
03-018.000
|
PROP DESC: 10.3 ACRES & DWL
|
911 ADDR: 64 WALLACE FARM RD
|
PARCEL ID: 03-018.000 SPAN: 450-142-12262
|
HOUSESITE:
348,700
ACRES:
10.30 R2 T
|GRAND LIST
3,754.00
3,754.00
-----------------------------------------------------------------------------------------------------------------------------------MANASEK FRANCIS JOHN
HMSTD FILED |
MUNICIPAL
HOMESTEAD
NON-RESIDENTIAL
PEARSON ANNE CORNING
|LAND
190,100
PO BOX 705
|BUILDING
485,900
|TOTAL REAL
676,000
601,200
74,800
NORWICH VT 05055-0705
|SPEC EXEMPTION
0
0
TAX MAP:
15-059.000
|
PROP DESC: 4.26 ACRES & DWL & OFFICE & ADDL LOT
|
911 ADDR: 20 HOPSON LN
|
PARCEL ID: 15-059.000 SPAN: 450-142-12081
|
HOUSESITE:
539,400
ACRES:
4.26 R1 T
|GRAND LIST
6,760.00
6,012.00
748.00
------------------------------------------------------------------------------------------------------------------------------------
06/12/2015
01:32 pm
Town of Norwich Grand List
Grand List Report (Detail)
By Name For All Parcels In All Districts
Page 176
jbynum
PARCEL INFORMATION
TAXABLE VALUATIONS / EXEMPTIONS / CONTRACTS
-----------------------------------------------------------------------------------------------------------------------------------MANDELBAUM DAVID
|
MUNICIPAL
HOMESTEAD
NON-RESIDENTIAL
MANDELBAUM ROSEMARY
|LAND
283,500
55 FIRST ST
|BUILDING
489,400
|TOTAL REAL
772,900
772,900
PELHAM NY 10803
|SPEC EXEMPTION
0
TAX MAP:
04-004.000
|
PROP DESC: 61.6 ACRES & DWL
|
911 ADDR: 1209 TURNPIKE RD
|CURRENT USE
141,800
141,800
PARCEL ID: 04-004.000 SPAN: 450-142-12965
|
HOUSESITE:
616,000
ACRES:
61.60 R2 NS
|GRAND LIST
6,311.00
6,311.00
-----------------------------------------------------------------------------------------------------------------------------------MANGANIELLO PAUL D
HMSTD FILED |
MUNICIPAL
HOMESTEAD
NON-RESIDENTIAL
MANGANIELLO WENDY D
|LAND
139,900
PO BOX 1001
|BUILDING
292,800
|TOTAL REAL
432,700
432,700
NORWICH VT 05055-1001
|SPEC EXEMPTION
0
TAX MAP:
10-194.000
|
PROP DESC: 6.7 ACRES & DWL
|
911 ADDR: 226 TURNPIKE RD
|
PARCEL ID: 10-194.000 SPAN: 450-142-12907
|
HOUSESITE:
415,600
ACRES:
6.70 R2 T
|GRAND LIST
4,327.00
4,327.00
-----------------------------------------------------------------------------------------------------------------------------------MANHEIMER JOSH TRUSTEE
HMSTD FILED |
MUNICIPAL
HOMESTEAD
NON-RESIDENTIAL
MANHEIMER REVOCABLE TRUST
|LAND
125,200
PO BOX 1690
|BUILDING
423,000
|TOTAL REAL
548,200
548,200
NORWICH VT 05055
|SPEC EXEMPTION
0
TAX MAP:
04-002.300
|
PROP DESC: 2.7 ACRES & DWL
|
911 ADDR: 1067 TURNPIKE RD
|
PARCEL ID: 04-002.300 SPAN: 450-142-12953
|
HOUSESITE:
545,100
ACRES:
2.70 R1 T
|GRAND LIST
5,482.00
5,482.00
-----------------------------------------------------------------------------------------------------------------------------------MANN STEVEN J
HMSTD FILED |
MUNICIPAL
HOMESTEAD
NON-RESIDENTIAL
WOLFF STEPHANIE E
|LAND
115,300
69 TURNPIKE RD
|BUILDING
203,500
|TOTAL REAL
318,800
318,800
NORWICH VT 05055
|SPEC EXEMPTION
0
TAX MAP:
20-147.000
|
PROP DESC: .34 ACRE & DWL
|
911 ADDR: 69 TURNPIKE RD
|
PARCEL ID: 20-147.000 SPAN: 450-142-12896
|
HOUSESITE:
318,800
ACRES:
0.34 R1 T
|GRAND LIST
3,188.00
3,188.00
-----------------------------------------------------------------------------------------------------------------------------------MANNIX CHARLES R
HMSTD FILED |
MUNICIPAL
HOMESTEAD
NON-RESIDENTIAL
MANNIX JOAN
|LAND
237,300
PO BOX 905
|BUILDING
889,200
|TOTAL REAL
1126,500
1126,500
NORWICH VT 05055-0905
|SPEC EXEMPTION
0
TAX MAP:
20-243.000
|
PROP DESC: 14.85 ACRES & DWL
|
911 ADDR: 237 MAIN ST
|
PARCEL ID: 20-243.000 SPAN: 450-142-12472
|
HOUSESITE:
1092,500
ACRES:
14.85 R2 T
|GRAND LIST
11,265.00
11,265.00
------------------------------------------------------------------------------------------------------------------------------------
06/12/2015
01:32 pm
Town of Norwich Grand List
Grand List Report (Detail)
By Name For All Parcels In All Districts
Page 177
jbynum
PARCEL INFORMATION
TAXABLE VALUATIONS / EXEMPTIONS / CONTRACTS
-----------------------------------------------------------------------------------------------------------------------------------MANNY ALIX
HMSTD FILED |
MUNICIPAL
HOMESTEAD
NON-RESIDENTIAL
|LAND
157,800
22 SIMPSON RD
|BUILDING
246,400
|TOTAL REAL
404,200
404,200
NORWICH VT 05055
|SPEC EXEMPTION
0
TAX MAP:
20-056.002
|
PROP DESC: 2.05 AC & DWLG
|
911 ADDR: 22 SIMPSON RD 2
|
PARCEL ID: 20-056.002 SPAN: 450-142-11662
|
HOUSESITE:
404,000
ACRES:
2.05 R1 T
|GRAND LIST
4,042.00
4,042.00
-----------------------------------------------------------------------------------------------------------------------------------MARGOLIS NATHAN H.
|
MUNICIPAL
HOMESTEAD
NON-RESIDENTIAL
JANNEN LORI J.
|LAND
123,500
545 GOODRICH FOUR CORNERS
|BUILDING
214,600
|TOTAL REAL
338,100
338,100
NORWICH VT 05055
|SPEC EXEMPTION
0
TAX MAP:
11-119.000
|
PROP DESC: 10.1 ACRES & DWL
|
911 ADDR: 545 GOODRICH FOUR CORNERS RD
|
PARCEL ID: 11-119.000 SPAN: 450-142-12001
|
HOUSESITE:
311,900
ACRES:
10.10 R2 T
|GRAND LIST
3,381.00
3,381.00
-----------------------------------------------------------------------------------------------------------------------------------MARKOV NICKOLAY
HMSTD FILED |
MUNICIPAL
HOMESTEAD
NON-RESIDENTIAL
MARKOV MARIA L
|LAND
129,500
50 WILLEY HILL RD
|BUILDING
334,300
|TOTAL REAL
463,800
463,800
NORWICH VT 05055
|SPEC EXEMPTION
0
TAX MAP:
10-216.000
|
PROP DESC: 2 ACRES & DWL
|
911 ADDR: 50 WILLEY HILL RD
|
PARCEL ID: 10-216.000 SPAN: 450-142-13152
|
HOUSESITE:
463,800
ACRES:
2.00 R1 T
|GRAND LIST
4,638.00
4,638.00
-----------------------------------------------------------------------------------------------------------------------------------MAROTTI JONATHAN D
HMSTD FILED |
MUNICIPAL
HOMESTEAD
NON-RESIDENTIAL
SALCONE ERIN M
|LAND
184,100
96 HOBSON RD
|BUILDING
428,900
|TOTAL REAL
613,000
613,000
NORWICH VT 05055
|SPEC EXEMPTION
0
TAX MAP:
20-031.000
|
PROP DESC: 1.92 ACRES & DWL
|
911 ADDR: 96 HOPSON RD
|
PARCEL ID: 20-031.000 SPAN: 450-142-12056
|
HOUSESITE:
613,000
ACRES:
1.92 R1 T
|GRAND LIST
6,130.00
6,130.00
-----------------------------------------------------------------------------------------------------------------------------------MARSH BRYAN J
HMSTD FILED |
MUNICIPAL
HOMESTEAD
NON-RESIDENTIAL
|LAND
232,500
1592 NEW BOSTON RD
|BUILDING
558,400
|TOTAL REAL
790,900
790,900
NORWICH VT 05055
|SPEC EXEMPTION
0
TAX MAP:
04-066.000
|
PROP DESC: 56.8 ACRES & DWL
|
911 ADDR: 1592 NEW BOSTON RD
|CURRENT USE
117,400
117,400
PARCEL ID: 04-066.000 SPAN: 450-142-12381
|
HOUSESITE:
666,400
ACRES:
56.80 R2 T
|GRAND LIST
6,735.00
6,735.00
------------------------------------------------------------------------------------------------------------------------------------
06/12/2015
01:32 pm
Town of Norwich Grand List
Grand List Report (Detail)
By Name For All Parcels In All Districts
Page 178
jbynum
PARCEL INFORMATION
TAXABLE VALUATIONS / EXEMPTIONS / CONTRACTS
-----------------------------------------------------------------------------------------------------------------------------------MARSH JUDITH
HMSTD FILED |
MUNICIPAL
HOMESTEAD
NON-RESIDENTIAL
|LAND
194,100
128 KENDALL STATION RD
|BUILDING
70,700
|TOTAL REAL
264,800
264,800
NORWICH VT 05055-9496
|SPEC EXEMPTION
0
TAX MAP:
12-029.000
|
PROP DESC: 1.52 ACRES & DWL
|
911 ADDR: 128 KENDALL STATION RD
|
PARCEL ID: 12-029.000 SPAN: 450-142-12625
|
HOUSESITE:
264,800
ACRES:
1.52 R1 T
|GRAND LIST
2,648.00
2,648.00
-----------------------------------------------------------------------------------------------------------------------------------MARSHALL THERESE A
|
MUNICIPAL
HOMESTEAD
NON-RESIDENTIAL
|LAND
149,500
56 OLD FARM RD
|BUILDING
635,800
|TOTAL REAL
785,300
785,300
NORWICH VT 05055
|SPEC EXEMPTION
0
TAX MAP:
10-125.300
|
PROP DESC: 4.27 ACRES & DWL
|
911 ADDR: 56 OLD FARM RD
|
PARCEL ID: 10-125.300 SPAN: 450-142-11892
|
HOUSESITE:
737,100
ACRES:
4.27 R1 T
|GRAND LIST
7,853.00
7,853.00
-----------------------------------------------------------------------------------------------------------------------------------MARTENSON SHARON
HMSTD FILED |
MUNICIPAL
HOMESTEAD
NON-RESIDENTIAL
|LAND
77,600
15 MELVIEW RIDGE
|BUILDING
161,300
|TOTAL REAL
238,900
238,900
NORWICH VT 05055
|SPEC EXEMPTION
0
TAX MAP:
16-121.000
|
PROP DESC: 1.6 ACRES & DWL
|
911 ADDR: 15 MELVIEW RIDGE
|
PARCEL ID: 16-121.000 SPAN: 450-142-12242
|
HOUSESITE:
238,900
ACRES:
1.60 R1 T
|GRAND LIST
2,389.00
2,389.00
-----------------------------------------------------------------------------------------------------------------------------------MARTIN ANDREW
HMSTD FILED |
MUNICIPAL
HOMESTEAD
NON-RESIDENTIAL
NEGELE CHRISTINA
|LAND
103,500
930 NEW BOSTON ROAD
|BUILDING
152,800
|TOTAL REAL
256,300
256,300
NORWICH VT 05055
|SPEC EXEMPTION
0
TAX MAP:
05-143.000
|
PROP DESC: 1.77 ACRES & DWL
|
911 ADDR: 930 NEW BOSTON RD
|
PARCEL ID: 05-143.000 SPAN: 450-142-12327
|
HOUSESITE:
256,300
ACRES:
1.77 R1 T
|GRAND LIST
2,563.00
2,563.00
-----------------------------------------------------------------------------------------------------------------------------------MARTIN DEBORAH M.
|
MUNICIPAL
HOMESTEAD
NON-RESIDENTIAL
|LAND
121,100
63 TURNPIKE RD
|BUILDING
185,300
|TOTAL REAL
306,400
306,400
NORWICH VT 05055
|SPEC EXEMPTION
0
TAX MAP:
20-146.000
|
PROP DESC: .45 ACRE & DWL
|
911 ADDR: 63 TURNPIKE RD
|
PARCEL ID: 20-146.000 SPAN: 450-142-12895
|
HOUSESITE:
306,400
ACRES:
0.45 R1 T
|GRAND LIST
3,064.00
3,064.00
------------------------------------------------------------------------------------------------------------------------------------
06/12/2015
01:32 pm
Town of Norwich Grand List
Grand List Report (Detail)
By Name For All Parcels In All Districts
Page 179
jbynum
PARCEL INFORMATION
TAXABLE VALUATIONS / EXEMPTIONS / CONTRACTS
-----------------------------------------------------------------------------------------------------------------------------------MARTIN JASON
|
MUNICIPAL
HOMESTEAD
NON-RESIDENTIAL
MARTIN GWEN
|LAND
126,900
460 HAWK PINE RD
|BUILDING
296,200
|TOTAL REAL
423,100
423,100
NORWICH VT 05055
|SPEC EXEMPTION
0
TAX MAP:
16-141.000
|
PROP DESC: 1.7 ACRES & DWL
|
911 ADDR: 460 HAWK PINE RD
|
PARCEL ID: 16-141.000 SPAN: 450-142-12571
|
HOUSESITE:
423,100
ACRES:
1.70 R1 T
|GRAND LIST
4,231.00
4,231.00
-----------------------------------------------------------------------------------------------------------------------------------MARTIN SARAH H
|
MUNICIPAL
HOMESTEAD
NON-RESIDENTIAL
|LAND
127,300
92 CARPENTER ST
|BUILDING
236,100
|TOTAL REAL
363,400
363,400
NORWICH VT 05055
|SPEC EXEMPTION
0
TAX MAP:
16-042.000
|
PROP DESC: 0.33 ACRE & DWL
|
911 ADDR: 92 CARPENTER ST
|
PARCEL ID: 16-042.000 SPAN: 450-142-11800
|
HOUSESITE:
363,400
ACRES:
0.33 R1 T
|GRAND LIST
3,634.00
3,634.00
-----------------------------------------------------------------------------------------------------------------------------------MARTIN WALTER D
HMSTD FILED |
MUNICIPAL
HOMESTEAD
NON-RESIDENTIAL
MARTIN JUANITA M.
|LAND
81,500
PO BOX 730
|BUILDING
127,700
|TOTAL REAL
209,200
209,200
NORWICH VT 05055-0730
|SPEC EXEMPTION
0
TAX MAP:
06-068.000
|
PROP DESC: 1.06 ACRES & MH
|
911 ADDR: 1528 US ROUTE 5 NORTH
|
PARCEL ID: 06-068.000 SPAN: 450-142-12719
|
HOUSESITE:
209,200
ACRES:
1.06 R1 T
|GRAND LIST
2,092.00
2,092.00
-----------------------------------------------------------------------------------------------------------------------------------MARX OTTO M. TRUST
|
MUNICIPAL
HOMESTEAD
NON-RESIDENTIAL
EDDY NANCY T TRUSTEE
|LAND
119,300
PO BOX 425
|BUILDING
205,900
|TOTAL REAL
325,200
325,200
W CHESTERFIELD NH 03466
|SPEC EXEMPTION
0
TAX MAP:
20-158.000
|
PROP DESC: .87 ACRE & DWL
|
911 ADDR: 43 KOCH RD
|
PARCEL ID: 20-158.000 SPAN: 450-142-12152
|
HOUSESITE:
325,200
ACRES:
0.87 R1 NS
|GRAND LIST
3,252.00
3,252.00
-----------------------------------------------------------------------------------------------------------------------------------MASCOMA SAVINGS BANK
|
MUNICIPAL
HOMESTEAD
NON-RESIDENTIAL
ATTN: GLEN S. VALENTINE
|LAND
229,900
PO BOX 4399
|BUILDING
604,600
|TOTAL REAL
834,500
834,500
WHITE RIVER JUNCTION VT 05001
|SPEC EXEMPTION
0
TAX MAP:
20-251.000
|
PROP DESC: .77 ACRE & BANK BLDG
|
911 ADDR: 303 MAIN ST
|
PARCEL ID: 20-251.000 SPAN: 450-142-12463
|
HOUSESITE:
0
ACRES:
0.77 C
C
|GRAND LIST
8,345.00
8,345.00
------------------------------------------------------------------------------------------------------------------------------------
06/12/2015
01:32 pm
Town of Norwich Grand List
Grand List Report (Detail)
By Name For All Parcels In All Districts
Page 180
jbynum
PARCEL INFORMATION
TAXABLE VALUATIONS / EXEMPTIONS / CONTRACTS
-----------------------------------------------------------------------------------------------------------------------------------MASON KENNETH M
|
MUNICIPAL
HOMESTEAD
NON-RESIDENTIAL
ROBERTS MARILYN
|LAND
115,200
221 WADE AV
|BUILDING
197,400
|TOTAL REAL
312,600
312,600
WASHINGTON PA 15301
|SPEC EXEMPTION
0
TAX MAP:
06-024.000
|
PROP DESC: 2.3 ACRES & DWL
|
911 ADDR: 641 CAMPBELL FLATS RD
|
PARCEL ID: 06-024.000 SPAN: 450-142-11778
|
HOUSESITE:
312,100
ACRES:
2.30 R1 NS
|GRAND LIST
3,126.00
3,126.00
-----------------------------------------------------------------------------------------------------------------------------------MASON PHILIP B
HMSTD FILED |
MUNICIPAL
HOMESTEAD
NON-RESIDENTIAL
SCHWARTZ AIME E
|LAND
109,400
1124 NEW BOSTON RD
|BUILDING
261,800
|TOTAL REAL
371,200
371,200
NORWICH VT 05055
|SPEC EXEMPTION
0
TAX MAP:
05-008.400
|
PROP DESC: 3.3 ACRES & DWL
|
911 ADDR: 1124 NEW BOSTON RD
|
PARCEL ID: 05-008.400 SPAN: 450-142-12352
|
HOUSESITE:
365,900
ACRES:
3.30 R1 T
|GRAND LIST
3,712.00
3,712.00
-----------------------------------------------------------------------------------------------------------------------------------MATHON RICHARD A
HMSTD FILED |
MUNICIPAL
HOMESTEAD
NON-RESIDENTIAL
MATHON BETH A
|LAND
74,200
530 CHAPEL HILL RD
|BUILDING
123,000
|TOTAL REAL
197,200
197,200
NORWICH VT 05055
|SPEC EXEMPTION
0
TAX MAP:
03-046.000
|
PROP DESC: 2.2 ACRES & DWL
|
911 ADDR: 530 CHAPEL HILL RD
|
PARCEL ID: 03-046.000 SPAN: 450-142-11813
|
HOUSESITE:
196,800
ACRES:
2.20 R1 T
|GRAND LIST
1,972.00
1,972.00
-----------------------------------------------------------------------------------------------------------------------------------MAYNARD GRETCHEN & ROGER JR TRUST
HMSTD FILED |
MUNICIPAL
HOMESTEAD
NON-RESIDENTIAL
|LAND
112,100
794 TURNPIKE RD
|BUILDING
195,900
|TOTAL REAL
308,000
308,000
NORWICH VT 05055
|SPEC EXEMPTION
0
TAX MAP:
10-098.000
|
PROP DESC: .99 ACRE & DWL
|
911 ADDR: 794 TURNPIKE RD
|
PARCEL ID: 10-098.000 SPAN: 450-142-12944
|
HOUSESITE:
308,000
ACRES:
0.99 R1 T
|GRAND LIST
3,080.00
3,080.00
-----------------------------------------------------------------------------------------------------------------------------------MCBRIDE TROY
HMSTD FILED |
MUNICIPAL
HOMESTEAD
NON-RESIDENTIAL
MCBRIDE JEANNE
|LAND
127,200
175 HAWK PINE RD
|BUILDING
227,900
|TOTAL REAL
355,100
355,100
NORWICH VT 05055
|SPEC EXEMPTION
0
TAX MAP:
11-170.000
|
PROP DESC: 1.49 ACRES & DWL
|
911 ADDR: 175 HAWK PINE RD
|
PARCEL ID: 11-170.000 SPAN: 450-142-12542
|
HOUSESITE:
355,100
ACRES:
1.49 R1 T
|GRAND LIST
3,551.00
3,551.00
------------------------------------------------------------------------------------------------------------------------------------
06/12/2015
01:32 pm
Town of Norwich Grand List
Grand List Report (Detail)
By Name For All Parcels In All Districts
Page 181
jbynum
PARCEL INFORMATION
TAXABLE VALUATIONS / EXEMPTIONS / CONTRACTS
-----------------------------------------------------------------------------------------------------------------------------------MCBRYDE MARY
HMSTD FILED |
MUNICIPAL
HOMESTEAD
NON-RESIDENTIAL
NEWCOMB GEORGE
|LAND
172,000
1456 NEW BOSTON RD
|BUILDING
360,400
|TOTAL REAL
532,400
532,400
NORWICH VT 05055
|SPEC EXEMPTION
0
TAX MAP:
04-069.000
|
PROP DESC: 30.63 ACRES & DWL
|
911 ADDR: 1456 NEW BOSTON RD
|CURRENT USE
74,800
74,800
PARCEL ID: 04-069.000 SPAN: 450-142-12372
|
HOUSESITE:
447,600
ACRES:
30.63 R2 T
|GRAND LIST
4,576.00
4,576.00
-----------------------------------------------------------------------------------------------------------------------------------MCCABE DONALD
HMSTD FILED |
MUNICIPAL
HOMESTEAD
NON-RESIDENTIAL
MCCABE ELIZABETH
|LAND
138,700
98 MEETINGHOUSE RD
|BUILDING
411,800
|TOTAL REAL
550,500
452,525
97,975
NORWICH VT 05055
|SPEC EXEMPTION
0
0
TAX MAP:
05-133.000
|
PROP DESC: 15.3 ACRES & DWL/APT
|
911 ADDR: 97 MEETINGHOUSE RD
|
PARCEL ID: 05-133.000 SPAN: 450-142-12343
|
HOUSESITE:
415,125
ACRES:
15.30 R2 T
|GRAND LIST
5,505.00
4,525.25
979.75
-----------------------------------------------------------------------------------------------------------------------------------MCCAMPBELL LIVING TRUST CARMEN T
HMSTD FILED |
MUNICIPAL
HOMESTEAD
NON-RESIDENTIAL
|LAND
369,600
225 TILDEN HILL RD
|BUILDING
1158,900
|TOTAL REAL
1528,500
1528,500
NORWICH VT 05055
|SPEC EXEMPTION
0
TAX MAP:
10-036.200
|
PROP DESC: 94.13 ACRES & DWL
|
911 ADDR: 225 TILDEN HILL RD
|CURRENT USE
169,300
169,300
PARCEL ID: 10-036.200 SPAN: 450-142-12862
|
HOUSESITE:
1316,400
ACRES:
94.13 R2 T
|GRAND LIST
13,592.00
13,592.00
-----------------------------------------------------------------------------------------------------------------------------------MCCAMPBELL NINA K
HMSTD FILED |
MUNICIPAL
HOMESTEAD
NON-RESIDENTIAL
|LAND
128,300
6 HOPSON LN
|BUILDING
377,100
|TOTAL REAL
505,400
505,400
NORWICH VT 05055
|SPEC EXEMPTION
0
TAX MAP:
15-060.000
|
PROP DESC: 2 ACRES & DWL
|
911 ADDR: 6 HOPSON LN
|
PARCEL ID: 15-060.000 SPAN: 450-142-12082
|
HOUSESITE:
505,400
ACRES:
2.00 R1 T
|GRAND LIST
5,054.00
5,054.00
-----------------------------------------------------------------------------------------------------------------------------------MCCARTHY SUSAN
HMSTD FILED |
MUNICIPAL
HOMESTEAD
NON-RESIDENTIAL
|LAND
0
43 NORWICH MEADOWS #9
|BUILDING
173,800
|TOTAL REAL
173,800
173,800
NORWICH VT 05055
|SPEC EXEMPTION
0
TAX MAP:
15-055.009
|
PROP DESC: 43 NORWICH MEADOW UNIT 9
|
911 ADDR: 43 NORWICH MEADOWS 9
|
PARCEL ID: 15-055.009 SPAN: 450-142-11745
|
HOUSESITE:
173,800
ACRES:
0.00 O
T
|GRAND LIST
1,738.00
1,738.00
------------------------------------------------------------------------------------------------------------------------------------
06/12/2015
01:32 pm
Town of Norwich Grand List
Grand List Report (Detail)
By Name For All Parcels In All Districts
Page 182
jbynum
PARCEL INFORMATION
TAXABLE VALUATIONS / EXEMPTIONS / CONTRACTS
-----------------------------------------------------------------------------------------------------------------------------------MCCAULL PHILLIP A
HMSTD FILED |
MUNICIPAL
HOMESTEAD
NON-RESIDENTIAL
MCCAULL STEPHANIE W
|LAND
202,300
28 GODDARD RD
|BUILDING
529,800
|TOTAL REAL
732,100
732,100
NORWICH VT 05055
|SPEC EXEMPTION
0
TAX MAP:
20-057.200
|
PROP DESC: 17.13 ACRES & DWL
|
911 ADDR: 28 GODDARD RD
|
PARCEL ID: 20-057.200 SPAN: 450-142-11927
|
HOUSESITE:
687,700
ACRES:
17.31 R2 T
|GRAND LIST
7,321.00
7,321.00
-----------------------------------------------------------------------------------------------------------------------------------MCCLEERY VIRGINIA
HMSTD FILED |
MUNICIPAL
HOMESTEAD
NON-RESIDENTIAL
|LAND
115,900
PO BOX 17
|BUILDING
293,300
|TOTAL REAL
409,200
409,200
NORWICH VT 05055-0017
|SPEC EXEMPTION
0
TAX MAP:
20-039.000
|
PROP DESC: .35 ACRE & DWL
|
911 ADDR: 8 HOPSON RD
|
PARCEL ID: 20-039.000 SPAN: 450-142-12233
|
HOUSESITE:
409,200
ACRES:
0.35 R1 T
|GRAND LIST
4,092.00
4,092.00
-----------------------------------------------------------------------------------------------------------------------------------MCCORMICK JOANNE M
HMSTD FILED |
MUNICIPAL
HOMESTEAD
NON-RESIDENTIAL
|LAND
156,600
64 ABIGAIL RD
|BUILDING
258,300
|TOTAL REAL
414,900
414,900
NORWICH VT 05055
|SPEC EXEMPTION
0
TAX MAP:
15-019.000
|
PROP DESC: 14.3 ACRES & DWL
|
911 ADDR: 64 ABIGAIL RD
|
PARCEL ID: 15-019.000 SPAN: 450-142-11932
|
HOUSESITE:
378,000
ACRES:
14.30 R2 T
|GRAND LIST
4,149.00
4,149.00
-----------------------------------------------------------------------------------------------------------------------------------MCCORMICK WILLIAM J
HMSTD FILED |
MUNICIPAL
HOMESTEAD
NON-RESIDENTIAL
MCCORMICK SANDRA E.
|LAND
89,000
1473 NEW BOSTON RD
|BUILDING
268,300
|TOTAL REAL
357,300
357,300
NORWICH VT 05055
|SPEC EXEMPTION
0
TAX MAP:
04-061.200
|VETERAN
40,000
40,000
PROP DESC: 2.06 ACRES & DWL
|
911 ADDR: 1473 NEW BOSTON RD
|
PARCEL ID: 04-061.200 SPAN: 450-142-12373
|
HOUSESITE:
357,000
ACRES:
2.06 R1 T
|GRAND LIST
3,173.00
3,173.00
-----------------------------------------------------------------------------------------------------------------------------------MCCOY J PATRICK
HMSTD FILED |
MUNICIPAL
HOMESTEAD
NON-RESIDENTIAL
MCCOY SUSAN W
|LAND
107,900
32 SARGENT ST
|BUILDING
209,600
|TOTAL REAL
317,500
317,500
NORWICH VT 05055
|SPEC EXEMPTION
0
TAX MAP:
20-092.000
|
PROP DESC: .61 ACRE & DWL
|
911 ADDR: 32 SARGENT ST
|
PARCEL ID: 20-092.000 SPAN: 450-142-12790
|
HOUSESITE:
317,500
ACRES:
0.61 R1 T
|GRAND LIST
3,175.00
3,175.00
------------------------------------------------------------------------------------------------------------------------------------
06/12/2015
01:32 pm
Town of Norwich Grand List
Grand List Report (Detail)
By Name For All Parcels In All Districts
Page 183
jbynum
PARCEL INFORMATION
TAXABLE VALUATIONS / EXEMPTIONS / CONTRACTS
-----------------------------------------------------------------------------------------------------------------------------------MCCRACKIN NANCI
|
MUNICIPAL
HOMESTEAD
NON-RESIDENTIAL
|LAND
172,500
138 WINDY ROW
|BUILDING
27,000
|TOTAL REAL
199,500
199,500
PETERBOROUGH NH 03458
|SPEC EXEMPTION
0
TAX MAP:
09-058.000
|
PROP DESC: 47 ACRES & CAMP
|
911 ADDR: 593 TIGERTOWN RD
|
PARCEL ID: 09-058.000 SPAN: 450-142-12839
|
HOUSESITE:
95,400
ACRES:
47.00 R2 NS
|GRAND LIST
1,995.00
1,995.00
-----------------------------------------------------------------------------------------------------------------------------------MCCULLOUGH PAMELA H
HMSTD FILED |
MUNICIPAL
HOMESTEAD
NON-RESIDENTIAL
|LAND
145,100
PO BOX 1106
|BUILDING
294,100
|TOTAL REAL
439,200
439,200
NORWICH VT 05055-1106
|SPEC EXEMPTION
0
TAX MAP:
16-051.000
|
PROP DESC: 1.72 ACRES & DWL
|
911 ADDR: 102 CHURCH ST
|
PARCEL ID: 16-051.000 SPAN: 450-142-11859
|
HOUSESITE:
439,200
ACRES:
1.72 R1 T
|GRAND LIST
4,392.00
4,392.00
-----------------------------------------------------------------------------------------------------------------------------------MCDAVID LEE ANN
HMSTD FILED |
MUNICIPAL
HOMESTEAD
NON-RESIDENTIAL
|LAND
90,900
PO BOX 1359
|BUILDING
103,300
|TOTAL REAL
194,200
194,200
NORWICH VT 05055-1359
|SPEC EXEMPTION
0
TAX MAP:
10-174.000
|
PROP DESC: 1.25 ACRES & DWL
|
911 ADDR: 446 NEW BOSTON RD
|
PARCEL ID: 10-174.000 SPAN: 450-142-12287
|
HOUSESITE:
194,200
ACRES:
1.25 R1 T
|GRAND LIST
1,942.00
1,942.00
-----------------------------------------------------------------------------------------------------------------------------------MCDONALD LORI C
HMSTD FILED |
MUNICIPAL
HOMESTEAD
NON-RESIDENTIAL
|LAND
150,500
PO BOX 1125
|BUILDING
209,000
|TOTAL REAL
359,500
359,500
NORWICH VT 05055
|SPEC EXEMPTION
0
TAX MAP:
10-018.100
|
PROP DESC: 1.103 ACRE LOT
|
911 ADDR: 275 BEAVER MEADOW RD
|
PARCEL ID: 10-018.100 SPAN: 450-142-13239
|
HOUSESITE:
359,500
ACRES:
1.10 R1 T
|GRAND LIST
3,595.00
3,595.00
-----------------------------------------------------------------------------------------------------------------------------------MCDONNELL TERRANCE P
HMSTD FILED |
MUNICIPAL
HOMESTEAD
NON-RESIDENTIAL
|LAND
136,800
15 BRIGHAM HILL RD
|BUILDING
407,600
|TOTAL REAL
544,400
544,400
NORWICH VT 05055
|SPEC EXEMPTION
0
TAX MAP:
10-036.000
|
PROP DESC: 3.63 ACRES & DWL
|
911 ADDR: 15 BRIGHAM HILL RD
|
PARCEL ID: 10-036.000 SPAN: 450-142-11702
|
HOUSESITE:
537,100
ACRES:
3.63 R1 T
|GRAND LIST
5,444.00
5,444.00
------------------------------------------------------------------------------------------------------------------------------------
06/12/2015
01:32 pm
Town of Norwich Grand List
Grand List Report (Detail)
By Name For All Parcels In All Districts
Page 184
jbynum
PARCEL INFORMATION
TAXABLE VALUATIONS / EXEMPTIONS / CONTRACTS
-----------------------------------------------------------------------------------------------------------------------------------MCGEAN ELIZABETH A
|
MUNICIPAL
HOMESTEAD
NON-RESIDENTIAL
|LAND
152,100
6 MEADOW LN
|BUILDING
440,700
|TOTAL REAL
592,800
592,800
HANOVER NH 03755
|SPEC EXEMPTION
0
TAX MAP:
20-017.000
|
PROP DESC: 1.46 ACRES & DWL
|
911 ADDR: 7 PINE TREE RD
|
PARCEL ID: 20-017.000 SPAN: 450-142-12594
|
HOUSESITE:
592,800
ACRES:
1.46 R1 NS
|GRAND LIST
5,928.00
5,928.00
-----------------------------------------------------------------------------------------------------------------------------------MCGEE P SCOTT
HMSTD FILED |
MUNICIPAL
HOMESTEAD
NON-RESIDENTIAL
MCGEE CATHERINE C
|LAND
156,500
355 KERWIN HILL RD
|BUILDING
436,700
|TOTAL REAL
593,200
593,200
NORWICH VT 05055
|SPEC EXEMPTION
0
TAX MAP:
05-114.140
|
PROP DESC: 10.1 ACRES & DWL
|
911 ADDR: 355 KERWIN HILL RD
|
PARCEL ID: 05-114.140 SPAN: 450-142-12128
|
HOUSESITE:
564,100
ACRES:
10.10 R2 T
|GRAND LIST
5,932.00
5,932.00
-----------------------------------------------------------------------------------------------------------------------------------MCGEE P SCOTT
|
MUNICIPAL
HOMESTEAD
NON-RESIDENTIAL
MCGEE CATHERINE C
|LAND
138,600
355 KERWIN HILL RD
|BUILDING
300
|TOTAL REAL
138,900
138,900
NORWICH VT 05055
|SPEC EXEMPTION
0
TAX MAP:
04-035.100
|
PROP DESC: 24.97 ACRES; INCLUDES 04-035-110
|
911 ADDR: TURNPIKE RD
|
PARCEL ID: 04-035.100 SPAN: 450-142-13193
|
HOUSESITE:
0
ACRES:
24.97 M
T
|GRAND LIST
1,389.00
1,389.00
-----------------------------------------------------------------------------------------------------------------------------------MCGEE P SCOTT
|
MUNICIPAL
HOMESTEAD
NON-RESIDENTIAL
MCGEE CATHERINE C
|LAND
145,200
355 KERWIN HILL RD
|BUILDING
0
|TOTAL REAL
145,200
145,200
NORWICH VT 05055
|SPEC EXEMPTION
0
TAX MAP:
04-035.200
|
PROP DESC: 11.71 ACRES
|
911 ADDR: TURNPIKE RD
|
PARCEL ID: 04-035.200 SPAN: 450-142-13198
|
HOUSESITE:
0
ACRES:
11.71 M
T
|GRAND LIST
1,452.00
1,452.00
-----------------------------------------------------------------------------------------------------------------------------------MCGINLEY-SMITH DANIEL E
|
MUNICIPAL
HOMESTEAD
NON-RESIDENTIAL
MCGINLEY-SMITH SARAH L
|LAND
175,900
37 BEAVER MEADOW RD
|BUILDING
347,100
|TOTAL REAL
523,000
523,000
NORWICH VT 05055
|SPEC EXEMPTION
0
TAX MAP:
20-260.000
|
PROP DESC: 1.2 ACRES & DWL
|
911 ADDR: 37 BEAVER MEADOW RD
|
PARCEL ID: 20-260.000 SPAN: 450-142-12232
|
HOUSESITE:
523,000
ACRES:
1.20 R1 T
|GRAND LIST
5,230.00
5,230.00
------------------------------------------------------------------------------------------------------------------------------------
06/12/2015
01:32 pm
Town of Norwich Grand List
Grand List Report (Detail)
By Name For All Parcels In All Districts
Page 185
jbynum
PARCEL INFORMATION
TAXABLE VALUATIONS / EXEMPTIONS / CONTRACTS
-----------------------------------------------------------------------------------------------------------------------------------MCGOVERN MARK P
HMSTD FILED |
MUNICIPAL
HOMESTEAD
NON-RESIDENTIAL
STECKER TRACY
|LAND
123,300
444 TURNPIKE ROAD
|BUILDING
417,600
|TOTAL REAL
540,900
540,900
NORWICH VT 05055
|SPEC EXEMPTION
0
TAX MAP:
10-109.100
|
PROP DESC: 2 ACRES & DWL
|
911 ADDR: 444 TURNPIKE RD
|
PARCEL ID: 10-109.100 SPAN: 450-142-12924
|
HOUSESITE:
540,900
ACRES:
2.00 R1 T
|GRAND LIST
5,409.00
5,409.00
-----------------------------------------------------------------------------------------------------------------------------------MCGREW SUSAN TRUSTEE
HMSTD FILED |
MUNICIPAL
HOMESTEAD
NON-RESIDENTIAL
|LAND
150,900
496 MAIN ST
|BUILDING
231,800
|TOTAL REAL
382,700
382,700
NORWICH VT 05055
|SPEC EXEMPTION
0
TAX MAP:
20-155.000
|
PROP DESC: 1.2 ACRES & DWL
|
911 ADDR: 496 MAIN ST
|
PARCEL ID: 20-155.000 SPAN: 450-142-12449
|
HOUSESITE:
382,700
ACRES:
1.20 R1 T
|GRAND LIST
3,827.00
3,827.00
-----------------------------------------------------------------------------------------------------------------------------------MCINDOE FARM LLC
|
MUNICIPAL
HOMESTEAD
NON-RESIDENTIAL
|LAND
436,100
PO BOX 1310
|BUILDING
0
|TOTAL REAL
436,100
436,100
NORWICH VT 05055
|SPEC EXEMPTION
0
TAX MAP:
10-047.100
|
PROP DESC: 119.95 ACRES
|
911 ADDR: TURNPIKE RD
|CURRENT USE
415,000
415,000
PARCEL ID: 10-047.100 SPAN: 450-142-13222
|
HOUSESITE:
0
ACRES:
119.85 M
NS
|GRAND LIST
211.00
211.00
-----------------------------------------------------------------------------------------------------------------------------------MCKENNA JOHN A
HMSTD FILED |
MUNICIPAL
HOMESTEAD
NON-RESIDENTIAL
CAMPBELL CAROL A
|LAND
138,000
31 OLD COACH RD
|BUILDING
503,300
|TOTAL REAL
641,300
641,300
NORWICH VT 05055
|SPEC EXEMPTION
0
TAX MAP:
11-013.000
|
PROP DESC: 1.6 ACRES & DWL
|
911 ADDR: 31 OLD COACH RD
|
PARCEL ID: 11-013.000 SPAN: 450-142-12481
|
HOUSESITE:
641,300
ACRES:
1.60 R1 T
|GRAND LIST
6,413.00
6,413.00
-----------------------------------------------------------------------------------------------------------------------------------MCLAIN GEORGE S
HMSTD FILED |
MUNICIPAL
HOMESTEAD
NON-RESIDENTIAL
|LAND
119,200
296 TURNPIKE RD
|BUILDING
74,600
|TOTAL REAL
193,800
193,800
NORWICH VT 05055
|SPEC EXEMPTION
0
TAX MAP:
10-191.000
|
PROP DESC: 1.1 ACRES & DWL
|
911 ADDR: 296 TURNPIKE RD
|
PARCEL ID: 10-191.000 SPAN: 450-142-12914
|
HOUSESITE:
193,800
ACRES:
1.10 R1 T
|GRAND LIST
1,938.00
1,938.00
------------------------------------------------------------------------------------------------------------------------------------
06/12/2015
01:32 pm
Town of Norwich Grand List
Grand List Report (Detail)
By Name For All Parcels In All Districts
Page 186
jbynum
PARCEL INFORMATION
TAXABLE VALUATIONS / EXEMPTIONS / CONTRACTS
-----------------------------------------------------------------------------------------------------------------------------------MCLAUGHRY ROBERT J
|
MUNICIPAL
HOMESTEAD
NON-RESIDENTIAL
MCLAUGHRY SUSAN E.
|LAND
242,800
38 HUNTLEY ST
|BUILDING
302,700
|TOTAL REAL
545,500
545,500
NORWICH VT 05055-9408
|SPEC EXEMPTION
0
TAX MAP:
10-004.110
|
PROP DESC: 12 ACRES & DWL/APT & 1 ADDL LOT (NV)
|
911 ADDR: 873 BRAGG HILL RD
|
PARCEL ID: 10-004.110 SPAN: 450-142-11691
|
HOUSESITE:
417,860
ACRES:
12.00 R2 T
|GRAND LIST
5,455.00
5,455.00
-----------------------------------------------------------------------------------------------------------------------------------MCLAUGHRY SUSAN F
HMSTD FILED |
MUNICIPAL
HOMESTEAD
NON-RESIDENTIAL
|LAND
571,100
1093 BRAGG HILL RD
|BUILDING
449,700
|TOTAL REAL
1020,800
1020,800
NORWICH VT 05055
|SPEC EXEMPTION
0
TAX MAP:
09-046.000
|
PROP DESC: 133.6 ACRES & DWL INCL 2 ADDL LOTS
|
911 ADDR: 1093 BRAGG HILL RD
|CURRENT USE
341,300
341,300
PARCEL ID: 09-046.000 SPAN: 450-142-11696
|
HOUSESITE:
650,500
ACRES:
129.20 R2 T
|GRAND LIST
6,795.00
6,795.00
-----------------------------------------------------------------------------------------------------------------------------------MCLAUGHRY SUSAN F
|
MUNICIPAL
HOMESTEAD
NON-RESIDENTIAL
MCLAUGHRY LEAH M
|LAND
154,100
1093 BRAGG HILL RD
|BUILDING
0
|TOTAL REAL
154,100
154,100
NORWICH VT 05055
|SPEC EXEMPTION
0
TAX MAP:
|
PROP DESC: 4.4 ACRES LAND ONLY
|
911 ADDR: BRAGG HILL RD
|
PARCEL ID: 09-046.100 SPAN: 450-142-13438
|
HOUSESITE:
0
ACRES:
4.40 M
T
|GRAND LIST
1,541.00
1,541.00
-----------------------------------------------------------------------------------------------------------------------------------MCLAUGHRY WILLIAM E
|
MUNICIPAL
HOMESTEAD
NON-RESIDENTIAL
|LAND
166,900
207 WILLEY HILL ROAD
|BUILDING
923,800
|TOTAL REAL
1090,700
1090,700
NORWICH VT 05055
|SPEC EXEMPTION
0
TAX MAP:
11-201.100
|
PROP DESC: 17.5 ACRES & DWL/CARETAKER DWL
|
911 ADDR: 207 WILLEY HILL RD
|
PARCEL ID: 11-201.100 SPAN: 450-142-13164
|
HOUSESITE:
946,000
ACRES:
17.50 R2 T
|GRAND LIST
10,907.00
10,907.00
-----------------------------------------------------------------------------------------------------------------------------------MCLAUGHRY WILLIAM E
|
MUNICIPAL
HOMESTEAD
NON-RESIDENTIAL
|LAND
167,700
207 WILLEY HILL ROAD
|BUILDING
247,800
|TOTAL REAL
415,500
415,500
NORWICH VT 05055
|SPEC EXEMPTION
0
TAX MAP:
15-052.000
|
PROP DESC: 15.3 ACRES & DWL
|
911 ADDR: 276 HOPSON RD
|
PARCEL ID: 15-052.000 SPAN: 450-142-12068
|
HOUSESITE:
376,100
ACRES:
15.30 R2 S
|GRAND LIST
4,155.00
4,155.00
------------------------------------------------------------------------------------------------------------------------------------
06/12/2015
01:32 pm
Town of Norwich Grand List
Grand List Report (Detail)
By Name For All Parcels In All Districts
Page 187
jbynum
PARCEL INFORMATION
TAXABLE VALUATIONS / EXEMPTIONS / CONTRACTS
-----------------------------------------------------------------------------------------------------------------------------------MCLELLAN JASON
|
MUNICIPAL
HOMESTEAD
NON-RESIDENTIAL
LAWSON JINELLE
|LAND
135,900
191 BEAVER MEADOW ROAD
|BUILDING
168,300
|TOTAL REAL
304,200
304,200
NORWICH VT 05055
|SPEC EXEMPTION
0
TAX MAP:
20-071.000
|
PROP DESC: 1.4 ACRES & DWL
|
911 ADDR: 191 BEAVER MEADOW RD
|
PARCEL ID: 20-071.000 SPAN: 450-142-12214
|
HOUSESITE:
304,200
ACRES:
1.40 R1 T
|GRAND LIST
3,042.00
3,042.00
-----------------------------------------------------------------------------------------------------------------------------------MCNAMARA LINDA MIRANDA
HMSTD FILED |
MUNICIPAL
HOMESTEAD
NON-RESIDENTIAL
MCNAMARA JAMES L
|LAND
147,400
352 MAIN ST
|BUILDING
411,000
|TOTAL REAL
558,400
558,400
NORWICH VT 05055
|SPEC EXEMPTION
0
TAX MAP:
20-207.000
|
PROP DESC: 0.55 ACRE & DWL
|
911 ADDR: 352 MAIN ST
|
PARCEL ID: 20-207.000 SPAN: 450-142-12420
|
HOUSESITE:
558,400
ACRES:
0.55 R1 T
|GRAND LIST
5,584.00
5,584.00
-----------------------------------------------------------------------------------------------------------------------------------MCPHETRES CHRISTOPHER J
|
MUNICIPAL
HOMESTEAD
NON-RESIDENTIAL
|LAND
65,600
8405 VT ROUTE 14
|BUILDING
21,200
|TOTAL REAL
86,800
86,800
SOUTH ROYALTON VT 05068-5129
|SPEC EXEMPTION
0
TAX MAP:
03-013.000
|
PROP DESC: 1.9 ACRES & MOBILE HOME
|
911 ADDR: 23 MITCHELL BROOK RD
|
PARCEL ID: 03-013.000 SPAN: 450-142-12257
|
HOUSESITE:
86,800
ACRES:
1.90 MHL S
|GRAND LIST
868.00
868.00
-----------------------------------------------------------------------------------------------------------------------------------MCTAGGART JAMES J
HMSTD FILED |
MUNICIPAL
HOMESTEAD
NON-RESIDENTIAL
MCTAGGART KATHLEEN R.
|LAND
59,400
71 UPPER LOVELAND RD
|BUILDING
153,300
|TOTAL REAL
212,700
212,700
NORWICH VT 05055
|SPEC EXEMPTION
0
TAX MAP:
16-012.100
|
PROP DESC: 1.06 ACRES & DWL
|
911 ADDR: 71 UPPER LOVELAND RD
|
PARCEL ID: 16-012.100 SPAN: 450-142-13083
|
HOUSESITE:
212,700
ACRES:
1.06 R1 T
|GRAND LIST
2,127.00
2,127.00
-----------------------------------------------------------------------------------------------------------------------------------MEDORA CHRISTINE R
HMSTD FILED |
MUNICIPAL
HOMESTEAD
NON-RESIDENTIAL
ODELL NEIL P
|LAND
116,400
11 EAGLE LN
|BUILDING
346,300
|TOTAL REAL
462,700
462,700
NORWICH VT 05055
|SPEC EXEMPTION
0
TAX MAP:
11-177.000
|
PROP DESC: 1 ACRE & DWL
|
911 ADDR: 11 EAGLE LN
|
PARCEL ID: 11-177.000 SPAN: 450-142-12536
|
HOUSESITE:
462,700
ACRES:
1.00 R1 T
|GRAND LIST
4,627.00
4,627.00
------------------------------------------------------------------------------------------------------------------------------------
06/12/2015
01:32 pm
Town of Norwich Grand List
Grand List Report (Detail)
By Name For All Parcels In All Districts
Page 188
jbynum
PARCEL INFORMATION
TAXABLE VALUATIONS / EXEMPTIONS / CONTRACTS
-----------------------------------------------------------------------------------------------------------------------------------MEFFERD FRANK TRUSTEE
|
MUNICIPAL
HOMESTEAD
NON-RESIDENTIAL
MEFFERD YVONNE TRUSTEE
|LAND
155,300
317 COMANCHE ROAD
|BUILDING
478,500
|TOTAL REAL
633,800
633,800
MONTGOMERY TX 77316
|SPEC EXEMPTION
0
TAX MAP:
06-049.000
|
PROP DESC: 13 ACRES & DWL/2 APTS
|
911 ADDR: 202 VT ROUTE 132
|
PARCEL ID: 06-049.000 SPAN: 450-142-12767
|
HOUSESITE:
606,900
ACRES:
13.00 R2 NS
|GRAND LIST
6,338.00
6,338.00
-----------------------------------------------------------------------------------------------------------------------------------MELENDY TERRY D
HMSTD FILED |
MUNICIPAL
HOMESTEAD
NON-RESIDENTIAL
MELENDY SHELLY
|LAND
59,400
95 UPPER LOVELAND RD
|BUILDING
134,500
|TOTAL REAL
193,900
193,900
NORWICH VT 05055
|SPEC EXEMPTION
0
TAX MAP:
16-011.000
|
PROP DESC: 1.06 ACRES & DWL
|
911 ADDR: 95 UPPER LOVELAND RD
|
PARCEL ID: 16-011.000 SPAN: 450-142-13084
|
HOUSESITE:
193,900
ACRES:
1.06 R1 T
|GRAND LIST
1,939.00
1,939.00
-----------------------------------------------------------------------------------------------------------------------------------MERCHANT HAZEL H REV TRUST
HMSTD FILED |
MUNICIPAL
HOMESTEAD
NON-RESIDENTIAL
|LAND
123,900
24 HILLTOP PLACE
|BUILDING
190,700
|TOTAL REAL
314,600
314,600
NEW LONDON NH 03257
|SPEC EXEMPTION
0
TAX MAP:
11-118.000
|
PROP DESC: 7 ACRES & DWL
|
911 ADDR: 591 GOODRICH FOUR CORNERS RD
|
PARCEL ID: 11-118.000 SPAN: 450-142-12004
|
HOUSESITE:
294,700
ACRES:
7.00 R2 T
|GRAND LIST
3,146.00
3,146.00
-----------------------------------------------------------------------------------------------------------------------------------MERRENS EDWARD
HMSTD FILED |
MUNICIPAL
HOMESTEAD
NON-RESIDENTIAL
MERRENS MARGARET
|LAND
159,500
P O BOX 1217
|BUILDING
314,600
|TOTAL REAL
474,100
474,100
NORWICH VT 05055-1217
|SPEC EXEMPTION
0
TAX MAP:
05-140.000
|
PROP DESC: 23 ACRES & DWL
|
911 ADDR: 96 MEETINGHOUSE RD
|
PARCEL ID: 05-140.000 SPAN: 450-142-12331
|
HOUSESITE:
415,700
ACRES:
23.00 R2 T
|GRAND LIST
4,741.00
4,741.00
-----------------------------------------------------------------------------------------------------------------------------------MERRENS MATTHEW
HMSTD FILED |
MUNICIPAL
HOMESTEAD
NON-RESIDENTIAL
MERRENS ROBERTA
|LAND
135,800
PO BOX 1005
|BUILDING
408,600
|TOTAL REAL
544,400
544,400
NORWICH VT 05055
|SPEC EXEMPTION
0
TAX MAP:
20-168.000
|
PROP DESC: .36 ACRE & DWL
|
911 ADDR: 458 MAIN ST
|
PARCEL ID: 20-168.000 SPAN: 450-142-12443
|
HOUSESITE:
544,400
ACRES:
0.36 R1 T
|GRAND LIST
5,444.00
5,444.00
------------------------------------------------------------------------------------------------------------------------------------
06/12/2015
01:32 pm
Town of Norwich Grand List
Grand List Report (Detail)
By Name For All Parcels In All Districts
Page 189
jbynum
PARCEL INFORMATION
TAXABLE VALUATIONS / EXEMPTIONS / CONTRACTS
-----------------------------------------------------------------------------------------------------------------------------------MERRILL BARBARA J
HMSTD FILED |
MUNICIPAL
HOMESTEAD
NON-RESIDENTIAL
|LAND
135,200
32 BEAVER MEADOW RD
|BUILDING
243,000
|TOTAL REAL
378,200
378,200
NORWICH VT 05055
|SPEC EXEMPTION
0
TAX MAP:
20-118.000
|
PROP DESC: .35 ACRE & DWL
|
911 ADDR: 32 BEAVER MEADOW RD
|
PARCEL ID: 20-118.000 SPAN: 450-142-12230
|
HOUSESITE:
378,200
ACRES:
0.35 R1 T
|GRAND LIST
3,782.00
3,782.00
-----------------------------------------------------------------------------------------------------------------------------------METCALF CHARLOTTE S
HMSTD FILED |
MUNICIPAL
HOMESTEAD
NON-RESIDENTIAL
|LAND
697,700
652 PATTRELL RD
|BUILDING
1001,600
|TOTAL REAL
1699,300
1404,300
295,000
NORWICH VT 05055
|SPEC EXEMPTION
0
0
TAX MAP:
05-095.000
|
PROP DESC: 201.65 ACRES & 3 DWL
|
911 ADDR: 652 PATTRELL RD
|CURRENT USE
391,500
391,500
PARCEL ID: 05-095.000 SPAN: 450-142-12510
|CONTRACTS
11,300
11,300
HOUSESITE:
845,400
ACRES:
201.65 F
T
|GRAND LIST
12,965.00
10,015.00
2,950.00
-----------------------------------------------------------------------------------------------------------------------------------METCALF LUCY D TRUSTEE ET AL
|
MUNICIPAL
HOMESTEAD
NON-RESIDENTIAL
C/O HEMENWAY BARNES LLP
|LAND
803,100
60 STATE STREET
|BUILDING
281,400
|TOTAL REAL
1084,500
1084,500
BOSTON MA 02109
|SPEC EXEMPTION
0
TAX MAP:
05-110.000
|
PROP DESC: 188 ACRES & 2 DWLS & 2 ADDL LOTS
|
911 ADDR: 433 PATTRELL RD
|CURRENT USE
519,700
519,700
PARCEL ID: 05-110.000 SPAN: 450-142-12509
|
HOUSESITE:
369,500
ACRES:
188.00 R2 NS
|GRAND LIST
5,648.00
5,648.00
-----------------------------------------------------------------------------------------------------------------------------------MEYER JON W
HMSTD FILED |
MUNICIPAL
HOMESTEAD
NON-RESIDENTIAL
MEYER DEBORAH O
|LAND
115,600
PO BOX 824
|BUILDING
202,300
|TOTAL REAL
317,900
317,900
NORWICH VT 05055
|SPEC EXEMPTION
0
TAX MAP:
10-170.000
|
PROP DESC: 5.1 ACRES & DWL INCL 1 ADDL LOT (NV)
|
911 ADDR: 498 NEW BOSTON RD
|
PARCEL ID: 10-170.000 SPAN: 450-142-12292
|
HOUSESITE:
306,800
ACRES:
5.10 R1 T
|GRAND LIST
3,179.00
3,179.00
-----------------------------------------------------------------------------------------------------------------------------------MEYERROSE ANNA
HMSTD FILED |
MUNICIPAL
HOMESTEAD
NON-RESIDENTIAL
|LAND
127,100
PO BOX 438
|BUILDING
479,200
|TOTAL REAL
606,300
606,300
NORWICH VT 05055
|SPEC EXEMPTION
0
TAX MAP:
11-120.000
|
PROP DESC: 10.4 ACRES & DWL
|
911 ADDR: 619 GOODRICH FOUR CORNERS RD
|
PARCEL ID: 11-120.000 SPAN: 450-142-12008
|
HOUSESITE:
577,800
ACRES:
10.40 R2 T
|GRAND LIST
6,063.00
6,063.00
------------------------------------------------------------------------------------------------------------------------------------
06/12/2015
01:32 pm
Town of Norwich Grand List
Grand List Report (Detail)
By Name For All Parcels In All Districts
Page 190
jbynum
PARCEL INFORMATION
TAXABLE VALUATIONS / EXEMPTIONS / CONTRACTS
-----------------------------------------------------------------------------------------------------------------------------------MICAZILIO GLENN C
|
MUNICIPAL
HOMESTEAD
NON-RESIDENTIAL
TANGREDI CHRISTINA
|LAND
136,700
3 HADDOCK LANE
|BUILDING
0
|TOTAL REAL
136,700
136,700
WEST LEBANON NH 03784
|SPEC EXEMPTION
0
TAX MAP:
20-031.100
|
PROP DESC: 1.37 ACRES
|
911 ADDR: 82 HOPSON RD
|
PARCEL ID: 20-031.100 SPAN: 450-142-13342
|
HOUSESITE:
0
ACRES:
1.37 M
NS
|GRAND LIST
1,367.00
1,367.00
-----------------------------------------------------------------------------------------------------------------------------------MICHAELIDES-RAHMANN FAMILY REVOCABLE TRU
HMSTD FILED |
MUNICIPAL
HOMESTEAD
NON-RESIDENTIAL
|LAND
156,800
96 CHURCH ST
|BUILDING
389,500
|TOTAL REAL
546,300
546,300
NORWICH VT 05055-9450
|SPEC EXEMPTION
0
TAX MAP:
16-050.000
|
PROP DESC: 2.9 ACRES & DWL/APT
|
911 ADDR: 96 CHURCH ST
|
PARCEL ID: 16-050.000 SPAN: 450-142-11856
|
HOUSESITE:
543,100
ACRES:
2.90 R1 T
|GRAND LIST
5,463.00
5,463.00
-----------------------------------------------------------------------------------------------------------------------------------MICHEL MELANIE
HMSTD FILED |
MUNICIPAL
HOMESTEAD
NON-RESIDENTIAL
FOSSETT KEITH
|LAND
105,300
11 BROOKSIDE DR
|BUILDING
242,500
|TOTAL REAL
347,800
347,800
NORWICH VT 05055
|SPEC EXEMPTION
0
TAX MAP:
20-266.000
|
PROP DESC: 0.55 ACRE & DWL
|
911 ADDR: 11 BROOKSIDE DR
|
PARCEL ID: 20-266.000 SPAN: 450-142-11717
|
HOUSESITE:
347,800
ACRES:
0.55 R1 T
|GRAND LIST
3,478.00
3,478.00
-----------------------------------------------------------------------------------------------------------------------------------MILES WILLIAM C JR
HMSTD FILED |
MUNICIPAL
HOMESTEAD
NON-RESIDENTIAL
MILES PAMELA L
|LAND
117,500
7 FALCON LN
|BUILDING
244,900
|TOTAL REAL
362,400
362,400
NORWICH VT 05055-9627
|SPEC EXEMPTION
0
TAX MAP:
11-173.000
|
PROP DESC: 1.31 ACRES & DWL
|
911 ADDR: 7 FALCON LN
|
PARCEL ID: 11-173.000 SPAN: 450-142-12541
|
HOUSESITE:
362,400
ACRES:
1.31 R1 T
|GRAND LIST
3,624.00
3,624.00
-----------------------------------------------------------------------------------------------------------------------------------MILICH KLAUS J
HMSTD FILED |
MUNICIPAL
HOMESTEAD
NON-RESIDENTIAL
|LAND
0
40 NORWICH MEADOWS #13
|BUILDING
170,200
|TOTAL REAL
170,200
170,200
NORWICH VT 05055
|SPEC EXEMPTION
0
TAX MAP:
15-055.013
|
PROP DESC: 40 NORWICH MEADOW UNIT 13
|
911 ADDR: 40 NORWICH MEADOWS 13
|
PARCEL ID: 15-055.013 SPAN: 450-142-11749
|
HOUSESITE:
170,200
ACRES:
0.00 O
T
|GRAND LIST
1,702.00
1,702.00
------------------------------------------------------------------------------------------------------------------------------------
06/12/2015
01:32 pm
Town of Norwich Grand List
Grand List Report (Detail)
By Name For All Parcels In All Districts
Page 191
jbynum
PARCEL INFORMATION
TAXABLE VALUATIONS / EXEMPTIONS / CONTRACTS
-----------------------------------------------------------------------------------------------------------------------------------MILLARD WILLIAM J
HMSTD FILED |
MUNICIPAL
HOMESTEAD
NON-RESIDENTIAL
JACKSON PATRICIA PIKE
|LAND
97,800
35 DOC HARDY LANE
|BUILDING
340,800
|TOTAL REAL
438,600
438,600
NORWICH VT 05055
|SPEC EXEMPTION
0
TAX MAP:
05-002.200
|
PROP DESC: 2.3 ACRES & DWL
|
911 ADDR: 35 DOC HARDY LN
|
PARCEL ID: 05-002.200 SPAN: 450-142-12321
|
HOUSESITE:
437,500
ACRES:
2.30 R1 T
|GRAND LIST
4,386.00
4,386.00
-----------------------------------------------------------------------------------------------------------------------------------MILLER ASHLEY A
HMSTD FILED |
MUNICIPAL
HOMESTEAD
NON-RESIDENTIAL
|LAND
89,300
1408 US ROUTE 5 N
|BUILDING
192,800
|TOTAL REAL
282,100
282,100
NORWICH VT 05055
|SPEC EXEMPTION
0
TAX MAP:
12-022.000
|
PROP DESC: .97 ACRES & DWL
|
911 ADDR: 1408 US ROUTE 5 NORTH
|
PARCEL ID: 12-022.000 SPAN: 450-142-12714
|
HOUSESITE:
282,100
ACRES:
0.97 R1 T
|GRAND LIST
2,821.00
2,821.00
-----------------------------------------------------------------------------------------------------------------------------------MILLER CANDACE C
HMSTD FILED |
MUNICIPAL
HOMESTEAD
NON-RESIDENTIAL
MILLER CHESTER V
|LAND
131,900
32 PATTRELL RD
|BUILDING
273,400
|TOTAL REAL
405,300
405,300
NORWICH VT 05055
|SPEC EXEMPTION
0
TAX MAP:
11-059.000
|
PROP DESC: 2.8 ACRES & DWL
|
911 ADDR: 32 PATTRELL RD
|
PARCEL ID: 11-059.000 SPAN: 450-142-12495
|
HOUSESITE:
401,700
ACRES:
2.80 R1 T
|GRAND LIST
4,053.00
4,053.00
-----------------------------------------------------------------------------------------------------------------------------------MILLER ERIC K
HMSTD FILED |
MUNICIPAL
HOMESTEAD
NON-RESIDENTIAL
MILLER ALISON B.
|LAND
579,000
PO BOX 1227
|BUILDING
639,900
|TOTAL REAL
1218,900
930,200
288,700
NORWICH VT 05055-1227
|SPEC EXEMPTION
0
0
TAX MAP:
04-020.200
|
PROP DESC: 114.6 ACRES & DWL INCL 2 ADDL LOT
|
911 ADDR: 243 BIRCH HILL LN
|
PARCEL ID: 04-020.200 SPAN: 450-142-12988
|
HOUSESITE:
796,000
ACRES:
114.60 R2 T
|GRAND LIST
12,189.00
9,302.00
2,887.00
-----------------------------------------------------------------------------------------------------------------------------------MILLER JUDITH VON D
HMSTD FILED |
MUNICIPAL
HOMESTEAD
NON-RESIDENTIAL
|LAND
230,200
PO BOX 333
|BUILDING
701,800
|TOTAL REAL
932,000
655,200
276,800
NORWICH VT 05055
|SPEC EXEMPTION
0
0
TAX MAP:
10-113.000
|
PROP DESC: 36.74 AC & 2 DWLS
|
911 ADDR: 177 NEW BOSTON RD
|
PARCEL ID: 10-113.000 SPAN: 450-142-12274
|
HOUSESITE:
552,900
ACRES:
36.74 R2 T
|GRAND LIST
9,320.00
6,552.00
2,768.00
------------------------------------------------------------------------------------------------------------------------------------
06/12/2015
01:32 pm
Town of Norwich Grand List
Grand List Report (Detail)
By Name For All Parcels In All Districts
Page 192
jbynum
PARCEL INFORMATION
TAXABLE VALUATIONS / EXEMPTIONS / CONTRACTS
-----------------------------------------------------------------------------------------------------------------------------------MILLER JUDITH VON D
|
MUNICIPAL
HOMESTEAD
NON-RESIDENTIAL
|LAND
22,500
PO BOX 333
|BUILDING
0
|TOTAL REAL
22,500
22,500
NORWICH VT 05055
|SPEC EXEMPTION
0
TAX MAP:
10-120.000
|
PROP DESC: 5 ACS (LOTS 1&3 BESKIND SUBDIVISION)
|
911 ADDR: NEW BOSTON RD
|
PARCEL ID: 10-120.000 SPAN: 450-142-12280
|
HOUSESITE:
0
ACRES:
5.00 M
T
|GRAND LIST
225.00
225.00
-----------------------------------------------------------------------------------------------------------------------------------MILLER PENNY F
|
MUNICIPAL
HOMESTEAD
NON-RESIDENTIAL
WHITE GILLIAN F
|LAND
407,200
15224 DOVER RD
|BUILDING
0
|TOTAL REAL
407,200
407,200
REISTERTOWN MD 21136
|SPEC EXEMPTION
0
TAX MAP:
04-054.000
|
PROP DESC: 144.3 ACRES
|
911 ADDR: NEW BOSTON RD
|CURRENT USE
388,200
388,200
PARCEL ID: 04-054.000 SPAN: 450-142-12310
|
HOUSESITE:
0
ACRES:
144.30 M
NS
|GRAND LIST
190.00
190.00
-----------------------------------------------------------------------------------------------------------------------------------MILLER STEPHEN D
HMSTD FILED |
MUNICIPAL
HOMESTEAD
NON-RESIDENTIAL
LEAKE REBECCA
|LAND
105,800
12 CAMPBELL FLATS RD
|BUILDING
200,700
|TOTAL REAL
306,500
306,500
NORWICH VT 05055
|SPEC EXEMPTION
0
TAX MAP:
06-048.000
|
PROP DESC: 2.5 ACRES & DWL/APT
|
911 ADDR: 12 CAMPBELL FLATS RD
|
PARCEL ID: 06-048.000 SPAN: 450-142-11759
|
HOUSESITE:
304,200
ACRES:
2.50 R1 T
|GRAND LIST
3,065.00
3,065.00
-----------------------------------------------------------------------------------------------------------------------------------MILLER WILHEMINA DINGEMANS
HMSTD FILED |
MUNICIPAL
HOMESTEAD
NON-RESIDENTIAL
MILLER ROBERT A JR
|LAND
113,700
819 UNION VILLAGE RD
|BUILDING
244,200
|TOTAL REAL
357,900
357,900
NORWICH VT 05055
|SPEC EXEMPTION
0
TAX MAP:
11-050.110
|
PROP DESC: 5.23 ACRES & DWL
|
911 ADDR: 819 UNION VILLAGE RD
|
PARCEL ID: 11-050.110 SPAN: 450-142-13032
|
HOUSESITE:
343,600
ACRES:
5.23 R1 T
|GRAND LIST
3,579.00
3,579.00
-----------------------------------------------------------------------------------------------------------------------------------MILLIKEN PETER H
HMSTD FILED |
MUNICIPAL
HOMESTEAD
NON-RESIDENTIAL
MILLIKEN ASHLEY E
|LAND
227,600
160 HAPPY HILL RD
|BUILDING
655,500
|TOTAL REAL
883,100
883,100
NORWICH VT 05055
|SPEC EXEMPTION
0
TAX MAP:
15-014.200
|
PROP DESC: 12.4 ACRES & DWL
|
911 ADDR: 160 HAPPY HILL RD
|
PARCEL ID: 15-014.200 SPAN: 450-142-12018
|
HOUSESITE:
813,300
ACRES:
24.80 R2 T
|GRAND LIST
8,831.00
8,831.00
------------------------------------------------------------------------------------------------------------------------------------
06/12/2015
01:32 pm
Town of Norwich Grand List
Grand List Report (Detail)
By Name For All Parcels In All Districts
Page 193
jbynum
PARCEL INFORMATION
TAXABLE VALUATIONS / EXEMPTIONS / CONTRACTS
-----------------------------------------------------------------------------------------------------------------------------------MILLS LETHA E
HMSTD FILED |
MUNICIPAL
HOMESTEAD
NON-RESIDENTIAL
|LAND
171,600
286 MAPLE HILL RD
|BUILDING
351,200
|TOTAL REAL
522,800
522,800
NORWICH VT 05055
|SPEC EXEMPTION
0
TAX MAP:
11-164.000
|
PROP DESC: 10 ACRES & DWL
|
911 ADDR: 286 MAPLE HILL RD
|
PARCEL ID: 11-164.000 SPAN: 450-142-12166
|
HOUSESITE:
501,100
ACRES:
9.40 R2 T
|GRAND LIST
5,228.00
5,228.00
-----------------------------------------------------------------------------------------------------------------------------------MILLS PETER D
HMSTD FILED |
MUNICIPAL
HOMESTEAD
NON-RESIDENTIAL
SCHEINER JANINE S.
|LAND
128,100
48 MIDDLE RD
|BUILDING
317,900
|TOTAL REAL
446,000
446,000
NORWICH VT 05055
|SPEC EXEMPTION
0
TAX MAP:
05-097.100
|
PROP DESC: 9.16 ACRES & DWL
|
911 ADDR: 48 MIDDLE RD
|
PARCEL ID: 05-097.100 SPAN: 450-142-12249
|
HOUSESITE:
419,600
ACRES:
9.16 R2 T
|GRAND LIST
4,460.00
4,460.00
-----------------------------------------------------------------------------------------------------------------------------------MINARD ELLEN
HMSTD FILED |
MUNICIPAL
HOMESTEAD
NON-RESIDENTIAL
|LAND
127,700
85 TUCKER HILL RD
|BUILDING
245,000
|TOTAL REAL
372,700
372,700
NORWICH VT 05055
|SPEC EXEMPTION
0
TAX MAP:
09-039.000
|
PROP DESC: 3.8 ACRES & DWL
|
911 ADDR: 85 TUCKER HILL RD
|
PARCEL ID: 09-039.000 SPAN: 450-142-12880
|
HOUSESITE:
366,200
ACRES:
3.80 R1 T
|GRAND LIST
3,727.00
3,727.00
-----------------------------------------------------------------------------------------------------------------------------------MINSHALL DAVID J
HMSTD FILED |
MUNICIPAL
HOMESTEAD
NON-RESIDENTIAL
MINSHALL KATHLEEN
|LAND
0
74 STARLAKE
|BUILDING
108,000
|TOTAL REAL
108,000
108,000
NORWICH VT 05055
|SPEC EXEMPTION
0
TAX MAP:
12-003.210
|
PROP DESC: DWELLING ONLY LOT 10
|
911 ADDR: 74 STARLAKE LN
|
PARCEL ID: 12-003.210 SPAN: 450-142-12697
|
HOUSESITE:
108,000
ACRES:
0.00 R1 T
|GRAND LIST
1,080.00
1,080.00
-----------------------------------------------------------------------------------------------------------------------------------MIRALDI LAURA F
HMSTD FILED |
MUNICIPAL
HOMESTEAD
NON-RESIDENTIAL
MIRALDI LEONARD W.
|LAND
78,500
34 STOWELL RD
|BUILDING
180,700
|TOTAL REAL
259,200
259,200
NORWICH VT 05055
|SPEC EXEMPTION
0
TAX MAP:
05-025.000
|
PROP DESC: 4.3 ACRES & DWL
|
911 ADDR: 34 STOWELL RD
|
PARCEL ID: 05-025.000 SPAN: 450-142-12407
|
HOUSESITE:
249,900
ACRES:
4.30 R1 T
|GRAND LIST
2,592.00
2,592.00
------------------------------------------------------------------------------------------------------------------------------------
06/12/2015
01:32 pm
Town of Norwich Grand List
Grand List Report (Detail)
By Name For All Parcels In All Districts
Page 194
jbynum
PARCEL INFORMATION
TAXABLE VALUATIONS / EXEMPTIONS / CONTRACTS
-----------------------------------------------------------------------------------------------------------------------------------MITCHELL MARY JANE
HMSTD FILED |
MUNICIPAL
HOMESTEAD
NON-RESIDENTIAL
|LAND
161,500
700 UPPER TURNPIKE RD
|BUILDING
367,400
|TOTAL REAL
528,900
528,900
NORWICH VT 05055
|SPEC EXEMPTION
0
TAX MAP:
04-046.000
|
PROP DESC: 21 ACRES & DWL
|
911 ADDR: 700 UPPER TURNPIKE RD
|
PARCEL ID: 04-046.000 SPAN: 450-142-13122
|
HOUSESITE:
469,500
ACRES:
21.00 R2 T
|GRAND LIST
5,289.00
5,289.00
-----------------------------------------------------------------------------------------------------------------------------------MOBILIA PAMELA H
HMSTD FILED |
MUNICIPAL
HOMESTEAD
NON-RESIDENTIAL
|LAND
0
40 NORWICH MEADOWS #11
|BUILDING
169,800
|TOTAL REAL
169,800
169,800
NORWICH VT 05055
|SPEC EXEMPTION
0
TAX MAP:
15-055.011
|
PROP DESC: 40 NORWICH MEADOWS UNIT 11
|
911 ADDR: 40 NORWICH MEADOWS 11
|
PARCEL ID: 15-055.011 SPAN: 450-142-11747
|
HOUSESITE:
169,800
ACRES:
0.00 O
T
|GRAND LIST
1,698.00
1,698.00
-----------------------------------------------------------------------------------------------------------------------------------MOFFATT CREIGH
HMSTD FILED |
MUNICIPAL
HOMESTEAD
NON-RESIDENTIAL
JOHNSON DANIEL
|LAND
157,600
1280 TURNPIKE RD
|BUILDING
184,000
|TOTAL REAL
341,600
341,600
NORWICH VT 05055
|SPEC EXEMPTION
0
TAX MAP:
04-031.100
|
PROP DESC: 15.85 ACRES & DWL
|
911 ADDR: 1280 TURNPIKE RD
|
PARCEL ID: 04-031.100 SPAN: 450-142-12968
|
HOUSESITE:
305,400
ACRES:
15.85 R2 T
|GRAND LIST
3,416.00
3,416.00
-----------------------------------------------------------------------------------------------------------------------------------MOFFATT DEBORAH
|
MUNICIPAL
HOMESTEAD
NON-RESIDENTIAL
MOFFATT CREIGH
|LAND
473,100
TORRIE HOUSE, KINGSBARNS
|BUILDING
0
|TOTAL REAL
473,100
473,100
FIFE UK KY
|SPEC EXEMPTION
0
TAX MAP:
04-031.200
|
PROP DESC: 180 ACRES
|
911 ADDR: TURNPIKE RD
|CURRENT USE
446,400
446,400
PARCEL ID: 04-031.200 SPAN: 450-142-12969
|
HOUSESITE:
0
ACRES:
180.00 M
NS
|GRAND LIST
267.00
267.00
-----------------------------------------------------------------------------------------------------------------------------------MOISTER F.CORBIN JR
HMSTD FILED |
MUNICIPAL
HOMESTEAD
NON-RESIDENTIAL
|LAND
163,500
213 BEAVER MEADOW RD
|BUILDING
248,800
|TOTAL REAL
412,300
412,300
NORWICH VT 05055
|SPEC EXEMPTION
0
TAX MAP:
20-072.200
|
PROP DESC: 4 ACRES & DWL
|
911 ADDR: 213 BEAVER MEADOW RD
|
PARCEL ID: 20-072.200 SPAN: 450-142-12216
|
HOUSESITE:
403,300
ACRES:
4.00 R1 T
|GRAND LIST
4,123.00
4,123.00
------------------------------------------------------------------------------------------------------------------------------------
06/12/2015
01:32 pm
Town of Norwich Grand List
Grand List Report (Detail)
By Name For All Parcels In All Districts
Page 195
jbynum
PARCEL INFORMATION
TAXABLE VALUATIONS / EXEMPTIONS / CONTRACTS
-----------------------------------------------------------------------------------------------------------------------------------MONAHAN MARK A
HMSTD FILED |
MUNICIPAL
HOMESTEAD
NON-RESIDENTIAL
MONAHAN PATRICIA E
|LAND
100,000
900 UNION VILLAGE RD
|BUILDING
364,200
|TOTAL REAL
464,200
464,200
NORWICH VT 05055
|SPEC EXEMPTION
0
TAX MAP:
11-050.300
|
PROP DESC: 2.1 ACRES & DWL
|
911 ADDR: 900 UNION VILLAGE RD
|
PARCEL ID: 11-050.300 SPAN: 450-142-13037
|
HOUSESITE:
463,700
ACRES:
2.10 R1 T
|GRAND LIST
4,642.00
4,642.00
-----------------------------------------------------------------------------------------------------------------------------------MONTGOMERY ANN B
|
MUNICIPAL
HOMESTEAD
NON-RESIDENTIAL
|LAND
173,500
337 LAKE AVE
|BUILDING
0
|TOTAL REAL
173,500
173,500
SUNAPEE NH 03782
|SPEC EXEMPTION
0
TAX MAP:
05-075.100
|
PROP DESC: 30.36 ACRES
|
911 ADDR: UNION VILLAGE RD
|
PARCEL ID: 05-075.100 SPAN: 450-142-13331
|
HOUSESITE:
0
ACRES:
30.36 M
NS
|GRAND LIST
1,735.00
1,735.00
-----------------------------------------------------------------------------------------------------------------------------------MONTGOMERY DIANE TRUSTEE
|
MUNICIPAL
HOMESTEAD
NON-RESIDENTIAL
MONTGOMERY STUART K TRUSTEE
|LAND
395,900
13 BLUEBERRY LN
|BUILDING
272,800
|TOTAL REAL
668,700
668,700
HOPKINTON MA 01748
|SPEC EXEMPTION
0
TAX MAP:
10-001.000
|
PROP DESC: 56.32 ACRES & DWL
|
911 ADDR: 641 BRAGG HILL RD
|CURRENT USE
137,800
137,800
PARCEL ID: 10-001.000 SPAN: 450-142-11681
|
HOUSESITE:
513,300
ACRES:
56.32 R2 NS
|GRAND LIST
5,309.00
5,309.00
-----------------------------------------------------------------------------------------------------------------------------------MOORE ADACHI-MEJIA REV TRUST
HMSTD FILED |
MUNICIPAL
HOMESTEAD
NON-RESIDENTIAL
|LAND
100,900
1016 NEW BOSTON ROAD
|BUILDING
264,400
|TOTAL REAL
365,300
365,300
NORWICH VT 05055
|SPEC EXEMPTION
0
TAX MAP:
05-137.100
|
PROP DESC: 2.46 ACRES & DWL
|
911 ADDR: 1016 NEW BOSTON RD
|
PARCEL ID: 05-137.100 SPAN: 450-142-12338
|
HOUSESITE:
363,400
ACRES:
2.46 R1 T
|GRAND LIST
3,653.00
3,653.00
-----------------------------------------------------------------------------------------------------------------------------------MOORE BERNARD
|
MUNICIPAL
HOMESTEAD
NON-RESIDENTIAL
MOORE GWENDOLYN
|LAND
129,500
PO BOX 1128
|BUILDING
207,700
|TOTAL REAL
337,200
337,200
NORWICH VT 05055-1128
|SPEC EXEMPTION
0
TAX MAP:
10-057.000
|
PROP DESC: 2 ACRES & DWL
|
911 ADDR: 18 MOORE LN
|
PARCEL ID: 10-057.000 SPAN: 450-142-12220
|
HOUSESITE:
337,200
ACRES:
2.00 R1 T
|GRAND LIST
3,372.00
3,372.00
------------------------------------------------------------------------------------------------------------------------------------
06/12/2015
01:32 pm
Town of Norwich Grand List
Grand List Report (Detail)
By Name For All Parcels In All Districts
Page 196
jbynum
PARCEL INFORMATION
TAXABLE VALUATIONS / EXEMPTIONS / CONTRACTS
-----------------------------------------------------------------------------------------------------------------------------------MOORE JASON
HMSTD FILED |
MUNICIPAL
HOMESTEAD
NON-RESIDENTIAL
MOORE JENNIFER
|LAND
161,200
176 UPPER PASTURE ROAD
|BUILDING
622,100
|TOTAL REAL
783,300
783,300
NORWICH VT 05055-1330
|SPEC EXEMPTION
0
TAX MAP:
11-153.000
|
PROP DESC: 12.3 ACRES & DWL
|
911 ADDR: 176 UPPER PASTURE RD
|
PARCEL ID: 11-153.000 SPAN: 450-142-13103
|
HOUSESITE:
748,000
ACRES:
12.30 R2 T
|GRAND LIST
7,833.00
7,833.00
-----------------------------------------------------------------------------------------------------------------------------------MOORE MARY IRENE
HMSTD FILED |
MUNICIPAL
HOMESTEAD
NON-RESIDENTIAL
|LAND
125,000
PO BOX 187
|BUILDING
162,000
|TOTAL REAL
287,000
287,000
NORWICH VT 05055-0187
|SPEC EXEMPTION
0
TAX MAP:
10-058.000
|
PROP DESC: 1 ACRE & DWL
|
911 ADDR: 32 MOORE LN
|
PARCEL ID: 10-058.000 SPAN: 450-142-12221
|
HOUSESITE:
287,000
ACRES:
1.00 R1 T
|GRAND LIST
2,870.00
2,870.00
-----------------------------------------------------------------------------------------------------------------------------------MOORE PAMELA
HMSTD FILED |
MUNICIPAL
HOMESTEAD
NON-RESIDENTIAL
BELLAVANCE JASON M
|LAND
90,400
PO BOX 120
|BUILDING
28,100
|TOTAL REAL
118,500
118,500
NORWICH VT 05055-0120
|SPEC EXEMPTION
0
TAX MAP:
10-108.000
|
PROP DESC: .44 ACRE & MH
|
911 ADDR: 466 TURNPIKE RD
|
PARCEL ID: 10-108.000 SPAN: 450-142-12923
|
HOUSESITE:
118,500
ACRES:
0.44 MHL T
|GRAND LIST
1,185.00
1,185.00
-----------------------------------------------------------------------------------------------------------------------------------MORAN HEIDI A LANG TRUSTEE
|
MUNICIPAL
HOMESTEAD
NON-RESIDENTIAL
HEIDI A LANG MORAN TRUST
|LAND
165,300
2876 HARTLAND HILL ROAD
|BUILDING
527,200
|TOTAL REAL
692,500
692,500
WOODSTOCK VT 05091
|SPEC EXEMPTION
0
TAX MAP:
06-001.000
|
PROP DESC: LAND & DWLG
|
911 ADDR: 240 WATERMAN HILL RD
|
PARCEL ID: 06-001.000 SPAN: 450-142-13144
|
HOUSESITE:
629,300
ACRES:
22.38 R2 S
|GRAND LIST
6,925.00
6,925.00
-----------------------------------------------------------------------------------------------------------------------------------MORGAN SHARON A
|
MUNICIPAL
HOMESTEAD
NON-RESIDENTIAL
|LAND
95,900
17 WOODCOCK LN
|BUILDING
223,900
|TOTAL REAL
319,800
319,800
ETNA NH 03750-4403
|SPEC EXEMPTION
0
TAX MAP:
03-003.000
|
PROP DESC: 10 ACS & DWL
|
911 ADDR: 111 CHAPEL HILL RD
|
PARCEL ID: 03-003.000 SPAN: 450-142-11831
|
HOUSESITE:
296,800
ACRES:
10.00 R2 NS
|GRAND LIST
3,198.00
3,198.00
------------------------------------------------------------------------------------------------------------------------------------
06/12/2015
01:32 pm
Town of Norwich Grand List
Grand List Report (Detail)
By Name For All Parcels In All Districts
Page 197
jbynum
PARCEL INFORMATION
TAXABLE VALUATIONS / EXEMPTIONS / CONTRACTS
-----------------------------------------------------------------------------------------------------------------------------------MORLEY BENJAMIN D
HMSTD FILED |
MUNICIPAL
HOMESTEAD
NON-RESIDENTIAL
MORLEY CHRISTIANNA B
|LAND
430,000
1219 BRAGG HILL RD
|BUILDING
409,100
|TOTAL REAL
839,100
839,100
NORWICH VT 05055
|SPEC EXEMPTION
0
TAX MAP:
09-022.110
|
PROP DESC: 94 ACRES DWL
|
911 ADDR: 1219 BRAGG HILL RD
|CURRENT USE
167,300
167,300
PARCEL ID: 09-022.110 SPAN: 450-142-11697
|
HOUSESITE:
609,900
ACRES:
94.00 R2 T
|GRAND LIST
6,718.00
6,718.00
-----------------------------------------------------------------------------------------------------------------------------------MORRISON DANIEL W
HMSTD FILED |
MUNICIPAL
HOMESTEAD
NON-RESIDENTIAL
|LAND
150,600
531 JOSHUA RD
|BUILDING
79,100
|TOTAL REAL
229,700
229,700
WHITE RIVER JUNCTION VT 05001
|SPEC EXEMPTION
0
TAX MAP:
14-033.100
|
PROP DESC: 17 ACRES & DWL
|
911 ADDR: 531 JOSHUA RD
|
PARCEL ID: 14-033.100 SPAN: 450-142-12806
|
HOUSESITE:
181,300
ACRES:
17.00 R2 T
|GRAND LIST
2,297.00
2,297.00
-----------------------------------------------------------------------------------------------------------------------------------MORRISON WILLIAM L
HMSTD FILED |
MUNICIPAL
HOMESTEAD
NON-RESIDENTIAL
MORRISON CATHERINE G
|LAND
140,300
542 TURNPIKE RD
|BUILDING
211,600
|TOTAL REAL
351,900
351,900
NORWICH VT 05055
|SPEC EXEMPTION
0
TAX MAP:
10-102.000
|
PROP DESC: 4.4 ACRES & DWL
|
911 ADDR: 542 TURNPIKE RD
|
PARCEL ID: 10-102.000 SPAN: 450-142-12929
|
HOUSESITE:
341,100
ACRES:
4.40 R1 T
|GRAND LIST
3,519.00
3,519.00
-----------------------------------------------------------------------------------------------------------------------------------MORROW THOMAS
HMSTD FILED |
MUNICIPAL
HOMESTEAD
NON-RESIDENTIAL
MORROW HELEN
|LAND
127,400
550 HAWK PINE RD
|BUILDING
266,400
|TOTAL REAL
393,800
393,800
NORWICH VT 05055
|SPEC EXEMPTION
0
TAX MAP:
16-135.000
|
PROP DESC: 1.8 ACRES & DWL
|
911 ADDR: 550 HAWK PINE RD
|
PARCEL ID: 16-135.000 SPAN: 450-142-12581
|
HOUSESITE:
393,800
ACRES:
1.80 R1 T
|GRAND LIST
3,938.00
3,938.00
-----------------------------------------------------------------------------------------------------------------------------------MOSENTHAL RICHARD A.
HMSTD FILED |
MUNICIPAL
HOMESTEAD
NON-RESIDENTIAL
MOSENTHAL BRIGITTE D.
|LAND
129,700
39 BROOKSIDE DR
|BUILDING
390,600
|TOTAL REAL
520,300
520,300
NORWICH VT 05055
|SPEC EXEMPTION
0
TAX MAP:
20-262.000
|
PROP DESC: 2.05 ACRES & DWL
|
911 ADDR: 39 BROOKSIDE DR
|
PARCEL ID: 20-262.000 SPAN: 450-142-11720
|
HOUSESITE:
520,100
ACRES:
2.05 R1 T
|GRAND LIST
5,203.00
5,203.00
------------------------------------------------------------------------------------------------------------------------------------
06/12/2015
01:32 pm
Town of Norwich Grand List
Grand List Report (Detail)
By Name For All Parcels In All Districts
Page 198
jbynum
PARCEL INFORMATION
TAXABLE VALUATIONS / EXEMPTIONS / CONTRACTS
-----------------------------------------------------------------------------------------------------------------------------------MOSHER ROBYN E
HMSTD FILED |
MUNICIPAL
HOMESTEAD
NON-RESIDENTIAL
|LAND
100,500
159 HAWK PINE ROAD
|BUILDING
184,700
|TOTAL REAL
285,200
285,200
NORWICH VT 05055
|SPEC EXEMPTION
0
TAX MAP:
11-169.000
|
PROP DESC: 1.03 ACRES & DWL
|
911 ADDR: 159 HAWK PINE RD
|
PARCEL ID: 11-169.000 SPAN: 450-142-12537
|
HOUSESITE:
285,200
ACRES:
1.12 R1 T
|GRAND LIST
2,852.00
2,852.00
-----------------------------------------------------------------------------------------------------------------------------------MOSKOW KEITH
|
MUNICIPAL
HOMESTEAD
NON-RESIDENTIAL
MOSKOW ALLISON SHUTZ
|LAND
529,600
88 BROAD STREET
|BUILDING
804,500
|TOTAL REAL
1334,100
1334,100
BOSTON MA 02110
|SPEC EXEMPTION
0
TAX MAP:
05-077.000
|
PROP DESC: 117.3 ACRES & DWL INCL 2 ADDL LOT
|
911 ADDR: 1285 UNION VILLAGE RD
|CURRENT USE
257,300
257,300
PARCEL ID: 05-077.000 SPAN: 450-142-13324
|
HOUSESITE:
927,800
ACRES:
117.30 R2 NS
|GRAND LIST
10,768.00
10,768.00
-----------------------------------------------------------------------------------------------------------------------------------MULLEN JOHN M
HMSTD FILED |
MUNICIPAL
HOMESTEAD
NON-RESIDENTIAL
MULLEN CAROL J
|LAND
149,900
111 DELTA DR
|BUILDING
301,600
|TOTAL REAL
451,500
451,500
WHITE RIVER JUNCTION VT 05001
|SPEC EXEMPTION
0
TAX MAP:
14-021.200
|
PROP DESC: 10.37 ACRES & DWL
|
911 ADDR: 111 DELTA DR
|
PARCEL ID: 14-021.200 SPAN: 450-142-12814
|
HOUSESITE:
421,600
ACRES:
10.37 R2 T
|GRAND LIST
4,515.00
4,515.00
-----------------------------------------------------------------------------------------------------------------------------------MULLER DAVID L
HMSTD FILED |
MUNICIPAL
HOMESTEAD
NON-RESIDENTIAL
MULLER NANCY
|LAND
140,100
38 OWL CREEK
|BUILDING
512,900
|TOTAL REAL
653,000
653,000
NORWICH VT 05055
|SPEC EXEMPTION
0
TAX MAP:
10-039.300
|
PROP DESC: 4.9 ACRES & DWL
|
911 ADDR: 38 OWL CREEK LN
|
PARCEL ID: 10-039.300 SPAN: 450-142-11711
|
HOUSESITE:
639,900
ACRES:
4.90 R1 T
|GRAND LIST
6,530.00
6,530.00
-----------------------------------------------------------------------------------------------------------------------------------MULLINS DAVID W
HMSTD FILED |
MUNICIPAL
HOMESTEAD
NON-RESIDENTIAL
MULLINS IRENE M
|LAND
127,500
23 DOUGLAS RIDGE
|BUILDING
447,800
|TOTAL REAL
575,300
575,300
NORWICH VT 05055
|SPEC EXEMPTION
0
TAX MAP:
10-149.000
|
PROP DESC: 2.1 ACRES & DWL
|
911 ADDR: 23 DOUGLAS RIDGE
|
PARCEL ID: 10-149.000 SPAN: 450-142-11902
|
HOUSESITE:
574,800
ACRES:
2.10 R1 T
|GRAND LIST
5,753.00
5,753.00
------------------------------------------------------------------------------------------------------------------------------------
06/12/2015
01:32 pm
Town of Norwich Grand List
Grand List Report (Detail)
By Name For All Parcels In All Districts
Page 199
jbynum
PARCEL INFORMATION
TAXABLE VALUATIONS / EXEMPTIONS / CONTRACTS
-----------------------------------------------------------------------------------------------------------------------------------MUNDAY BONNIE J
HMSTD FILED |
MUNICIPAL
HOMESTEAD
NON-RESIDENTIAL
MUNDAY BRIAN N
|LAND
81,300
PO BOX 481
|BUILDING
81,600
|TOTAL REAL
162,900
162,900
NORWICH VT 05055-0481
|SPEC EXEMPTION
0
TAX MAP:
06-067.000
|
PROP DESC: 1.01 ACRES & DWL/MH
|
911 ADDR: 1540 US ROUTE 5 NORTH
|
PARCEL ID: 06-067.000 SPAN: 450-142-12720
|
HOUSESITE:
162,900
ACRES:
1.01 R1 T
|GRAND LIST
1,629.00
1,629.00
-----------------------------------------------------------------------------------------------------------------------------------MUNGER JUDITH
HMSTD FILED |
MUNICIPAL
HOMESTEAD
NON-RESIDENTIAL
|LAND
90,300
PO BOX 1201
|BUILDING
179,100
|TOTAL REAL
269,400
210,297
59,103
NORWICH VT 05055-1201
|SPEC EXEMPTION
0
0
TAX MAP:
11-060.000
|
PROP DESC: 1 ACRE & DWL
|
911 ADDR: 995 UNION VILLAGE RD
|
PARCEL ID: 11-060.000 SPAN: 450-142-13044
|
HOUSESITE:
210,297
ACRES:
1.00 R1 T
|GRAND LIST
2,694.00
2,102.97
591.03
-----------------------------------------------------------------------------------------------------------------------------------MUNSON JEFFREY
HMSTD FILED |
MUNICIPAL
HOMESTEAD
NON-RESIDENTIAL
BELIVEAU JOHANNA
|LAND
123,800
112 BRADLEY HILL ROAD
|BUILDING
286,600
|TOTAL REAL
410,400
410,400
NORWICH VT 05055
|SPEC EXEMPTION
0
TAX MAP:
11-043.000
|
PROP DESC: 1 ACRE & DWL/APT
|
911 ADDR: 112 BRADLEY HILL RD
|
PARCEL ID: 11-043.000 SPAN: 450-142-11636
|
HOUSESITE:
410,400
ACRES:
1.00 R1 T
|GRAND LIST
4,104.00
4,104.00
-----------------------------------------------------------------------------------------------------------------------------------MURRAY JOHN
HMSTD FILED |
MUNICIPAL
HOMESTEAD
NON-RESIDENTIAL
MURRAY ROBIN
|LAND
134,200
179 UPPER TURNPIKE RD
|BUILDING
616,600
|TOTAL REAL
750,800
750,800
NORWICH VT 05055
|SPEC EXEMPTION
0
TAX MAP:
10-139.000
|
PROP DESC: 11 ACRES & DWL
|
911 ADDR: 179 UPPER TURNPIKE RD
|
PARCEL ID: 10-139.000 SPAN: 450-142-13116
|
HOUSESITE:
719,100
ACRES:
11.00 R2 T
|GRAND LIST
7,508.00
7,508.00
-----------------------------------------------------------------------------------------------------------------------------------MYERS LAWRENCE C
HMSTD FILED |
MUNICIPAL
HOMESTEAD
NON-RESIDENTIAL
WANG LI
|LAND
96,200
948 NEW BOSTON RD
|BUILDING
249,400
|TOTAL REAL
345,600
345,600
NORWICH VT 05055
|SPEC EXEMPTION
0
TAX MAP:
05-142.000
|
PROP DESC: .89 A & DWL
|
911 ADDR: 948 NEW BOSTON RD
|
PARCEL ID: 05-142.000 SPAN: 450-142-12328
|
HOUSESITE:
345,600
ACRES:
0.89 R1 T
|GRAND LIST
3,456.00
3,456.00
------------------------------------------------------------------------------------------------------------------------------------
06/12/2015
01:32 pm
Town of Norwich Grand List
Grand List Report (Detail)
By Name For All Parcels In All Districts
Page 200
jbynum
PARCEL INFORMATION
TAXABLE VALUATIONS / EXEMPTIONS / CONTRACTS
-----------------------------------------------------------------------------------------------------------------------------------MYSTIC LAND OWNERS ASSOCIATION
|
MUNICIPAL
HOMESTEAD
NON-RESIDENTIAL
|LAND
111,700
128 MYSTIC DR
|BUILDING
0
|TOTAL REAL
111,700
111,700
NORWICH VT 05055
|SPEC EXEMPTION
0
TAX MAP:
11-152.000
|
PROP DESC: REAR LOT 52.34 ACRES
|
911 ADDR: GOODRICH FOUR CORNERS RD
|CURRENT USE
90,600
90,600
PARCEL ID: 11-152.000 SPAN: 450-142-11991
|
HOUSESITE:
0
ACRES:
52.34 M
C
|GRAND LIST
211.00
211.00
-----------------------------------------------------------------------------------------------------------------------------------McKINNEY ANDREA J
|
MUNICIPAL
HOMESTEAD
NON-RESIDENTIAL
LOWERY RAYMOND T
|LAND
436,700
PO BOX 423
|BUILDING
16,600
|TOTAL REAL
453,300
453,300
WILDER VT 05088-0118
|SPEC EXEMPTION
0
TAX MAP:
10-092.000
|
PROP DESC: 155.6 ACRES & CAMP INCL 2 ADDL LOTS
|
911 ADDR: 1284 BEAVER MEADOW RD
|CURRENT USE
385,900
385,900
PARCEL ID: 10-092.000 SPAN: 450-142-11598
|
HOUSESITE:
47,700
ACRES:
155.60 S2 S
|GRAND LIST
674.00
674.00
-----------------------------------------------------------------------------------------------------------------------------------NAHABEDIAN ROBERT G
HMSTD FILED |
MUNICIPAL
HOMESTEAD
NON-RESIDENTIAL
LOUIS CLAUDINE A
|LAND
124,700
96 HAWK PINE RD
|BUILDING
332,900
|TOTAL REAL
457,600
457,600
NORWICH VT 05055
|SPEC EXEMPTION
0
TAX MAP:
11-182.000
|
PROP DESC: 1.19 ACRES & DWL
|
911 ADDR: 96 HAWK PINE RD
|
PARCEL ID: 11-182.000 SPAN: 450-142-12529
|
HOUSESITE:
457,600
ACRES:
1.19 R1 T
|GRAND LIST
4,576.00
4,576.00
-----------------------------------------------------------------------------------------------------------------------------------NARTOWICZ WILLIAM D
HMSTD FILED |
MUNICIPAL
HOMESTEAD
NON-RESIDENTIAL
NARTOWICZ AMY A
|LAND
145,800
28 TURNPIKE RD
|BUILDING
128,800
|TOTAL REAL
274,600
274,600
NORWICH VT 05055-0444
|SPEC EXEMPTION
0
TAX MAP:
20-150.100
|
PROP DESC: .92 ACRES & DWL
|
911 ADDR: 28 TURNPIKE RD
|
PARCEL ID: 20-150.100 SPAN: 450-142-12889
|
HOUSESITE:
274,600
ACRES:
0.92 R1 T
|GRAND LIST
2,746.00
2,746.00
-----------------------------------------------------------------------------------------------------------------------------------NATTIE CANDACE
HMSTD FILED |
MUNICIPAL
HOMESTEAD
NON-RESIDENTIAL
|LAND
230,700
965 BRAGG HILL RD
|BUILDING
306,000
|TOTAL REAL
536,700
536,700
NORWICH VT 05055
|SPEC EXEMPTION
0
TAX MAP:
10-005.000
|
PROP DESC: 10.1 ACRES & DWL
|
911 ADDR: 965 BRAGG HILL RD
|
PARCEL ID: 10-005.000 SPAN: 450-142-11693
|
HOUSESITE:
507,600
ACRES:
10.10 R2 T
|GRAND LIST
5,367.00
5,367.00
------------------------------------------------------------------------------------------------------------------------------------
06/12/2015
01:32 pm
Town of Norwich Grand List
Grand List Report (Detail)
By Name For All Parcels In All Districts
Page 201
jbynum
PARCEL INFORMATION
TAXABLE VALUATIONS / EXEMPTIONS / CONTRACTS
-----------------------------------------------------------------------------------------------------------------------------------NAUMANN MARINA G T TRUSTEE
|
MUNICIPAL
HOMESTEAD
NON-RESIDENTIAL
NAUMANN REVOCABLE TRUST
|LAND
568,700
387 HAWK PINE RD
|BUILDING
0
|TOTAL REAL
568,700
568,700
NORWICH VT 05055-9631
|SPEC EXEMPTION
0
TAX MAP:
03-001.100
|
PROP DESC: 99.59 ACRES INCL 2 ADDL LOTS
|
911 ADDR: BEAVER MEADOW RD
|CURRENT USE
555,900
555,900
PARCEL ID: 03-001.100 SPAN: 450-142-11606
|
HOUSESITE:
0
ACRES:
99.59 M
T
|GRAND LIST
128.00
128.00
-----------------------------------------------------------------------------------------------------------------------------------NAUMANN MARINA G T TRUSTEE
HMSTD FILED |
MUNICIPAL
HOMESTEAD
NON-RESIDENTIAL
NAUMANN REVOCABLE TRUST
|LAND
125,800
387 HAWK PINE RD
|BUILDING
362,800
|TOTAL REAL
488,600
488,600
NORWICH VT 05055
|SPEC EXEMPTION
0
TAX MAP:
16-159.000
|
PROP DESC: 1.45 ACRES & DWL
|
911 ADDR: 387 HAWK PINE RD
|
PARCEL ID: 16-159.000 SPAN: 450-142-12562
|
HOUSESITE:
488,600
ACRES:
1.45 R1 T
|GRAND LIST
4,886.00
4,886.00
-----------------------------------------------------------------------------------------------------------------------------------NEELY DONALD J
HMSTD FILED |
MUNICIPAL
HOMESTEAD
NON-RESIDENTIAL
NEELY NOEL A
|LAND
186,400
48 DOUGLAS HILL
|BUILDING
596,200
|TOTAL REAL
782,600
782,600
NORWICH VT 05055-9647
|SPEC EXEMPTION
0
TAX MAP:
10-147.000
|
PROP DESC: 10.3 ACRES & DWL
|
911 ADDR: 48 DOUGLAS HILL
|
PARCEL ID: 10-147.000 SPAN: 450-142-11905
|
HOUSESITE:
752,900
ACRES:
10.30 R2 T
|GRAND LIST
7,826.00
7,826.00
-----------------------------------------------------------------------------------------------------------------------------------NELSON DORIS F LIFE ESTATE
HMSTD FILED |
MUNICIPAL
HOMESTEAD
NON-RESIDENTIAL
NELSON JOHN AND DAVID
|LAND
113,200
PO BOX 249
|BUILDING
180,000
|TOTAL REAL
293,200
293,200
NORWICH VT 05055-0249
|SPEC EXEMPTION
0
TAX MAP:
11-021.000
|
PROP DESC: .73 ACRES & DWL
|
911 ADDR: 2 OLD COACH RD
|
PARCEL ID: 11-021.000 SPAN: 450-142-12480
|
HOUSESITE:
293,200
ACRES:
0.73 R1 T
|GRAND LIST
2,932.00
2,932.00
-----------------------------------------------------------------------------------------------------------------------------------NELSON ERROLD B.
|
MUNICIPAL
HOMESTEAD
NON-RESIDENTIAL
NELSON TINA S.
|LAND
141,500
PO BOX 224
|BUILDING
173,200
|TOTAL REAL
314,700
314,700
SPOFFORD NH 03462
|SPEC EXEMPTION
0
TAX MAP:
14-021.100
|
PROP DESC: 5.33 ACRES & DWL
|
911 ADDR: 153 DELTA DR
|
PARCEL ID: 14-021.100 SPAN: 450-142-12813
|
HOUSESITE:
300,100
ACRES:
5.33 R1 NS
|GRAND LIST
3,147.00
3,147.00
------------------------------------------------------------------------------------------------------------------------------------
06/12/2015
01:32 pm
Town of Norwich Grand List
Grand List Report (Detail)
By Name For All Parcels In All Districts
Page 202
jbynum
PARCEL INFORMATION
TAXABLE VALUATIONS / EXEMPTIONS / CONTRACTS
-----------------------------------------------------------------------------------------------------------------------------------NELSON EUGENE C
HMSTD FILED |
MUNICIPAL
HOMESTEAD
NON-RESIDENTIAL
NELSON SANDRA A
|LAND
128,500
PO BOX 1046
|BUILDING
588,600
|TOTAL REAL
717,100
717,100
NORWICH VT 05055-1046
|SPEC EXEMPTION
0
TAX MAP:
20-281.000
|
PROP DESC: .24 ACRE & DWL
|
911 ADDR: 38 ELM ST
|
PARCEL ID: 20-281.000 SPAN: 450-142-11944
|
HOUSESITE:
717,100
ACRES:
0.24 R1 T
|GRAND LIST
7,171.00
7,171.00
-----------------------------------------------------------------------------------------------------------------------------------NELSON HENRY B III
HMSTD FILED |
MUNICIPAL
HOMESTEAD
NON-RESIDENTIAL
NELSON ELIZABETH
|LAND
124,000
53 OLD FARM RD
|BUILDING
467,500
|TOTAL REAL
591,500
591,500
NORWICH VT 05055
|SPEC EXEMPTION
0
TAX MAP:
10-125.100
|
PROP DESC: 2.9 ACRES & DWL
|
911 ADDR: 53 OLD FARM RD
|
PARCEL ID: 10-125.100 SPAN: 450-142-11890
|
HOUSESITE:
587,900
ACRES:
2.90 R1 T
|GRAND LIST
5,915.00
5,915.00
-----------------------------------------------------------------------------------------------------------------------------------NELSON MARTHA ANN
HMSTD FILED |
MUNICIPAL
HOMESTEAD
NON-RESIDENTIAL
|LAND
95,100
PO BOX 1152
|BUILDING
212,800
|TOTAL REAL
307,900
307,900
NORWICH VT 05055-1152
|SPEC EXEMPTION
0
TAX MAP:
10-206.000
|
PROP DESC: .86 ACRE & DWL/APT
|
911 ADDR: 65 UNION VILLAGE RD
|
PARCEL ID: 10-206.000 SPAN: 450-142-13004
|
HOUSESITE:
307,900
ACRES:
0.86 R1 T
|GRAND LIST
3,079.00
3,079.00
-----------------------------------------------------------------------------------------------------------------------------------NESS STEVEN D
HMSTD FILED |
MUNICIPAL
HOMESTEAD
NON-RESIDENTIAL
NESS KAREN S.
|LAND
73,800
79 CHAPEL HILL RD
|BUILDING
187,800
|TOTAL REAL
261,600
261,600
NORWICH VT 05055
|SPEC EXEMPTION
0
TAX MAP:
09-011.000
|
PROP DESC: 2 ACRES & DWL
|
911 ADDR: 79 CHAPEL HILL RD
|
PARCEL ID: 09-011.000 SPAN: 450-142-11834
|
HOUSESITE:
261,600
ACRES:
2.00 R1 T
|GRAND LIST
2,616.00
2,616.00
-----------------------------------------------------------------------------------------------------------------------------------NEUMAN SCOTT J
|
MUNICIPAL
HOMESTEAD
NON-RESIDENTIAL
NEUMAN AMY K
|LAND
195,400
PO BOX 890
|BUILDING
464,600
|TOTAL REAL
660,000
660,000
NORWICH VT 05055-0890
|SPEC EXEMPTION
0
TAX MAP:
15-037.200
|
PROP DESC: 10.2 ACRES & DWL
|
911 ADDR: 144 HICKORY RIDGE
|
PARCEL ID: 15-037.200 SPAN: 450-142-12038
|
HOUSESITE:
645,500
ACRES:
10.20 R2 T
|GRAND LIST
6,600.00
6,600.00
------------------------------------------------------------------------------------------------------------------------------------
06/12/2015
01:32 pm
Town of Norwich Grand List
Grand List Report (Detail)
By Name For All Parcels In All Districts
Page 203
jbynum
PARCEL INFORMATION
TAXABLE VALUATIONS / EXEMPTIONS / CONTRACTS
-----------------------------------------------------------------------------------------------------------------------------------NEUMANN GARY
HMSTD FILED |
MUNICIPAL
HOMESTEAD
NON-RESIDENTIAL
NEUMANN JENNIFER
|LAND
157,700
608 TURNPIKE RD
|BUILDING
748,900
|TOTAL REAL
906,600
906,600
NORWICH VT 05055
|SPEC EXEMPTION
0
TAX MAP:
10-076.000
|
PROP DESC: 10.1 ACRES & DWL
|
911 ADDR: 608 TURNPIKE RD
|
PARCEL ID: 10-076.000 SPAN: 450-142-12930
|
HOUSESITE:
877,500
ACRES:
10.10 R2 T
|GRAND LIST
9,066.00
9,066.00
-----------------------------------------------------------------------------------------------------------------------------------NEWBURY-ANDRESEN NANCY A REV TRUST
HMSTD FILED |
MUNICIPAL
HOMESTEAD
NON-RESIDENTIAL
|LAND
157,000
255 MAPLE HILL RD
|BUILDING
264,800
|TOTAL REAL
421,800
421,800
NORWICH VT 05055
|SPEC EXEMPTION
0
TAX MAP:
11-158.000
|
PROP DESC: 10.8 ACRES & DWL
|
911 ADDR: 255 MAPLE HILL RD
|
PARCEL ID: 11-158.000 SPAN: 450-142-12167
|
HOUSESITE:
396,900
ACRES:
10.80 R2 T
|GRAND LIST
4,218.00
4,218.00
-----------------------------------------------------------------------------------------------------------------------------------NICHOLLS DIANE M BARENDSE
|
MUNICIPAL
HOMESTEAD
NON-RESIDENTIAL
BOURQUE KATHY M
|LAND
250,100
7 MONADNOCK RD
|BUILDING
0
|TOTAL REAL
250,100
250,100
ARLINGTON MA 02476
|SPEC EXEMPTION
0
TAX MAP:
14-034.000
|
PROP DESC: 72 ACRES
|
911 ADDR: JOSHUA RD
|CURRENT USE
240,900
240,900
PARCEL ID: 14-034.000 SPAN: 450-142-12804
|
HOUSESITE:
0
ACRES:
72.00 M
NS
|GRAND LIST
92.00
92.00
-----------------------------------------------------------------------------------------------------------------------------------NIELSEN JEFFREY
HMSTD FILED |
MUNICIPAL
HOMESTEAD
NON-RESIDENTIAL
|LAND
98,600
PO BOX 1158
|BUILDING
188,100
|TOTAL REAL
286,700
286,700
NORWICH VT 05055
|SPEC EXEMPTION
0
TAX MAP:
05-149.000
|VETERAN
40,000
40,000
PROP DESC: 2 ACRES & DWL
|
911 ADDR: 808 NEW BOSTON RD
|
PARCEL ID: 05-149.000 SPAN: 450-142-12315
|
HOUSESITE:
286,700
ACRES:
2.00 R1 T
|GRAND LIST
2,467.00
2,467.00
-----------------------------------------------------------------------------------------------------------------------------------NIELSEN YEDIDA LIVING TRUST
|
MUNICIPAL
HOMESTEAD
NON-RESIDENTIAL
C/O TRUST COMPANY OF VERMONT
|LAND
0
PO BOX 1280
|BUILDING
172,300
|TOTAL REAL
172,300
172,300
BRATTLEBORO VT 05032-1280
|SPEC EXEMPTION
0
TAX MAP:
15-055.005
|
PROP DESC: 55 NORWICH MEADOWS UNIT 5
|
911 ADDR: 55 NORWICH MEADOWS 5
|
PARCEL ID: 15-055.005 SPAN: 450-142-11741
|
HOUSESITE:
172,300
ACRES:
0.00 O
S
|GRAND LIST
1,723.00
1,723.00
------------------------------------------------------------------------------------------------------------------------------------
06/12/2015
01:32 pm
Town of Norwich Grand List
Grand List Report (Detail)
By Name For All Parcels In All Districts
Page 204
jbynum
PARCEL INFORMATION
TAXABLE VALUATIONS / EXEMPTIONS / CONTRACTS
-----------------------------------------------------------------------------------------------------------------------------------NILES FRANCES L
HMSTD FILED |
MUNICIPAL
HOMESTEAD
NON-RESIDENTIAL
|LAND
154,700
86 SPRING POND RD
|BUILDING
288,600
|TOTAL REAL
443,300
443,300
NORWICH VT 05055
|SPEC EXEMPTION
0
TAX MAP:
20-022.000
|
PROP DESC: 2.03 ACRES & DWL
|
911 ADDR: 86 SPRING POND RD
|
PARCEL ID: 20-022.000 SPAN: 450-142-12591
|
HOUSESITE:
443,100
ACRES:
2.04 R1 T
|GRAND LIST
4,433.00
4,433.00
-----------------------------------------------------------------------------------------------------------------------------------NOBLE WILLIAM F JR
HMSTD FILED |
MUNICIPAL
HOMESTEAD
NON-RESIDENTIAL
TATUM JAMES H
|LAND
302,900
724 BRAGG HILL RD
|BUILDING
316,800
|TOTAL REAL
619,700
619,700
NORWICH VT 05055
|SPEC EXEMPTION
0
TAX MAP:
10-010.000
|
PROP DESC: 22 ACRES & DWL
|
911 ADDR: 724 BRAGG HILL RD
|
PARCEL ID: 10-010.000 SPAN: 450-142-11684
|
HOUSESITE:
557,500
ACRES:
22.00 R2 T
|GRAND LIST
6,197.00
6,197.00
-----------------------------------------------------------------------------------------------------------------------------------NOBLIT DORIS
HMSTD FILED |
MUNICIPAL
HOMESTEAD
NON-RESIDENTIAL
CUDNEY DANA CAROL
|LAND
0
PO BOX 1242
|BUILDING
154,100
|TOTAL REAL
154,100
154,100
NORWICH VT 05055
|SPEC EXEMPTION
0
TAX MAP:
15-055.014
|
PROP DESC: 40 NORWICH MEADOWS 14
|
911 ADDR: 40 NORWICH MEADOWS 14
|
PARCEL ID: 15-055.014 SPAN: 450-142-11750
|
HOUSESITE:
154,100
ACRES:
0.00 O
T
|GRAND LIST
1,541.00
1,541.00
-----------------------------------------------------------------------------------------------------------------------------------NOLAN CAROLYN J
HMSTD FILED |
MUNICIPAL
HOMESTEAD
NON-RESIDENTIAL
|LAND
125,100
27 PIERCE LN
|BUILDING
218,300
|TOTAL REAL
343,400
343,400
NORWICH VT 05055
|SPEC EXEMPTION
0
TAX MAP:
10-209.000
|
PROP DESC: .88 ACRE & DWL
|
911 ADDR: 27 PIERCE LN
|
PARCEL ID: 10-209.000 SPAN: 450-142-13011
|
HOUSESITE:
343,400
ACRES:
0.88 R1 T
|GRAND LIST
3,434.00
3,434.00
-----------------------------------------------------------------------------------------------------------------------------------NOLAN LORCAN
|
MUNICIPAL
HOMESTEAD
NON-RESIDENTIAL
NOLAN CHELSEA
|LAND
63,200
114 MCKENNA ROAD
|BUILDING
150,500
|TOTAL REAL
213,700
213,700
NORWICH VT 05055
|SPEC EXEMPTION
0
TAX MAP:
16-069.000
|
PROP DESC: .15 ACRE & 2 APT DWL
|
911 ADDR: 21 LEWISTON HILL RD
|
PARCEL ID: 16-069.000 SPAN: 450-142-12178
|
HOUSESITE:
213,700
ACRES:
0.15 R1 T
|GRAND LIST
2,137.00
2,137.00
------------------------------------------------------------------------------------------------------------------------------------
06/12/2015
01:32 pm
Town of Norwich Grand List
Grand List Report (Detail)
By Name For All Parcels In All Districts
Page 205
jbynum
PARCEL INFORMATION
TAXABLE VALUATIONS / EXEMPTIONS / CONTRACTS
-----------------------------------------------------------------------------------------------------------------------------------NOLAN LORCAN
HMSTD FILED |
MUNICIPAL
HOMESTEAD
NON-RESIDENTIAL
NOLAN CHELSEA
|LAND
126,800
114 MCKENNA RD
|BUILDING
237,800
|TOTAL REAL
364,600
364,600
NORWICH VT 05055
|SPEC EXEMPTION
0
TAX MAP:
16-079.000
|
PROP DESC: 1.4 ACRES & DWL
|
911 ADDR: 114 MCKENNA RD
|
PARCEL ID: 16-079.000 SPAN: 450-142-12196
|
HOUSESITE:
364,600
ACRES:
1.40 R1 T
|GRAND LIST
3,646.00
3,646.00
-----------------------------------------------------------------------------------------------------------------------------------NOLON SEAN
HMSTD FILED |
MUNICIPAL
HOMESTEAD
NON-RESIDENTIAL
NOLON ANDREA
|LAND
131,800
17 BRAGG HILL RD
|BUILDING
588,700
|TOTAL REAL
720,500
720,500
NORWICH VT 05055
|SPEC EXEMPTION
0
TAX MAP:
20-052.100
|
PROP DESC: 4.15 ACRES & DWL
|
911 ADDR: 17 BRAGG HILL RD
|
PARCEL ID: 20-052.100 SPAN: 450-142-11657
|
HOUSESITE:
710,800
ACRES:
4.15 R1 T
|GRAND LIST
7,205.00
7,205.00
-----------------------------------------------------------------------------------------------------------------------------------NORFORD LAKE CLUB INC
|
MUNICIPAL
HOMESTEAD
NON-RESIDENTIAL
C/O DAVID ECCLES
|LAND
173,100
42 KING HILL RD
|BUILDING
0
|TOTAL REAL
173,100
173,100
ETNA NH 03750
|SPEC EXEMPTION
0
TAX MAP:
01-012.000
|
PROP DESC: 67.9 ACRES
|
911 ADDR: NORFORD LAKE RD
|CURRENT USE
154,300
154,300
PARCEL ID: 01-012.000 SPAN: 450-142-12404
|
HOUSESITE:
0
ACRES:
67.90 M
C
|GRAND LIST
188.00
188.00
-----------------------------------------------------------------------------------------------------------------------------------NORMAN GREG
HMSTD FILED |
MUNICIPAL
HOMESTEAD
NON-RESIDENTIAL
JOHNSON LISA
|LAND
72,300
5 KENDALL STATION RD
|BUILDING
134,100
|TOTAL REAL
206,400
206,400
NORWICH VT 05055
|SPEC EXEMPTION
0
TAX MAP:
12-023.000
|
PROP DESC: .70 ACRE & DWL
|
911 ADDR: 5 KENDALL STATION RD
|
PARCEL ID: 12-023.000 SPAN: 450-142-12610
|
HOUSESITE:
206,400
ACRES:
0.70 R1 T
|GRAND LIST
2,064.00
2,064.00
-----------------------------------------------------------------------------------------------------------------------------------NORRIS CATHERINE
|
MUNICIPAL
HOMESTEAD
NON-RESIDENTIAL
|LAND
118,500
2017 SPRUCE STREET APT 3F
|BUILDING
262,300
|TOTAL REAL
380,800
380,800
PHILADELPHIA PA 19103
|SPEC EXEMPTION
0
TAX MAP:
11-023.000
|
PROP DESC: 2.68 ACRES & DWL
|
911 ADDR: 433 UNION VILLAGE RD
|
PARCEL ID: 11-023.000 SPAN: 450-142-13017
|
HOUSESITE:
378,400
ACRES:
2.68 R1 NS
|GRAND LIST
3,808.00
3,808.00
------------------------------------------------------------------------------------------------------------------------------------
06/12/2015
01:32 pm
Town of Norwich Grand List
Grand List Report (Detail)
By Name For All Parcels In All Districts
Page 206
jbynum
PARCEL INFORMATION
TAXABLE VALUATIONS / EXEMPTIONS / CONTRACTS
-----------------------------------------------------------------------------------------------------------------------------------NORSE SARAH L
HMSTD FILED |
MUNICIPAL
HOMESTEAD
NON-RESIDENTIAL
NORSE WAYNE M III
|LAND
100,100
594 GOODRICH FOUR CORNERS RD
|BUILDING
171,100
|TOTAL REAL
271,200
271,200
NORWICH VT 05055
|SPEC EXEMPTION
0
TAX MAP:
11-071.000
|
PROP DESC: 2.41 ACRES & DWL
|
911 ADDR: 594 GOODRICH FOUR CORNERS RD
|
PARCEL ID: 11-071.000 SPAN: 450-142-12005
|
HOUSESITE:
269,700
ACRES:
2.41 R1 T
|GRAND LIST
2,712.00
2,712.00
-----------------------------------------------------------------------------------------------------------------------------------NORTH MYRTLE
HMSTD FILED |
MUNICIPAL
HOMESTEAD
NON-RESIDENTIAL
|LAND
123,700
65 TUCKER HILL RD
|BUILDING
183,700
|TOTAL REAL
307,400
307,400
NORWICH VT 05055
|SPEC EXEMPTION
0
TAX MAP:
09-038.000
|
PROP DESC: 2.5 ACRES & DWL
|
911 ADDR: 65 TUCKER HILL RD
|
PARCEL ID: 09-038.000 SPAN: 450-142-12877
|
HOUSESITE:
305,400
ACRES:
2.50 R1 T
|GRAND LIST
3,074.00
3,074.00
-----------------------------------------------------------------------------------------------------------------------------------NORTHERN ALEXANDER
HMSTD FILED |
MUNICIPAL
HOMESTEAD
NON-RESIDENTIAL
|LAND
90,900
PO BOX 724
|BUILDING
162,000
|TOTAL REAL
252,900
252,900
NORWICH VT 05055
|SPEC EXEMPTION
0
TAX MAP:
20-286.000
|
PROP DESC: .22 ACRE & DWL
|
911 ADDR: 28 JONES CIR
|
PARCEL ID: 20-286.000 SPAN: 450-142-12110
|
HOUSESITE:
252,900
ACRES:
0.22 R1 T
|GRAND LIST
2,529.00
2,529.00
-----------------------------------------------------------------------------------------------------------------------------------NORWICH ASSOCIATES INC
|
MUNICIPAL
HOMESTEAD
NON-RESIDENTIAL
|LAND
800,700
PO BOX 906
|BUILDING
0
|TOTAL REAL
800,700
800,700
NORWICH VT 05055-0906
|SPEC EXEMPTION
0
TAX MAP:
11-077.000
|
PROP DESC: 356.5 ACRES
|
911 ADDR: TOWN FARM RD
|CURRENT USE
735,500
735,500
PARCEL ID: 11-077.000 SPAN: 450-142-12867
|
HOUSESITE:
0
ACRES:
356.50 M
C
|GRAND LIST
652.00
652.00
-----------------------------------------------------------------------------------------------------------------------------------NORWICH ASSOCIATES INC
|
MUNICIPAL
HOMESTEAD
NON-RESIDENTIAL
|LAND
297,700
P O BOX 906
|BUILDING
0
|TOTAL REAL
297,700
297,700
NORWICH VT 05055-0906
|SPEC EXEMPTION
0
TAX MAP:
11-105.000
|
PROP DESC: 50.48 ACRES & GRAVEL PIT
|
911 ADDR: US ROUTE 5 NORTH
|
PARCEL ID: 11-105.000 SPAN: 450-142-12677
|
HOUSESITE:
0
ACRES:
50.48 C
C
|GRAND LIST
2,977.00
2,977.00
------------------------------------------------------------------------------------------------------------------------------------
06/12/2015
01:32 pm
Town of Norwich Grand List
Grand List Report (Detail)
By Name For All Parcels In All Districts
Page 207
jbynum
PARCEL INFORMATION
TAXABLE VALUATIONS / EXEMPTIONS / CONTRACTS
-----------------------------------------------------------------------------------------------------------------------------------NORWICH ASSOCIATES INC
|
MUNICIPAL
HOMESTEAD
NON-RESIDENTIAL
|LAND
586,000
P O BOX 906
|BUILDING
819,700
|TOTAL REAL
1405,700
1405,700
NORWICH VT 05055-0906
|SPEC EXEMPTION
0
TAX MAP:
12-001.300
|
PROP DESC: 66.12 ACRES & 4 DWLS INCL 5 ADDL LOTS
|
911 ADDR: 7 OAK RIDGE
|
PARCEL ID: 12-001.300 SPAN: 450-142-12680
|
HOUSESITE:
49,800
ACRES:
71.75 CA C
|GRAND LIST
14,057.00
14,057.00
-----------------------------------------------------------------------------------------------------------------------------------NORWICH ASSOCIATES INC
|
MUNICIPAL
HOMESTEAD
NON-RESIDENTIAL
|LAND
68,900
P O BOX 906
|BUILDING
0
|TOTAL REAL
68,900
68,900
NORWICH VT 05055-0906
|SPEC EXEMPTION
0
TAX MAP:
15-038.000
|
PROP DESC: 25 ACRES
|
911 ADDR: 320 US ROUTE 5 SOUTH
|
PARCEL ID: 15-038.000 SPAN: 450-142-12763
|
HOUSESITE:
0
ACRES:
25.00 M
C
|GRAND LIST
689.00
689.00
-----------------------------------------------------------------------------------------------------------------------------------NORWICH COMMERCE PARK
|
MUNICIPAL
HOMESTEAD
NON-RESIDENTIAL
C/O COLLIERS INTERNATIONAL
|LAND
265,500
175 CANAL ST, STE 401
|BUILDING
0
|TOTAL REAL
265,500
265,500
MANCHESTER NH 03101
|SPEC EXEMPTION
0
TAX MAP:
15-073.000
|
PROP DESC: COMMON CONDOMINIMUM LAND
|
911 ADDR: 303 US ROUTE 5 SOUTH
|
PARCEL ID: 15-073.000 SPAN: 450-142-12746
|
HOUSESITE:
0
ACRES:
5.60 C
C
|GRAND LIST
2,655.00
2,655.00
-----------------------------------------------------------------------------------------------------------------------------------NORWICH COMMERCE PARK
|
MUNICIPAL
HOMESTEAD
NON-RESIDENTIAL
C/O COLLIERS INTERNATIONAL
|LAND
125,000
175 CANAL ST, STE 401
|BUILDING
0
|TOTAL REAL
125,000
125,000
MANCHESTER NH 03101
|SPEC EXEMPTION
0
TAX MAP:
15-073.110
|
PROP DESC: COMMON CONDOMINIUM LAND
|
911 ADDR: US ROUTE 5 SOUTH
|
PARCEL ID: 15-073.110 SPAN: 450-142-12758
|
HOUSESITE:
0
ACRES:
1.00 C
C
|GRAND LIST
1,250.00
1,250.00
-----------------------------------------------------------------------------------------------------------------------------------NORWICH FIRE DISTRICT
|
MUNICIPAL
HOMESTEAD
NON-RESIDENTIAL
|LAND
0
PO BOX 777
|BUILDING
10,000
|TOTAL REAL
10,000
10,000
NORWICH VT 05055-0777
|SPEC EXEMPTION
0
TAX MAP:
09-029.100
|
PROP DESC: 78.37 AC - WATER RTS OWNED BY FIRE DIST
|
911 ADDR: TUCKER HILL RD
|
PARCEL ID: 09-029.100 SPAN: 450-142-13327
|CONTRACTS
10,000
10,000
HOUSESITE:
0
ACRES:
0.00 M
C
|GRAND LIST
0.00
0.00
------------------------------------------------------------------------------------------------------------------------------------
06/12/2015
01:32 pm
Town of Norwich Grand List
Grand List Report (Detail)
By Name For All Parcels In All Districts
Page 208
jbynum
PARCEL INFORMATION
TAXABLE VALUATIONS / EXEMPTIONS / CONTRACTS
-----------------------------------------------------------------------------------------------------------------------------------NORWICH FIRE DISTRICT
|
MUNICIPAL
HOMESTEAD
NON-RESIDENTIAL
|LAND
0
PO BOX 777
|BUILDING
30,000
|TOTAL REAL
30,000
30,000
NORWICH VT 05055-0777
|SPEC EXEMPTION
0
TAX MAP:
09-036.100
|
PROP DESC: 836.3 AC - WATER RTS OWNED BY FIRE DIST
|
911 ADDR: BEAVER MEADOW RD
|
PARCEL ID: 09-036.100 SPAN: 450-142-13328
|CONTRACTS
30,000
30,000
HOUSESITE:
0
ACRES:
0.00 M
C
|GRAND LIST
0.00
0.00
-----------------------------------------------------------------------------------------------------------------------------------NORWICH FIRE DISTRICT
|
MUNICIPAL
HOMESTEAD
NON-RESIDENTIAL
|LAND
144,300
PO BOX 777
|BUILDING
26,200
|TOTAL REAL
170,500
170,500
NORWICH VT 05055-0777
|SPEC EXEMPTION
0
TAX MAP:
11-104.000
|
PROP DESC: 27.60 ACRES & WELL
|
911 ADDR: 635 US ROUTE 5 NORTH
|
PARCEL ID: 11-104.000 SPAN: 450-142-12675
|
HOUSESITE:
0
ACRES:
27.60 C
C
|GRAND LIST
1,705.00
1,705.00
-----------------------------------------------------------------------------------------------------------------------------------NORWICH FIRE DISTRICT
|
MUNICIPAL
HOMESTEAD
NON-RESIDENTIAL
|LAND
62,000
PO BOX 777
|BUILDING
0
|TOTAL REAL
62,000
62,000
NORWICH VT 05055-0777
|SPEC EXEMPTION
0
TAX MAP:
20-067.000
|
PROP DESC: 1.71 ACRES & RESERVOIR
|
911 ADDR: 108 DUTTON HILL
|
PARCEL ID: 20-067.000 SPAN: 450-142-11921
|
HOUSESITE:
0
ACRES:
1.71 C
C
|GRAND LIST
620.00
620.00
-----------------------------------------------------------------------------------------------------------------------------------NORWICH HOUSING CORPORATION
|
MUNICIPAL
HOMESTEAD
NON-RESIDENTIAL
C/O PROACTIVE PROP SOLUTIONS
|LAND
451,500
PO BOX 1081
|BUILDING
1063,300
|TOTAL REAL
1514,800
1514,800
NORWICH VT 05055
|SPEC EXEMPTION
0
TAX MAP:
20-191.000
|
PROP DESC: 3.01 ACRES & APT UNITS - EXEMPT BY VOTE
|
911 ADDR: 4 DORRANCE DR
|
PARCEL ID: 20-191.000 SPAN: 450-142-12023
|CONTRACTS
1514,800
1514,800
HOUSESITE:
0
ACRES:
3.01 CA C
|GRAND LIST
0.00
0.00
-----------------------------------------------------------------------------------------------------------------------------------NORWICH RACQUET CLUB INC
|
MUNICIPAL
HOMESTEAD
NON-RESIDENTIAL
|LAND
172,500
PO BOX 228
|BUILDING
115,300
|TOTAL REAL
287,800
287,800
HANOVER NH 03755-0228
|SPEC EXEMPTION
0
TAX MAP:
15-077.000
|
PROP DESC: 1.84 ACRES & 4 TENNIS COURTS
|
911 ADDR: 317 US ROUTE 5 SOUTH
|
PARCEL ID: 15-077.000 SPAN: 450-142-12759
|
HOUSESITE:
0
ACRES:
1.84 C
C
|GRAND LIST
2,878.00
2,878.00
------------------------------------------------------------------------------------------------------------------------------------
06/12/2015
01:32 pm
Town of Norwich Grand List
Grand List Report (Detail)
By Name For All Parcels In All Districts
Page 209
jbynum
PARCEL INFORMATION
TAXABLE VALUATIONS / EXEMPTIONS / CONTRACTS
-----------------------------------------------------------------------------------------------------------------------------------NORWICH SQUARE PROPERTIES LTD
|
MUNICIPAL
HOMESTEAD
NON-RESIDENTIAL
|LAND
450,200
PO BOX 27
|BUILDING
3250,900
|TOTAL REAL
3701,100
3701,100
WINDSOR VT 05089
|SPEC EXEMPTION
0
TAX MAP:
20-248.000
|
PROP DESC: 1.43 ACRES & 3 COMM BLDGS
|
911 ADDR: 289 MAIN ST
|
PARCEL ID: 20-248.000 SPAN: 450-142-12466
|
HOUSESITE:
0
ACRES:
1.43 C
C
|GRAND LIST
37,011.00
37,011.00
-----------------------------------------------------------------------------------------------------------------------------------NORWICH WATERWORKS LLC
|
MUNICIPAL
HOMESTEAD
NON-RESIDENTIAL
|LAND
121,600
PO BOX 89
|BUILDING
241,000
|TOTAL REAL
362,600
362,600
NORWICH VT 05055
|SPEC EXEMPTION
0
TAX MAP:
11-106.000
|
PROP DESC: 2.95 ACRES & COMMERCIAL
|
911 ADDR: 713 US ROUTE 5 NORTH
|
PARCEL ID: 11-106.000 SPAN: 450-142-12676
|
HOUSESITE:
0
ACRES:
2.95 C
C
|GRAND LIST
3,626.00
3,626.00
-----------------------------------------------------------------------------------------------------------------------------------NOVICK SHELDON M
HMSTD FILED |
MUNICIPAL
HOMESTEAD
NON-RESIDENTIAL
CLINTON CAROLYN N.
|LAND
142,400
234 KERWIN HILL RD
|BUILDING
322,000
|TOTAL REAL
464,400
464,400
NORWICH VT 05055-9477
|SPEC EXEMPTION
0
TAX MAP:
05-049.000
|
PROP DESC: 5.2 ACRES & DWL
|
911 ADDR: 234 KERWIN HILL RD
|
PARCEL ID: 05-049.000 SPAN: 450-142-12121
|
HOUSESITE:
450,200
ACRES:
5.20 R1 T
|GRAND LIST
4,644.00
4,644.00
-----------------------------------------------------------------------------------------------------------------------------------NULTON IRA W
HMSTD FILED |
MUNICIPAL
HOMESTEAD
NON-RESIDENTIAL
NULTON CYNTHIA L
|LAND
91,300
21 JONES CIRCLE
|BUILDING
180,900
|TOTAL REAL
272,200
272,200
NORWICH VT 05055
|SPEC EXEMPTION
0
TAX MAP:
20-293.000
|
PROP DESC: .2 ACRE & DWL
|
911 ADDR: 21 JONES CIR
|
PARCEL ID: 20-293.000 SPAN: 450-142-12107
|
HOUSESITE:
272,200
ACRES:
0.23 R1 T
|GRAND LIST
2,722.00
2,722.00
-----------------------------------------------------------------------------------------------------------------------------------NUTT MARJORIE M TRUST
HMSTD FILED |
MUNICIPAL
HOMESTEAD
NON-RESIDENTIAL
|LAND
126,100
560 HAWK PINE RD
|BUILDING
311,000
|TOTAL REAL
437,100
437,100
NORWICH VT 05055
|SPEC EXEMPTION
0
TAX MAP:
16-134.000
|
PROP DESC: 1.52 ACRES
|
911 ADDR: 560 HAWK PINE RD
|
PARCEL ID: 16-134.000 SPAN: 450-142-12582
|
HOUSESITE:
437,100
ACRES:
1.52 R1 T
|GRAND LIST
4,371.00
4,371.00
------------------------------------------------------------------------------------------------------------------------------------
06/12/2015
01:32 pm
Town of Norwich Grand List
Grand List Report (Detail)
By Name For All Parcels In All Districts
Page 210
jbynum
PARCEL INFORMATION
TAXABLE VALUATIONS / EXEMPTIONS / CONTRACTS
-----------------------------------------------------------------------------------------------------------------------------------OBRIEN DENIS G
|
MUNICIPAL
HOMESTEAD
NON-RESIDENTIAL
|LAND
78,900
PO BOX 111
|BUILDING
203,300
|TOTAL REAL
282,200
282,200
THETFORD VT 05074-0111
|SPEC EXEMPTION
0
TAX MAP:
16-052.000
|
PROP DESC: 0.78 ACRE & DWL/APT
|
911 ADDR: 134 CHURCH ST
|
PARCEL ID: 16-052.000 SPAN: 450-142-11862
|
HOUSESITE:
282,200
ACRES:
0.78 R1 S
|GRAND LIST
2,822.00
2,822.00
-----------------------------------------------------------------------------------------------------------------------------------ODELL NEIL P
|
MUNICIPAL
HOMESTEAD
NON-RESIDENTIAL
MEDORA CHRISTINE R
|LAND
138,400
11 EAGLE LN
|BUILDING
208,500
|TOTAL REAL
346,900
346,900
NORWICH VT 05055
|SPEC EXEMPTION
0
TAX MAP:
05-083.100
|
PROP DESC: 14 ACRES
|
911 ADDR: 1445 UNION VILLAGE RD
|
PARCEL ID: 05-083.100 SPAN: 450-142-13068
|
HOUSESITE:
306,800
ACRES:
14.00 R2 T
|GRAND LIST
3,469.00
3,469.00
-----------------------------------------------------------------------------------------------------------------------------------OFLAHERTY JENNIFER
HMSTD FILED |
MUNICIPAL
HOMESTEAD
NON-RESIDENTIAL
RYAN ELIZABETH
|LAND
140,700
431 MAIN ST
|BUILDING
375,000
|TOTAL REAL
515,700
515,700
NORWICH VT 05055-0054
|SPEC EXEMPTION
0
TAX MAP:
20-136.000
|
PROP DESC: .44 ACRE & DWL
|
911 ADDR: 431 MAIN ST
|
PARCEL ID: 20-136.000 SPAN: 450-142-12438
|
HOUSESITE:
515,700
ACRES:
0.44 R1 T
|GRAND LIST
5,157.00
5,157.00
-----------------------------------------------------------------------------------------------------------------------------------OLLMANN LILA
|
MUNICIPAL
HOMESTEAD
NON-RESIDENTIAL
|LAND
132,200
PO BOX 177
|BUILDING
625,800
|TOTAL REAL
758,000
758,000
WILDER VT 05088
|SPEC EXEMPTION
0
TAX MAP:
10-052.110
|
PROP DESC: 3 ACRES & DWL
|
911 ADDR: 78 BRIGHAM HILL RD
|
PARCEL ID: 10-052.110 SPAN: 450-142-11707
|
HOUSESITE:
754,400
ACRES:
3.00 R1 S
|GRAND LIST
7,580.00
7,580.00
-----------------------------------------------------------------------------------------------------------------------------------OLMSTEAD ELAINE M
HMSTD FILED |
MUNICIPAL
HOMESTEAD
NON-RESIDENTIAL
OLMSTEAD FRANK H
|LAND
118,800
329 HAWK PINE RD
|BUILDING
311,200
|TOTAL REAL
430,000
367,760
62,240
NORWICH VT 05055
|SPEC EXEMPTION
0
0
TAX MAP:
16-155.000
|
PROP DESC: 1.3 ACRES & DWL
|
911 ADDR: 329 HAWK PINE RD
|
PARCEL ID: 16-155.000 SPAN: 450-142-12555
|
HOUSESITE:
367,760
ACRES:
1.30 R1 T
|GRAND LIST
4,300.00
3,677.60
622.40
------------------------------------------------------------------------------------------------------------------------------------
06/12/2015
01:32 pm
Town of Norwich Grand List
Grand List Report (Detail)
By Name For All Parcels In All Districts
Page 211
jbynum
PARCEL INFORMATION
TAXABLE VALUATIONS / EXEMPTIONS / CONTRACTS
-----------------------------------------------------------------------------------------------------------------------------------OLSEN JON D
HMSTD FILED |
MUNICIPAL
HOMESTEAD
NON-RESIDENTIAL
DEMPSEY CAROLE A
|LAND
178,500
70 PINE TREE RD
|BUILDING
249,400
|TOTAL REAL
427,900
427,900
NORWICH VT 05055
|SPEC EXEMPTION
0
TAX MAP:
20-026.000
|
PROP DESC: 4 ACRES & DWL
|
911 ADDR: 70 PINE TREE RD
|
PARCEL ID: 20-026.000 SPAN: 450-142-12586
|
HOUSESITE:
418,900
ACRES:
4.00 R1 T
|GRAND LIST
4,279.00
4,279.00
-----------------------------------------------------------------------------------------------------------------------------------OLSON JANE B TRUSTEE
|
MUNICIPAL
HOMESTEAD
NON-RESIDENTIAL
OLSON RICHARD S TRUSTEE
|LAND
258,100
2424 LANDINGS CIRCLE
|BUILDING
568,600
|TOTAL REAL
826,700
826,700
BRADENTON FL 34209-9674
|SPEC EXEMPTION
0
TAX MAP:
04-056.010
|
PROP DESC: 60.25 ACRES & DWL
|
911 ADDR: 128 MOUNT TABOR RD
|CURRENT USE
125,000
125,000
PARCEL ID: 04-056.010 SPAN: 450-142-12333
|
HOUSESITE:
693,900
ACRES:
60.25 R2 NS
|GRAND LIST
7,017.00
7,017.00
-----------------------------------------------------------------------------------------------------------------------------------OLSZEWSKI JOHN
HMSTD FILED |
MUNICIPAL
HOMESTEAD
NON-RESIDENTIAL
OLSZEWSKI EILEEN
|LAND
161,100
463 MAIN ST
|BUILDING
377,200
|TOTAL REAL
538,300
538,300
NORWICH VT 05055
|SPEC EXEMPTION
0
TAX MAP:
20-138.000
|
PROP DESC: 2 ACRES & DWL
|
911 ADDR: 463 MAIN ST
|
PARCEL ID: 20-138.000 SPAN: 450-142-12444
|
HOUSESITE:
538,300
ACRES:
2.00 R1 T
|GRAND LIST
5,383.00
5,383.00
-----------------------------------------------------------------------------------------------------------------------------------OREILLY WILLIAM R JR
|
MUNICIPAL
HOMESTEAD
NON-RESIDENTIAL
|LAND
159,600
32 BATES ST
|BUILDING
492,300
|TOTAL REAL
651,900
651,900
CAMBRIDGE MA 02140-3612
|SPEC EXEMPTION
0
TAX MAP:
20-014.200
|
PROP DESC: 3.14 ACRES & DWL
|
911 ADDR: 250 ELM ST
|
PARCEL ID: 20-014.200 SPAN: 450-142-11967
|
HOUSESITE:
646,800
ACRES:
3.14 R1 NS
|GRAND LIST
6,519.00
6,519.00
-----------------------------------------------------------------------------------------------------------------------------------ORFORD ROSAMOND
HMSTD FILED |
MUNICIPAL
HOMESTEAD
NON-RESIDENTIAL
|LAND
127,400
1485 UNION VILLAGE RD
|BUILDING
195,100
|TOTAL REAL
322,500
273,725
48,775
NORWICH VT 05055
|SPEC EXEMPTION
0
0
TAX MAP:
05-084.000
|
PROP DESC: 10 ACRES & DWL/APT
|
911 ADDR: 1485 UNION VILLAGE RD
|
PARCEL ID: 05-084.000 SPAN: 450-142-13069
|
HOUSESITE:
244,925
ACRES:
10.00 R2 T
|GRAND LIST
3,225.00
2,737.25
487.75
------------------------------------------------------------------------------------------------------------------------------------
06/12/2015
01:32 pm
Town of Norwich Grand List
Grand List Report (Detail)
By Name For All Parcels In All Districts
Page 212
jbynum
PARCEL INFORMATION
TAXABLE VALUATIONS / EXEMPTIONS / CONTRACTS
-----------------------------------------------------------------------------------------------------------------------------------ORNVOLD KIM
HMSTD FILED |
MUNICIPAL
HOMESTEAD
NON-RESIDENTIAL
ZAHKA GLORIA
|LAND
151,400
21 PINE TREE RD
|BUILDING
443,000
|TOTAL REAL
594,400
594,400
NORWICH VT 05055-0713
|SPEC EXEMPTION
0
TAX MAP:
20-024.000
|
PROP DESC: 1.32 ACRES & DWL
|
911 ADDR: 21 PINE TREE RD
|
PARCEL ID: 20-024.000 SPAN: 450-142-12588
|
HOUSESITE:
594,400
ACRES:
1.32 R1 T
|GRAND LIST
5,944.00
5,944.00
-----------------------------------------------------------------------------------------------------------------------------------OSBORN MATTHEW
HMSTD FILED |
MUNICIPAL
HOMESTEAD
NON-RESIDENTIAL
OSBORN LAURA S.
|LAND
91,300
PO BOX 1088
|BUILDING
174,500
|TOTAL REAL
265,800
265,800
NORWICH VT 05055-1088
|SPEC EXEMPTION
0
TAX MAP:
20-285.000
|
PROP DESC: .23 ACRE & DWL
|
911 ADDR: 32 JONES CIR
|
PARCEL ID: 20-285.000 SPAN: 450-142-12111
|
HOUSESITE:
265,800
ACRES:
0.23 R1 T
|GRAND LIST
2,658.00
2,658.00
-----------------------------------------------------------------------------------------------------------------------------------OSBORNE COLIN
HMSTD FILED |
MUNICIPAL
HOMESTEAD
NON-RESIDENTIAL
OSBORNE ELIZABETH A
|LAND
128,900
286 HAWK PINE RD
|BUILDING
326,000
|TOTAL REAL
454,900
454,900
NORWICH VT 05055
|SPEC EXEMPTION
0
TAX MAP:
16-129.000
|
PROP DESC: 2.13 ACRES & DWL
|
911 ADDR: 286 HAWK PINE RD
|
PARCEL ID: 16-129.000 SPAN: 450-142-12549
|
HOUSESITE:
454,300
ACRES:
2.13 R1 T
|GRAND LIST
4,549.00
4,549.00
-----------------------------------------------------------------------------------------------------------------------------------OSGOOD WILLIAM B ESTATE
HMSTD FILED |
MUNICIPAL
HOMESTEAD
NON-RESIDENTIAL
|LAND
156,500
PO BOX 331
|BUILDING
393,800
|TOTAL REAL
550,300
550,300
NORWICH VT 05055-0331
|SPEC EXEMPTION
0
TAX MAP:
05-109.000
|
PROP DESC: 10.1 ACRES & DWL
|
911 ADDR: 191 PATTRELL RD
|
PARCEL ID: 05-109.000 SPAN: 450-142-12506
|
HOUSESITE:
521,200
ACRES:
10.10 R2 T
|GRAND LIST
5,503.00
5,503.00
-----------------------------------------------------------------------------------------------------------------------------------OTTO DAVID W
HMSTD FILED |
MUNICIPAL
HOMESTEAD
NON-RESIDENTIAL
OTTO MARY K
|LAND
169,900
P O BOX 1203
|BUILDING
860,200
|TOTAL REAL
1030,100
901,340
128,760
NORWICH VT 05055
|SPEC EXEMPTION
0
0
TAX MAP:
20-245.000
|
PROP DESC: .57 ACRE & DWL/APT
|
911 ADDR: 261 MAIN ST
|
PARCEL ID: 20-245.000 SPAN: 450-142-12469
|
HOUSESITE:
901,340
ACRES:
0.57 R1 T
|GRAND LIST
10,301.00
9,013.40
1,287.60
------------------------------------------------------------------------------------------------------------------------------------
06/12/2015
01:32 pm
Town of Norwich Grand List
Grand List Report (Detail)
By Name For All Parcels In All Districts
Page 213
jbynum
PARCEL INFORMATION
TAXABLE VALUATIONS / EXEMPTIONS / CONTRACTS
-----------------------------------------------------------------------------------------------------------------------------------OTTO RICHARD G
HMSTD FILED |
MUNICIPAL
HOMESTEAD
NON-RESIDENTIAL
|LAND
125,600
53 BRIGHAM HILL RD
|BUILDING
195,100
|TOTAL REAL
320,700
320,700
NORWICH VT 05055
|SPEC EXEMPTION
0
TAX MAP:
10-038.000
|
PROP DESC: 1.13 ACRES & DWL
|
911 ADDR: 53 BRIGHAM HILL RD
|
PARCEL ID: 10-038.000 SPAN: 450-142-11706
|
HOUSESITE:
320,700
ACRES:
1.13 R1 T
|GRAND LIST
3,207.00
3,207.00
-----------------------------------------------------------------------------------------------------------------------------------OWEN ARTHUR H
|
MUNICIPAL
HOMESTEAD
NON-RESIDENTIAL
|LAND
77,100
240 CHAPEL HILL RD
|BUILDING
0
|TOTAL REAL
77,100
77,100
NORWICH VT 05055
|SPEC EXEMPTION
0
TAX MAP:
03-011.000
|
PROP DESC: 1.3 ACRES; UNLANDED MH ON SITE
|
911 ADDR: 1671 BEAVER MEADOW RD
|
PARCEL ID: 03-011.000 SPAN: 450-142-11613
|
HOUSESITE:
0
ACRES:
1.30 M
T
|GRAND LIST
771.00
771.00
-----------------------------------------------------------------------------------------------------------------------------------OWEN ARTHUR H
HMSTD FILED |
MUNICIPAL
HOMESTEAD
NON-RESIDENTIAL
|LAND
70,900
240 CHAPEL HILL RD
|BUILDING
64,300
|TOTAL REAL
135,200
135,200
NORWICH VT 05055
|SPEC EXEMPTION
0
TAX MAP:
03-053.000
|
PROP DESC: 1.36 ACRES & DWL
|
911 ADDR: 240 CHAPEL HILL RD
|
PARCEL ID: 03-053.000 SPAN: 450-142-11801
|
HOUSESITE:
135,200
ACRES:
1.36 R1 T
|GRAND LIST
1,352.00
1,352.00
-----------------------------------------------------------------------------------------------------------------------------------OZANNE ELISSA
HMSTD FILED |
MUNICIPAL
HOMESTEAD
NON-RESIDENTIAL
OZANNE GERARD
|LAND
0
PO BOX 314
|BUILDING
474,600
|TOTAL REAL
474,600
474,600
NORWICH VT 05055
|SPEC EXEMPTION
0
TAX MAP:
|
PROP DESC: NORWICH GATEWAY CONDOMINIUM - UNIT 5
|
911 ADDR: 235 MAIN ST
|
PARCEL ID: 20-243.105 SPAN: 450-142-13407
|
HOUSESITE:
474,600
ACRES:
0.00 O
T
|GRAND LIST
4,746.00
4,746.00
-----------------------------------------------------------------------------------------------------------------------------------O`BRIEN JEFFREY F
HMSTD FILED |
MUNICIPAL
HOMESTEAD
NON-RESIDENTIAL
O`BRIEN MICHELLE
|LAND
134,900
24 PENNY LANE
|BUILDING
344,600
|TOTAL REAL
479,500
479,500
NORWICH VT 05055
|SPEC EXEMPTION
0
TAX MAP:
11-165.000
|
PROP DESC: 3.76 ACRES & DWL
|
911 ADDR: 24 PENNY LN
|
PARCEL ID: 11-165.000 SPAN: 450-142-12527
|
HOUSESITE:
471,600
ACRES:
3.76 R1 T
|GRAND LIST
4,795.00
4,795.00
------------------------------------------------------------------------------------------------------------------------------------
06/12/2015
01:32 pm
Town of Norwich Grand List
Grand List Report (Detail)
By Name For All Parcels In All Districts
Page 214
jbynum
PARCEL INFORMATION
TAXABLE VALUATIONS / EXEMPTIONS / CONTRACTS
-----------------------------------------------------------------------------------------------------------------------------------O`CONNER RILEY TRUST
HMSTD FILED |
MUNICIPAL
HOMESTEAD
NON-RESIDENTIAL
|LAND
117,500
866 NEW BOSTON RD
|BUILDING
283,500
|TOTAL REAL
401,000
401,000
NORWICH VT 05055
|SPEC EXEMPTION
0
TAX MAP:
05-144.000
|
PROP DESC: 6.3 ACRES & DWL
|
911 ADDR: 866 NEW BOSTON RD
|
PARCEL ID: 05-144.000 SPAN: 450-142-12323
|
HOUSESITE:
386,800
ACRES:
6.30 R2 T
|GRAND LIST
4,010.00
4,010.00
-----------------------------------------------------------------------------------------------------------------------------------O`LEARY SHAWN
HMSTD FILED |
MUNICIPAL
HOMESTEAD
NON-RESIDENTIAL
O`LEARY AMY
|LAND
129,500
508 VT ROUTE 132
|BUILDING
241,500
|TOTAL REAL
371,000
371,000
NORWICH VT 05055
|SPEC EXEMPTION
0
TAX MAP:
06-010.100
|
PROP DESC: 2 ACRES & DWL
|
911 ADDR: 508 VT ROUTE 132
|
PARCEL ID: 06-010.100 SPAN: 450-142-12773
|
HOUSESITE:
371,000
ACRES:
2.00 R1 T
|GRAND LIST
3,710.00
3,710.00
-----------------------------------------------------------------------------------------------------------------------------------O`NEIL JAMES T
HMSTD FILED |
MUNICIPAL
HOMESTEAD
NON-RESIDENTIAL
|LAND
134,600
931 TURNPIKE RD
|BUILDING
79,600
|TOTAL REAL
214,200
214,200
NORWICH VT 05055
|SPEC EXEMPTION
0
TAX MAP:
10-091.000
|
PROP DESC: 4 ACRES & DWL
|
911 ADDR: 931 TURNPIKE RD
|
PARCEL ID: 10-091.000 SPAN: 450-142-12950
|
HOUSESITE:
207,000
ACRES:
4.00 R1 T
|GRAND LIST
2,142.00
2,142.00
-----------------------------------------------------------------------------------------------------------------------------------PACHE ANDREW A
HMSTD FILED |
MUNICIPAL
HOMESTEAD
NON-RESIDENTIAL
PACHE TIFFANY L
|LAND
165,600
296 DUTTON HILL RD
|BUILDING
517,100
|TOTAL REAL
682,700
521,300
161,400
NORWICH VT 05055-9404
|SPEC EXEMPTION
0
0
TAX MAP:
15-020.200
|
PROP DESC: 2.6 ACRES & DWL
|
911 ADDR: 296 DUTTON HILL CENTER
|
PARCEL ID: 15-020.200 SPAN: 450-142-11930
|
HOUSESITE:
518,600
ACRES:
2.60 R1 T
|GRAND LIST
6,827.00
5,213.00
1,614.00
-----------------------------------------------------------------------------------------------------------------------------------PACHNER ANDREW
HMSTD FILED |
MUNICIPAL
HOMESTEAD
NON-RESIDENTIAL
PACHNER BARBARA
|LAND
154,800
56 ELM ST
|BUILDING
524,700
|TOTAL REAL
679,500
679,500
NORWICH VT 05055
|SPEC EXEMPTION
0
TAX MAP:
20-278.000
|
PROP DESC: .67 ACRE & DWL
|
911 ADDR: 56 ELM ST
|
PARCEL ID: 20-278.000 SPAN: 450-142-11949
|
HOUSESITE:
679,500
ACRES:
0.67 R1 T
|GRAND LIST
6,795.00
6,795.00
------------------------------------------------------------------------------------------------------------------------------------
06/12/2015
01:32 pm
Town of Norwich Grand List
Grand List Report (Detail)
By Name For All Parcels In All Districts
Page 215
jbynum
PARCEL INFORMATION
TAXABLE VALUATIONS / EXEMPTIONS / CONTRACTS
-----------------------------------------------------------------------------------------------------------------------------------PACKARD CHRISTINE
HMSTD FILED |
MUNICIPAL
HOMESTEAD
NON-RESIDENTIAL
|LAND
93,000
PO BOX 315
|BUILDING
128,900
|TOTAL REAL
221,900
221,900
NORWICH VT 05055-0315
|SPEC EXEMPTION
0
TAX MAP:
06-058.000
|
PROP DESC: 1.67 ACRES & DWL
|
911 ADDR: 1649 US ROUTE 5 NORTH
|
PARCEL ID: 06-058.000 SPAN: 450-142-12721
|
HOUSESITE:
221,900
ACRES:
1.67 R1 T
|GRAND LIST
2,219.00
2,219.00
-----------------------------------------------------------------------------------------------------------------------------------PAGANO REALTY TRUST
|
MUNICIPAL
HOMESTEAD
NON-RESIDENTIAL
C/O JANICE PAGANO
|LAND
133,400
5 BOW ST
|BUILDING
90,700
|TOTAL REAL
224,100
224,100
DANVERS MA 01923-3519
|SPEC EXEMPTION
0
TAX MAP:
04-059.100
|
PROP DESC: 18.15 ACRES & DWL
|
911 ADDR: 1417 NEW BOSTON RD
|
PARCEL ID: 04-059.100 SPAN: 450-142-12369
|
HOUSESITE:
178,100
ACRES:
18.15 R2 NS
|GRAND LIST
2,241.00
2,241.00
-----------------------------------------------------------------------------------------------------------------------------------PALM C GARRETT
HMSTD FILED |
MUNICIPAL
HOMESTEAD
NON-RESIDENTIAL
KENNY FIONA R
|LAND
225,600
15 BRAMBLE LANE
|BUILDING
744,100
|TOTAL REAL
969,700
969,700
NORWICH VT 05055
|SPEC EXEMPTION
0
TAX MAP:
04-024.000
|
PROP DESC: 27.5 ACRES& DWELLING
|
911 ADDR: 15 BRAMBLE LN
|
PARCEL ID: 04-024.000 SPAN: 450-142-12977
|
HOUSESITE:
900,200
ACRES:
27.50 R2 T
|GRAND LIST
9,697.00
9,697.00
-----------------------------------------------------------------------------------------------------------------------------------PANG SZE PUI TRUSTEE
HMSTD FILED |
MUNICIPAL
HOMESTEAD
NON-RESIDENTIAL
PANG REVOCABLE TRUST
|LAND
243,300
163 NEEDHAM RD
|BUILDING
466,900
|TOTAL REAL
710,200
710,200
NORWICH VT 05055
|SPEC EXEMPTION
0
TAX MAP:
04-038.000
|
PROP DESC: 42 ACRES & DWL
|
911 ADDR: 163 NEEDHAM RD
|
PARCEL ID: 04-038.000 SPAN: 450-142-13127
|
HOUSESITE:
593,600
ACRES:
42.00 R2 T
|GRAND LIST
7,102.00
7,102.00
-----------------------------------------------------------------------------------------------------------------------------------PANGBURN TIMOTHY
HMSTD FILED |
MUNICIPAL
HOMESTEAD
NON-RESIDENTIAL
WHITE KATHLEEN D
|LAND
107,500
6 MOORE LA
|BUILDING
270,400
|TOTAL REAL
377,900
377,900
NORWICH VT 05055
|SPEC EXEMPTION
0
TAX MAP:
10-057.010
|
PROP DESC: .6 ACRE & DWL
|
911 ADDR: 6 MOORE LN
|
PARCEL ID: 10-057.010 SPAN: 450-142-12218
|
HOUSESITE:
377,900
ACRES:
0.60 R1 T
|GRAND LIST
3,779.00
3,779.00
------------------------------------------------------------------------------------------------------------------------------------
06/12/2015
01:32 pm
Town of Norwich Grand List
Grand List Report (Detail)
By Name For All Parcels In All Districts
Page 216
jbynum
PARCEL INFORMATION
TAXABLE VALUATIONS / EXEMPTIONS / CONTRACTS
-----------------------------------------------------------------------------------------------------------------------------------PARK ANGELA LIVING TRUST
HMSTD FILED |
MUNICIPAL
HOMESTEAD
NON-RESIDENTIAL
SPARKS BENNETT W LIVING TRUST
|LAND
134,100
122 HAWK PINE RD
|BUILDING
724,100
|TOTAL REAL
858,200
858,200
NORWICH VT 05055
|SPEC EXEMPTION
0
TAX MAP:
11-181.000
|
PROP DESC: 3.02 ACRES & DWL
|
911 ADDR: 122 HAWK PINE RD
|
PARCEL ID: 11-181.000 SPAN: 450-142-12530
|
HOUSESITE:
853,600
ACRES:
3.02 R1 T
|GRAND LIST
8,582.00
8,582.00
-----------------------------------------------------------------------------------------------------------------------------------PARK JONATHAN P
HMSTD FILED |
MUNICIPAL
HOMESTEAD
NON-RESIDENTIAL
PARK LINDA S
|LAND
163,200
768 PATTRELL RD
|BUILDING
289,400
|TOTAL REAL
452,600
452,600
NORWICH VT 05055
|SPEC EXEMPTION
0
TAX MAP:
05-092.000
|
PROP DESC: 2.9 ACRES & DWL
|
911 ADDR: 768 PATTRELL RD
|
PARCEL ID: 05-092.000 SPAN: 450-142-12515
|
HOUSESITE:
448,600
ACRES:
2.90 R1 T
|GRAND LIST
4,526.00
4,526.00
-----------------------------------------------------------------------------------------------------------------------------------PARKER ANDREW STEWART
|
MUNICIPAL
HOMESTEAD
NON-RESIDENTIAL
|LAND
146,400
179 CARBONDALE RD
|BUILDING
70,000
|TOTAL REAL
216,400
216,400
WAYMART PA 18472
|SPEC EXEMPTION
0
TAX MAP:
09-015.000
|
PROP DESC: 30.83 ACRES & DWL
|
911 ADDR: 54 CHAPEL HILL RD
|CURRENT USE
73,900
73,900
PARCEL ID: 09-015.000 SPAN: 450-142-11837
|
HOUSESITE:
138,800
ACRES:
30.83 R2 NS
|GRAND LIST
1,425.00
1,425.00
-----------------------------------------------------------------------------------------------------------------------------------PARKER ANNETTE
|
MUNICIPAL
HOMESTEAD
NON-RESIDENTIAL
PARKER ERNEST
|LAND
75,800
1334 NEW BOSTON ROAD
|BUILDING
18,600
|TOTAL REAL
94,400
94,400
NORWICH VT 05055
|SPEC EXEMPTION
0
TAX MAP:
04-003.000
|
PROP DESC: .33 ACRE & MOBILE HOME
|
911 ADDR: 1131 TURNPIKE RD
|
PARCEL ID: 04-003.000 SPAN: 450-142-12960
|
HOUSESITE:
94,400
ACRES:
0.33 MHL T
|GRAND LIST
944.00
944.00
-----------------------------------------------------------------------------------------------------------------------------------PARKER ERNEST
HMSTD FILED |
MUNICIPAL
HOMESTEAD
NON-RESIDENTIAL
PARKER ANNETTE L
|LAND
294,200
1334 NEW BOSTON RD
|BUILDING
679,200
|TOTAL REAL
973,400
598,400
375,000
NORWICH VT 05055
|SPEC EXEMPTION
0
0
TAX MAP:
04-072.000
|
PROP DESC: 17.56 ACRES 3 DWLS & 2 ADDL LOTS
|
911 ADDR: 1334 NEW BOSTON RD
|
PARCEL ID: 04-072.000 SPAN: 450-142-13300
|
HOUSESITE:
329,200
ACRES:
17.56 R2 T
|GRAND LIST
9,734.00
5,984.00
3,750.00
------------------------------------------------------------------------------------------------------------------------------------
06/12/2015
01:32 pm
Town of Norwich Grand List
Grand List Report (Detail)
By Name For All Parcels In All Districts
Page 217
jbynum
PARCEL INFORMATION
TAXABLE VALUATIONS / EXEMPTIONS / CONTRACTS
-----------------------------------------------------------------------------------------------------------------------------------PARKER ERNEST
|
MUNICIPAL
HOMESTEAD
NON-RESIDENTIAL
PARKER ANNETTE L
|LAND
83,100
1334 NEW BOSTON RD
|BUILDING
29,500
|TOTAL REAL
112,600
112,600
NORWICH VT 05055
|SPEC EXEMPTION
0
TAX MAP:
05-018.000
|
PROP DESC: 1.8 ACRES & MOBILE HOME
|
911 ADDR: 1206 NEW BOSTON RD
|
PARCEL ID: 05-018.000 SPAN: 450-142-12358
|
HOUSESITE:
112,600
ACRES:
1.80 MHL T
|GRAND LIST
1,126.00
1,126.00
-----------------------------------------------------------------------------------------------------------------------------------PARKER HENRY WORTH
HMSTD FILED |
MUNICIPAL
HOMESTEAD
NON-RESIDENTIAL
ANDREWS MARY-MARGARET
|LAND
121,400
22 BEAVER MEADOW RD
|BUILDING
315,900
|TOTAL REAL
437,300
437,300
NORWICH VT 05055
|SPEC EXEMPTION
0
TAX MAP:
20-119.000
|
PROP DESC: .23 ACRE & DWL
|
911 ADDR: 22 BEAVER MEADOW RD
|
PARCEL ID: 20-119.000 SPAN: 450-142-12228
|
HOUSESITE:
437,300
ACRES:
0.23 R1 T
|GRAND LIST
4,373.00
4,373.00
-----------------------------------------------------------------------------------------------------------------------------------PARKER HOUSE ASSOCIATES LLC
|
MUNICIPAL
HOMESTEAD
NON-RESIDENTIAL
BEAVER MEADOW VENTURES LLC
|LAND
153,800
PO BOX 1229
|BUILDING
403,600
|TOTAL REAL
557,400
557,400
NORWICH VT 05055
|SPEC EXEMPTION
0
TAX MAP:
20-121.000
|
PROP DESC: .34 ACRE & OFFICE BLDG
|
911 ADDR: 8 BEAVER MEADOW RD
|
PARCEL ID: 20-121.000 SPAN: 450-142-12223
|
HOUSESITE:
0
ACRES:
0.34 C
C
|GRAND LIST
5,574.00
5,574.00
-----------------------------------------------------------------------------------------------------------------------------------PARKER ROBERT G.
HMSTD FILED |
MUNICIPAL
HOMESTEAD
NON-RESIDENTIAL
|LAND
193,300
PO BOX 131
|BUILDING
218,800
|TOTAL REAL
412,100
412,100
NORWICH VT 05055-0131
|SPEC EXEMPTION
0
TAX MAP:
20-135.000
|
PROP DESC: 10.2 ACRES & DWL
|
911 ADDR: 421 MAIN ST
|
PARCEL ID: 20-135.000 SPAN: 450-142-12436
|
HOUSESITE:
397,400
ACRES:
10.20 R2 T
|GRAND LIST
4,121.00
4,121.00
-----------------------------------------------------------------------------------------------------------------------------------PARKER STANLEY
|
MUNICIPAL
HOMESTEAD
NON-RESIDENTIAL
C/O CATHY COOK
|LAND
135,300
PO BOX 59
|BUILDING
144,700
|TOTAL REAL
280,000
280,000
HARTFORD VT 05047-0059
|SPEC EXEMPTION
0
TAX MAP:
20-042.000
|
PROP DESC: .72 ACRE & DWL
|
911 ADDR: 79 BEAVER MEADOW RD
|
PARCEL ID: 20-042.000 SPAN: 450-142-12201
|
HOUSESITE:
280,000
ACRES:
0.72 R1 S
|GRAND LIST
2,800.00
2,800.00
------------------------------------------------------------------------------------------------------------------------------------
06/12/2015
01:32 pm
Town of Norwich Grand List
Grand List Report (Detail)
By Name For All Parcels In All Districts
Page 218
jbynum
PARCEL INFORMATION
TAXABLE VALUATIONS / EXEMPTIONS / CONTRACTS
-----------------------------------------------------------------------------------------------------------------------------------PARRY BEVERLY B.
|
MUNICIPAL
HOMESTEAD
NON-RESIDENTIAL
|LAND
138,600
117 DUTTON HILL
|BUILDING
178,400
|TOTAL REAL
317,000
317,000
NORWICH VT 05055
|SPEC EXEMPTION
0
TAX MAP:
20-059.000
|
PROP DESC: 4.3 ACRES & DWL
|
911 ADDR: 117 DUTTON HILL
|
PARCEL ID: 20-059.000 SPAN: 450-142-11920
|
HOUSESITE:
199,720
ACRES:
4.30 R1 T
|GRAND LIST
3,170.00
3,170.00
-----------------------------------------------------------------------------------------------------------------------------------PARSONNET JEFFREY
HMSTD FILED |
MUNICIPAL
HOMESTEAD
NON-RESIDENTIAL
PARSONNET KATHY A
|LAND
146,200
358 MAIN ST
|BUILDING
520,000
|TOTAL REAL
666,200
666,200
NORWICH VT 05055
|SPEC EXEMPTION
0
TAX MAP:
20-206.000
|
PROP DESC: .53 ACRE & DWL
|
911 ADDR: 358 MAIN ST
|
PARCEL ID: 20-206.000 SPAN: 450-142-12421
|
HOUSESITE:
666,200
ACRES:
0.53 R1 T
|GRAND LIST
6,662.00
6,662.00
-----------------------------------------------------------------------------------------------------------------------------------PARSONS MARGARET TRUSTEE
HMSTD FILED |
MUNICIPAL
HOMESTEAD
NON-RESIDENTIAL
|LAND
128,400
18 TILDEN HILL RD
|BUILDING
240,900
|TOTAL REAL
369,300
369,300
NORWICH VT 05055
|SPEC EXEMPTION
0
TAX MAP:
10-069.000
|
PROP DESC: 2.3 ACRES & DWL
|
911 ADDR: 18 TILDEN HILL RD
|
PARCEL ID: 10-069.000 SPAN: 450-142-12853
|
HOUSESITE:
367,900
ACRES:
2.30 R1 T
|GRAND LIST
3,693.00
3,693.00
-----------------------------------------------------------------------------------------------------------------------------------PATYK LYNN E
HMSTD FILED |
MUNICIPAL
HOMESTEAD
NON-RESIDENTIAL
FINKEL STUART
|LAND
144,800
PO BOX 55
|BUILDING
232,500
|TOTAL REAL
377,300
377,300
NORWICH VT 05055
|SPEC EXEMPTION
0
TAX MAP:
15-049.000
|
PROP DESC: 5.6 ACRES & DWL
|
911 ADDR: 324 HOPSON RD
|
PARCEL ID: 15-049.000 SPAN: 450-142-12072
|
HOUSESITE:
361,800
ACRES:
5.60 R1 T
|GRAND LIST
3,773.00
3,773.00
-----------------------------------------------------------------------------------------------------------------------------------PEACOCK NANCY N REV TRUST
HMSTD FILED |
MUNICIPAL
HOMESTEAD
NON-RESIDENTIAL
|LAND
86,400
319 US ROUTE 5 N
|BUILDING
93,400
|TOTAL REAL
179,800
173,200
6,600
NORWICH VT 05055
|SPEC EXEMPTION
0
0
TAX MAP:
11-095.000
|
PROP DESC: 1.2 ACRES & DWLG & MOBILE HOME
|
911 ADDR: 317 US ROUTE 5 NORTH
|
PARCEL ID: 11-095.000 SPAN: 450-142-12669
|
HOUSESITE:
173,200
ACRES:
1.20 R1 T
|GRAND LIST
1,798.00
1,732.00
66.00
------------------------------------------------------------------------------------------------------------------------------------
06/12/2015
01:32 pm
Town of Norwich Grand List
Grand List Report (Detail)
By Name For All Parcels In All Districts
Page 219
jbynum
PARCEL INFORMATION
TAXABLE VALUATIONS / EXEMPTIONS / CONTRACTS
-----------------------------------------------------------------------------------------------------------------------------------PEARSON MICHAEL M L
HMSTD FILED |
MUNICIPAL
HOMESTEAD
NON-RESIDENTIAL
PEARSON LORETTA H
|LAND
126,200
31 HAWK PINE RD
|BUILDING
249,200
|TOTAL REAL
375,400
375,400
NORWICH VT 05055
|SPEC EXEMPTION
0
TAX MAP:
11-189.000
|
PROP DESC: 2.92 ACRES & DWL
|
911 ADDR: 31 HAWK PINE RD
|
PARCEL ID: 11-189.000 SPAN: 450-142-12520
|
HOUSESITE:
371,300
ACRES:
2.92 R1 T
|GRAND LIST
3,754.00
3,754.00
-----------------------------------------------------------------------------------------------------------------------------------PEJCHAL ROBERT
HMSTD FILED |
MUNICIPAL
HOMESTEAD
NON-RESIDENTIAL
WALKER LAURA
|LAND
78,600
239 MITCHELL BROOK RD
|BUILDING
228,200
|TOTAL REAL
306,800
306,800
NORWICH VT 05055
|SPEC EXEMPTION
0
TAX MAP:
09-014.000
|
PROP DESC: 4.41 ACRES & DWL
|
911 ADDR: 239 MITCHELL BROOK RD
|
PARCEL ID: 09-014.000 SPAN: 450-142-12269
|
HOUSESITE:
298,100
ACRES:
4.41 R1 T
|GRAND LIST
3,068.00
3,068.00
-----------------------------------------------------------------------------------------------------------------------------------PENN DANIEL L
HMSTD FILED |
MUNICIPAL
HOMESTEAD
NON-RESIDENTIAL
PENN HEIDI L
|LAND
108,200
724 TIGERTOWN RD
|BUILDING
75,000
|TOTAL REAL
183,200
183,200
WHITE RIVER JUNCTION VT 05001
|SPEC EXEMPTION
0
TAX MAP:
08-004.300
|
PROP DESC: 15.3 ACRES & DWL
|
911 ADDR: 724 TIGERTOWN RD
|
PARCEL ID: 08-004.300 SPAN: 450-142-12844
|
HOUSESITE:
143,800
ACRES:
15.30 R2 T
|GRAND LIST
1,832.00
1,832.00
-----------------------------------------------------------------------------------------------------------------------------------PEPE MICHAEL
|
MUNICIPAL
HOMESTEAD
NON-RESIDENTIAL
PEPE KAMI
|LAND
6,600
237 OLD STONE RD
|BUILDING
0
|TOTAL REAL
6,600
6,600
EAST THETFORD VT 05043
|SPEC EXEMPTION
0
TAX MAP:
|
PROP DESC: 1.46 ACRES IN NORWICH
|
911 ADDR: HOGBACK RD
|
PARCEL ID: 06-037.000 SPAN: 450-142-12053
|
HOUSESITE:
0
ACRES:
1.46 M
S
|GRAND LIST
66.00
66.00
-----------------------------------------------------------------------------------------------------------------------------------PEPPER JOHN S
|
MUNICIPAL
HOMESTEAD
NON-RESIDENTIAL
PEPPER MAGGIE TIBLIER
|LAND
178,600
95 ELM STREET
|BUILDING
373,800
|TOTAL REAL
552,400
552,400
NORWICH VT 05055
|SPEC EXEMPTION
0
TAX MAP:
04-023.000
|
PROP DESC: 20.8 ACRES AND HOUSE
|
911 ADDR: 1470 TURNPIKE RD
|
PARCEL ID: 04-023.000 SPAN: 450-142-12982
|
HOUSESITE:
499,400
ACRES:
20.80 R2 T
|GRAND LIST
5,524.00
5,524.00
------------------------------------------------------------------------------------------------------------------------------------
06/12/2015
01:32 pm
Town of Norwich Grand List
Grand List Report (Detail)
By Name For All Parcels In All Districts
Page 220
jbynum
PARCEL INFORMATION
TAXABLE VALUATIONS / EXEMPTIONS / CONTRACTS
-----------------------------------------------------------------------------------------------------------------------------------PEPPER JOHN S
HMSTD FILED |
MUNICIPAL
HOMESTEAD
NON-RESIDENTIAL
|LAND
274,900
95 ELM STREET
|BUILDING
1385,500
|TOTAL REAL
1660,400
1660,400
NORWICH VT 05055
|SPEC EXEMPTION
0
TAX MAP:
20-308.000
|
PROP DESC: 40.3 ACRES & DWL INCL 4 ADDL LOTS (NV)
|
911 ADDR: 95 ELM ST
|CURRENT USE
70,000
70,000
PARCEL ID: 20-308.000 SPAN: 450-142-11956
|
HOUSESITE:
1548,400
ACRES:
40.30 R2 T
|GRAND LIST
15,904.00
15,904.00
-----------------------------------------------------------------------------------------------------------------------------------PEPPERMAN CARL
|
MUNICIPAL
HOMESTEAD
NON-RESIDENTIAL
|LAND
117,700
PO BOX 251
|BUILDING
0
|TOTAL REAL
117,700
117,700
CHELSEA VT 05038
|SPEC EXEMPTION
0
TAX MAP:
11-167.000
|
PROP DESC: 2.39 ACRES
|
911 ADDR: 111 HAWK PINE RD
|
PARCEL ID: 11-167.000 SPAN: 450-142-12531
|
HOUSESITE:
0
ACRES:
2.39 M
NS
|GRAND LIST
1,177.00
1,177.00
-----------------------------------------------------------------------------------------------------------------------------------PEREZ KIMBERLY M
|
MUNICIPAL
HOMESTEAD
NON-RESIDENTIAL
|LAND
106,100
PO BOX 1330
|BUILDING
194,200
|TOTAL REAL
300,300
300,300
NORWICH VT 05055
|SPEC EXEMPTION
0
TAX MAP:
20-210.000
|
PROP DESC: .27 ACRE & DWL
|
911 ADDR: 16 FIREHOUSE LN
|
PARCEL ID: 20-210.000 SPAN: 450-142-12416
|
HOUSESITE:
300,300
ACRES:
0.27 R1 T
|GRAND LIST
3,003.00
3,003.00
-----------------------------------------------------------------------------------------------------------------------------------PERKINS ROBERT F
HMSTD FILED |
MUNICIPAL
HOMESTEAD
NON-RESIDENTIAL
|LAND
77,400
668 GOODRICH FOUR CORNERS RD
|BUILDING
13,700
|TOTAL REAL
91,100
83,100
8,000
NORWICH VT 05055
|SPEC EXEMPTION
0
0
TAX MAP:
11-069.000
|
PROP DESC: .47 ACRE & MOBILE HOME
|
911 ADDR: 668 GOODRICH FOUR CORNERS RD
|
PARCEL ID: 11-069.000 SPAN: 450-142-12011
|
HOUSESITE:
83,100
ACRES:
0.47 R1 T
|GRAND LIST
911.00
831.00
80.00
-----------------------------------------------------------------------------------------------------------------------------------PERKINS ROBERT F
|
MUNICIPAL
HOMESTEAD
NON-RESIDENTIAL
|LAND
100,300
668 GOODRICH FOUR CORNERS RD
|BUILDING
3,200
|TOTAL REAL
103,500
103,500
NORWICH VT 05055
|SPEC EXEMPTION
0
TAX MAP:
11-122.000
|
PROP DESC: 2.3 ACRES & BLDGS; UNLANDED MH ON SITE
|
911 ADDR: 649 GOODRICH FOUR CORNERS RD
|
PARCEL ID: 11-122.000 SPAN: 450-142-12010
|
HOUSESITE:
0
ACRES:
2.30 M
T
|GRAND LIST
1,035.00
1,035.00
------------------------------------------------------------------------------------------------------------------------------------
06/12/2015
01:32 pm
Town of Norwich Grand List
Grand List Report (Detail)
By Name For All Parcels In All Districts
Page 221
jbynum
PARCEL INFORMATION
TAXABLE VALUATIONS / EXEMPTIONS / CONTRACTS
-----------------------------------------------------------------------------------------------------------------------------------PERRAS JOSEPH L
HMSTD FILED |
MUNICIPAL
HOMESTEAD
NON-RESIDENTIAL
PERRAS LAURA A
|LAND
138,500
98 MYSTIC DRIVE
|BUILDING
251,600
|TOTAL REAL
390,100
390,100
NORWICH VT 05055
|SPEC EXEMPTION
0
TAX MAP:
04-002.100
|
PROP DESC: 4 ACRES & DWL
|
911 ADDR: 1037 TURNPIKE RD
|
PARCEL ID: 04-002.100 SPAN: 450-142-12952
|
HOUSESITE:
381,100
ACRES:
4.00 R1 T
|GRAND LIST
3,901.00
3,901.00
-----------------------------------------------------------------------------------------------------------------------------------PERRY ELIZABETH S
|
MUNICIPAL
HOMESTEAD
NON-RESIDENTIAL
REED JEFFREY
|LAND
142,800
5 HAPPY HILL RD
|BUILDING
412,900
|TOTAL REAL
555,700
555,700
NORWICH VT 05055-9587
|SPEC EXEMPTION
0
TAX MAP:
15-010.100
|
PROP DESC: 5.32 ACRES & DWL
|
911 ADDR: 5 HAPPY HILL RD
|
PARCEL ID: 15-010.100 SPAN: 450-142-12014
|
HOUSESITE:
541,100
ACRES:
5.32 R1 T
|GRAND LIST
5,557.00
5,557.00
-----------------------------------------------------------------------------------------------------------------------------------PETERSON KATHLEEN E.
HMSTD FILED |
MUNICIPAL
HOMESTEAD
NON-RESIDENTIAL
TARASKA SHEILA A.
|LAND
104,800
PO BOX 608
|BUILDING
277,900
|TOTAL REAL
382,700
382,700
NORWICH VT 05055-0608
|SPEC EXEMPTION
0
TAX MAP:
12-012.000
|
PROP DESC: 4 ACRES & DWL
|
911 ADDR: 144 HEMLOCK RD
|
PARCEL ID: 12-012.000 SPAN: 450-142-13135
|
HOUSESITE:
373,300
ACRES:
4.10 R1 T
|GRAND LIST
3,827.00
3,827.00
-----------------------------------------------------------------------------------------------------------------------------------PETTES MARK B
|
MUNICIPAL
HOMESTEAD
NON-RESIDENTIAL
PETTES KERRY M
|LAND
160,900
661 ROUTE 81
|BUILDING
0
|TOTAL REAL
160,900
160,900
KILLINGWORTH CT 06419
|SPEC EXEMPTION
0
TAX MAP:
03-036.000
|
PROP DESC: 41.95 ACRES
|
911 ADDR: CHAPEL HILL RD
|CURRENT USE
69,600
69,600
PARCEL ID: 03-036.000 SPAN: 450-142-11811
|
HOUSESITE:
0
ACRES:
41.95 M
NS
|GRAND LIST
913.00
913.00
-----------------------------------------------------------------------------------------------------------------------------------PEYTON ELIZABETH A
HMSTD FILED |
MUNICIPAL
HOMESTEAD
NON-RESIDENTIAL
|LAND
134,600
394 MAIN ST
|BUILDING
393,900
|TOTAL REAL
528,500
528,500
NORWICH VT 05055
|SPEC EXEMPTION
0
TAX MAP:
20-201.000
|
PROP DESC: .34 ACRE & DWL
|
911 ADDR: 394 MAIN ST
|
PARCEL ID: 20-201.000 SPAN: 450-142-12431
|
HOUSESITE:
528,500
ACRES:
0.34 R1 T
|GRAND LIST
5,285.00
5,285.00
------------------------------------------------------------------------------------------------------------------------------------
06/12/2015
01:32 pm
Town of Norwich Grand List
Grand List Report (Detail)
By Name For All Parcels In All Districts
Page 222
jbynum
PARCEL INFORMATION
TAXABLE VALUATIONS / EXEMPTIONS / CONTRACTS
-----------------------------------------------------------------------------------------------------------------------------------PHILIPS NANCY M
HMSTD FILED |
MUNICIPAL
HOMESTEAD
NON-RESIDENTIAL
BROOKS BLAIR W
|LAND
225,400
PO BOX 334
|BUILDING
376,600
|TOTAL REAL
602,000
602,000
NORWICH VT 05055-0334
|SPEC EXEMPTION
0
TAX MAP:
04-032.410
|
PROP DESC: 37.4 ACRES & DWL
|
911 ADDR: 1184 TURNPIKE RD
|CURRENT USE
77,900
77,900
PARCEL ID: 04-032.410 SPAN: 450-142-12961
|
HOUSESITE:
518,700
ACRES:
37.40 R2 T
|GRAND LIST
5,241.00
5,241.00
-----------------------------------------------------------------------------------------------------------------------------------PHILLIPS BETH E
HMSTD FILED |
MUNICIPAL
HOMESTEAD
NON-RESIDENTIAL
WHITEHAIR JAY C
|LAND
126,000
1173 NEW BOSTON RD
|BUILDING
327,600
|TOTAL REAL
453,600
453,600
NORWICH VT 05055
|SPEC EXEMPTION
0
TAX MAP:
05-008.200
|
PROP DESC: 13.1 ACRES & DWL
|
911 ADDR: 1173 NEW BOSTON RD
|
PARCEL ID: 05-008.200 SPAN: 450-142-12354
|
HOUSESITE:
416,000
ACRES:
13.10 R2 T
|GRAND LIST
4,536.00
4,536.00
-----------------------------------------------------------------------------------------------------------------------------------PHILLIPS JOSEPH M
HMSTD FILED |
MUNICIPAL
HOMESTEAD
NON-RESIDENTIAL
PHILLIPS JUDY
|LAND
238,800
PO BOX 872
|BUILDING
530,800
|TOTAL REAL
769,600
769,600
NORWICH VT 05055-0872
|SPEC EXEMPTION
0
TAX MAP:
11-052.100
|
PROP DESC: 51 ACRES & DWL
|
911 ADDR: 929 UNION VILLAGE RD
|CURRENT USE
133,500
133,500
PARCEL ID: 11-052.100 SPAN: 450-142-13041
|
HOUSESITE:
628,700
ACRES:
51.00 R2 T
|GRAND LIST
6,361.00
6,361.00
-----------------------------------------------------------------------------------------------------------------------------------PHIPPS JOHN S
HMSTD FILED |
MUNICIPAL
HOMESTEAD
NON-RESIDENTIAL
PHIPPS JANE M
|LAND
96,100
PO BOX 424
|BUILDING
240,300
|TOTAL REAL
336,400
336,400
NORWICH VT 05055-0424
|SPEC EXEMPTION
0
TAX MAP:
20-096.000
|
PROP DESC: 0.34 ACRE & DWL
|
911 ADDR: 50 HUNTLEY ST
|
PARCEL ID: 20-096.000 SPAN: 450-142-12090
|
HOUSESITE:
336,400
ACRES:
0.34 R1 T
|GRAND LIST
3,364.00
3,364.00
-----------------------------------------------------------------------------------------------------------------------------------PICCONI ERIC
HMSTD FILED |
MUNICIPAL
HOMESTEAD
NON-RESIDENTIAL
EAKIN JESSICA
|LAND
115,300
55 TURNPIKE RD
|BUILDING
229,200
|TOTAL REAL
344,500
344,500
NORWICH VT 05055
|SPEC EXEMPTION
0
TAX MAP:
20-145.000
|
PROP DESC: .34 ACRE & DWL
|
911 ADDR: 55 TURNPIKE RD
|
PARCEL ID: 20-145.000 SPAN: 450-142-12894
|
HOUSESITE:
344,500
ACRES:
0.34 R1 T
|GRAND LIST
3,445.00
3,445.00
------------------------------------------------------------------------------------------------------------------------------------
06/12/2015
01:32 pm
Town of Norwich Grand List
Grand List Report (Detail)
By Name For All Parcels In All Districts
Page 223
jbynum
PARCEL INFORMATION
TAXABLE VALUATIONS / EXEMPTIONS / CONTRACTS
-----------------------------------------------------------------------------------------------------------------------------------PICKEN EDITH D
|
MUNICIPAL
HOMESTEAD
NON-RESIDENTIAL
|LAND
166,000
2018 ROCKWELL AV
|BUILDING
328,800
|TOTAL REAL
494,800
494,800
CATONSVILLE MD 21228
|SPEC EXEMPTION
0
TAX MAP:
15-010.200
|
PROP DESC: 2.7 ACRES & DWL
|
911 ADDR: 435 BRAGG HILL RD
|
PARCEL ID: 15-010.200 SPAN: 450-142-12013
|
HOUSESITE:
491,700
ACRES:
2.70 R1 NS
|GRAND LIST
4,948.00
4,948.00
-----------------------------------------------------------------------------------------------------------------------------------PICKNELL PASTURES LLC
|
MUNICIPAL
HOMESTEAD
NON-RESIDENTIAL
|LAND
140,500
678 PICKNELL RD
|BUILDING
360,900
|TOTAL REAL
501,400
501,400
THETFORD CENTER VT 05075
|SPEC EXEMPTION
0
TAX MAP:
20-256.000
|
PROP DESC: .15 ACRE & OFFICE BLDG
|
911 ADDR: 11 BEAVER MEADOW RD
|
PARCEL ID: 20-256.000 SPAN: 450-142-12224
|
HOUSESITE:
0
ACRES:
0.15 C
C
|GRAND LIST
5,014.00
5,014.00
-----------------------------------------------------------------------------------------------------------------------------------PIDGEON STEPHEN J
HMSTD FILED |
MUNICIPAL
HOMESTEAD
NON-RESIDENTIAL
COHEN DANIELLE R
|LAND
159,600
66 WILLEY HILL RD
|BUILDING
246,300
|TOTAL REAL
405,900
405,900
NORWICH VT 05055
|SPEC EXEMPTION
0
TAX MAP:
16-003.000
|
PROP DESC: 10.8 ACRES & DWL
|
911 ADDR: 66 WILLEY HILL RD
|
PARCEL ID: 16-003.000 SPAN: 450-142-13154
|
HOUSESITE:
374,800
ACRES:
10.80 R2 T
|GRAND LIST
4,059.00
4,059.00
-----------------------------------------------------------------------------------------------------------------------------------PIERCE EVAN
HMSTD FILED |
MUNICIPAL
HOMESTEAD
NON-RESIDENTIAL
DWYER KARIN
|LAND
156,500
1012 TURNPIKE RD
|BUILDING
859,500
|TOTAL REAL
1016,000
1016,000
NORWICH VT 05055
|SPEC EXEMPTION
0
TAX MAP:
04-035.000
|
PROP DESC: 10.1 ACRES & DWL
|
911 ADDR: 1012 TURNPIKE RD
|
PARCEL ID: 04-035.000 SPAN: 450-142-12951
|
HOUSESITE:
986,900
ACRES:
10.10 R2 T
|GRAND LIST
10,160.00
10,160.00
-----------------------------------------------------------------------------------------------------------------------------------PIERCE WILLIAM
HMSTD FILED |
MUNICIPAL
HOMESTEAD
NON-RESIDENTIAL
PIERCE ELIZABETH
|LAND
164,600
192 WILLEY HILL RD
|BUILDING
951,500
|TOTAL REAL
1116,100
1116,100
NORWICH VT 05055
|SPEC EXEMPTION
0
TAX MAP:
11-194.100
|
PROP DESC: 13.04 ACRES & DWL
|
911 ADDR: 192 WILLEY HILL RD
|
PARCEL ID: 11-194.100 SPAN: 450-142-13162
|
HOUSESITE:
1078,700
ACRES:
13.04 R2 T
|GRAND LIST
11,161.00
11,161.00
------------------------------------------------------------------------------------------------------------------------------------
06/12/2015
01:32 pm
Town of Norwich Grand List
Grand List Report (Detail)
By Name For All Parcels In All Districts
Page 224
jbynum
PARCEL INFORMATION
TAXABLE VALUATIONS / EXEMPTIONS / CONTRACTS
-----------------------------------------------------------------------------------------------------------------------------------PIFFATH CRYSTAL L
|
MUNICIPAL
HOMESTEAD
NON-RESIDENTIAL
YEHLE JASON S
|LAND
128,400
56 HAZEN STREET
|BUILDING
42,100
|TOTAL REAL
170,500
170,500
NORWICH VT 05055
|SPEC EXEMPTION
0
TAX MAP:
06-055.000
|
PROP DESC: 8.93 ACRES & DWL
|
911 ADDR: 227 WATERMAN HILL RD
|
PARCEL ID: 06-055.000 SPAN: 450-142-13143
|
HOUSESITE:
144,800
ACRES:
8.93 R2 T
|GRAND LIST
1,705.00
1,705.00
-----------------------------------------------------------------------------------------------------------------------------------PINELLO CHRISTINE
HMSTD FILED |
MUNICIPAL
HOMESTEAD
NON-RESIDENTIAL
|LAND
210,800
PO BOX 309
|BUILDING
803,100
|TOTAL REAL
1013,900
360,700
653,200
NORWICH VT 05055-0309
|SPEC EXEMPTION
0
0
TAX MAP:
11-097.000
|
PROP DESC: 9.16 ACRES & 2 DWLS & VET CLI & 2ND LOT
|
911 ADDR: 419 US ROUTE 5 NORTH
|
PARCEL ID: 11-097.000 SPAN: 450-142-12671
|
HOUSESITE:
244,200
ACRES:
9.16 R2 T
|GRAND LIST
10,139.00
3,607.00
6,532.00
-----------------------------------------------------------------------------------------------------------------------------------PINGREE EBEN H
|
MUNICIPAL
HOMESTEAD
NON-RESIDENTIAL
PINGREE RICHARD G
|LAND
119,600
72 WEST CEDAR STREET
|BUILDING
159,400
|TOTAL REAL
279,000
279,000
BOSTON MA 02114-3310
|SPEC EXEMPTION
0
TAX MAP:
10-192.000
|
PROP DESC: 1.2 ACRES & DWL
|
911 ADDR: 288 TURNPIKE RD
|
PARCEL ID: 10-192.000 SPAN: 450-142-12913
|
HOUSESITE:
279,000
ACRES:
1.20 R1 NS
|GRAND LIST
2,790.00
2,790.00
-----------------------------------------------------------------------------------------------------------------------------------PIPER PAMELA & EDMUND LIV TRUST
HMSTD FILED |
MUNICIPAL
HOMESTEAD
NON-RESIDENTIAL
|LAND
176,900
113 PATTRELL RD
|BUILDING
264,700
|TOTAL REAL
441,600
433,100
8,500
NORWICH VT 05055
|SPEC EXEMPTION
0
0
TAX MAP:
05-105.000
|
PROP DESC: 28 ACRES & DWL & CAMP
|
911 ADDR: 113 PATTRELL RD
|
PARCEL ID: 05-105.000 SPAN: 450-142-12499
|
HOUSESITE:
370,300
ACRES:
28.00 R2 T
|GRAND LIST
4,416.00
4,331.00
85.00
-----------------------------------------------------------------------------------------------------------------------------------PIRO ROBERT A
HMSTD FILED |
MUNICIPAL
HOMESTEAD
NON-RESIDENTIAL
PIRO MARY S
|LAND
375,500
96 HOGBACK RD
|BUILDING
1007,500
|TOTAL REAL
1383,000
703,500
679,500
NORWICH VT 05055
|SPEC EXEMPTION
0
0
TAX MAP:
06-043.100
|
PROP DESC: 110.7 ACRES & 2 DWLS & 1 ADDL LOT
|
911 ADDR: 96 HOGBACK RD
|CURRENT USE
339,800
236,900
102,900
PARCEL ID: 06-043.100 SPAN: 450-142-12041
|
HOUSESITE:
430,800
ACRES:
110.70 R2 T
|GRAND LIST
10,432.00
4,666.00
5,766.00
------------------------------------------------------------------------------------------------------------------------------------
06/12/2015
01:32 pm
Town of Norwich Grand List
Grand List Report (Detail)
By Name For All Parcels In All Districts
Page 225
jbynum
PARCEL INFORMATION
TAXABLE VALUATIONS / EXEMPTIONS / CONTRACTS
-----------------------------------------------------------------------------------------------------------------------------------PITIGER DANIEL J
HMSTD FILED |
MUNICIPAL
HOMESTEAD
NON-RESIDENTIAL
PITIGER HEATHER A
|LAND
114,400
1769 US ROUTE 5 N
|BUILDING
274,100
|TOTAL REAL
388,500
361,150
27,350
NORWICH VT 05055
|SPEC EXEMPTION
0
0
TAX MAP:
06-064.000
|
PROP DESC: 1.1 ACRES & DWL/APT
|
911 ADDR: 1769 US ROUTE 5 NORTH
|
PARCEL ID: 06-064.000 SPAN: 450-142-12727
|
HOUSESITE:
361,150
ACRES:
1.10 R1 T
|GRAND LIST
3,885.00
3,611.50
273.50
-----------------------------------------------------------------------------------------------------------------------------------PITIGER ROBERT E
HMSTD FILED |
MUNICIPAL
HOMESTEAD
NON-RESIDENTIAL
PITIGER SUSAN O
|LAND
132,100
PO BOX 358
|BUILDING
514,800
|TOTAL REAL
646,900
646,900
NORWICH VT 05055
|SPEC EXEMPTION
0
TAX MAP:
20-204.000
|
PROP DESC: .3 ACRE & DWL
|
911 ADDR: 1 HAZEN ST
|
PARCEL ID: 20-204.000 SPAN: 450-142-12426
|
HOUSESITE:
646,900
ACRES:
0.30 R1 T
|GRAND LIST
6,469.00
6,469.00
-----------------------------------------------------------------------------------------------------------------------------------PLUMMER RICHARD G
|
MUNICIPAL
HOMESTEAD
NON-RESIDENTIAL
LEFEBVRE SUZANNE M
|LAND
210,100
12 ENDICOTT ROAD
|BUILDING
0
|TOTAL REAL
210,100
210,100
ARLINGTON MA 02476
|SPEC EXEMPTION
0
TAX MAP:
04-064.000
|
PROP DESC: 48 ACRES
|
911 ADDR: NEW BOSTON RD
|
PARCEL ID: 04-064.000 SPAN: 450-142-12378
|
HOUSESITE:
0
ACRES:
48.00 M
NS
|GRAND LIST
2,101.00
2,101.00
-----------------------------------------------------------------------------------------------------------------------------------POISSON EVERETT J
|
MUNICIPAL
HOMESTEAD
NON-RESIDENTIAL
POISSON MICHELLE O
|LAND
0
20 RESERVOIR ROAD
|BUILDING
219,200
|TOTAL REAL
219,200
219,200
HANOVER NH 03755
|SPEC EXEMPTION
0
TAX MAP:
15-055.001
|
PROP DESC: 55 NORWICH MEADOWS UNIT 1
|
911 ADDR: 55 NORWICH MEADOWS 1
|
PARCEL ID: 15-055.001 SPAN: 450-142-11737
|
HOUSESITE:
219,200
ACRES:
0.00 O
NS
|GRAND LIST
2,192.00
2,192.00
-----------------------------------------------------------------------------------------------------------------------------------POLIDOR BARRY
HMSTD FILED |
MUNICIPAL
HOMESTEAD
NON-RESIDENTIAL
POLIDOR NANCY
|LAND
158,400
75 UPPER PASTURE
|BUILDING
485,400
|TOTAL REAL
643,800
643,800
NORWICH VT 05055
|SPEC EXEMPTION
0
TAX MAP:
11-145.000
|
PROP DESC: 10.8 ACRES & DWL
|
911 ADDR: 75 UPPER PASTURE RD
|
PARCEL ID: 11-145.000 SPAN: 450-142-13097
|
HOUSESITE:
612,700
ACRES:
10.80 R2 T
|GRAND LIST
6,438.00
6,438.00
------------------------------------------------------------------------------------------------------------------------------------
06/12/2015
01:32 pm
Town of Norwich Grand List
Grand List Report (Detail)
By Name For All Parcels In All Districts
Page 226
jbynum
PARCEL INFORMATION
TAXABLE VALUATIONS / EXEMPTIONS / CONTRACTS
-----------------------------------------------------------------------------------------------------------------------------------POMERLEAU LEONARD J
|
MUNICIPAL
HOMESTEAD
NON-RESIDENTIAL
POMERLEAU ARMAND J
|LAND
101,700
82 LAKESHORE DR
|BUILDING
3,800
|TOTAL REAL
105,500
105,500
LEBANON CT 06249
|SPEC EXEMPTION
0
TAX MAP:
03-051.000
|
PROP DESC: 11.17 ACRES & 3 CAMPS
|
911 ADDR: 272 CHAPEL HILL RD
|
PARCEL ID: 03-051.000 SPAN: 450-142-11805
|
HOUSESITE:
76,600
ACRES:
11.17 S2 NS
|GRAND LIST
1,055.00
1,055.00
-----------------------------------------------------------------------------------------------------------------------------------POMPY FARM CRUSHED STONE INC
|
MUNICIPAL
HOMESTEAD
NON-RESIDENTIAL
|LAND
0
RR #1
|BUILDING
15,000
|TOTAL REAL
15,000
15,000
EAST THETFORD VT 05043
|SPEC EXEMPTION
0
TAX MAP:
12-006.100
|
PROP DESC: SCALE BUILDING - NO LAND
|
911 ADDR: 1111 US ROUTE 5 NORTH
|
PARCEL ID: 12-006.100 SPAN: 450-142-12704
|
HOUSESITE:
0
ACRES:
0.00 C
C
|GRAND LIST
150.00
150.00
-----------------------------------------------------------------------------------------------------------------------------------POND JUDITH
|
MUNICIPAL
HOMESTEAD
NON-RESIDENTIAL
|LAND
136,400
559 NEW BOSTON RD
|BUILDING
151,400
|TOTAL REAL
287,800
287,800
NORWICH VT 05055
|SPEC EXEMPTION
0
TAX MAP:
10-162.000
|
PROP DESC: 17 ACRES
|
911 ADDR: 559 NEW BOSTON RD
|
PARCEL ID: 10-162.000 SPAN: 450-142-12296
|
HOUSESITE:
249,000
ACRES:
17.00 R2 T
|GRAND LIST
2,878.00
2,878.00
-----------------------------------------------------------------------------------------------------------------------------------PORTER ELIZABETH & ROBERT TRS
|
MUNICIPAL
HOMESTEAD
NON-RESIDENTIAL
C/O CODY & HOAR
|LAND
361,100
PO BOX 269
|BUILDING
2237,300
|TOTAL REAL
2598,400
2598,400
HANOVER NH 03755
|SPEC EXEMPTION
0
TAX MAP:
11-001.000
|
PROP DESC: 73.56 ACRES & DWL
|
911 ADDR: 101 OLD COACH RD
|CURRENT USE
182,600
182,600
PARCEL ID: 11-001.000 SPAN: 450-142-12486
|
HOUSESITE:
2396,400
ACRES:
73.56 R2 NS
|GRAND LIST
24,158.00
24,158.00
-----------------------------------------------------------------------------------------------------------------------------------PORTER THOMAS
HMSTD FILED |
MUNICIPAL
HOMESTEAD
NON-RESIDENTIAL
PORTER MISTY
|LAND
165,000
128 MYSTIC DR
|BUILDING
693,500
|TOTAL REAL
858,500
858,500
NORWICH VT 05055
|SPEC EXEMPTION
0
TAX MAP:
11-152.400
|
PROP DESC: 3.64 ACRES & DWL
|
911 ADDR: 128 MYSTIC DR
|
PARCEL ID: 11-152.400 SPAN: 450-142-11993
|
HOUSESITE:
851,100
ACRES:
3.64 R1 T
|GRAND LIST
8,585.00
8,585.00
------------------------------------------------------------------------------------------------------------------------------------
06/12/2015
01:32 pm
Town of Norwich Grand List
Grand List Report (Detail)
By Name For All Parcels In All Districts
Page 227
jbynum
PARCEL INFORMATION
TAXABLE VALUATIONS / EXEMPTIONS / CONTRACTS
-----------------------------------------------------------------------------------------------------------------------------------PORTER TIMOTHY & LYNN
|
MUNICIPAL
HOMESTEAD
NON-RESIDENTIAL
PORTER THOMAS & MISTY
|LAND
72,200
643 QUECHEE MAIN ST
|BUILDING
106,600
|TOTAL REAL
178,800
178,800
QUECHEE VT 05059
|SPEC EXEMPTION
0
TAX MAP:
16-107.000
|
PROP DESC: .43 ACRE & DWL
|
911 ADDR: 22 US ROUTE 5 NORTH
|
PARCEL ID: 16-107.000 SPAN: 450-142-12660
|
HOUSESITE:
178,800
ACRES:
0.43 R1 S
|GRAND LIST
1,788.00
1,788.00
-----------------------------------------------------------------------------------------------------------------------------------PORTER TIMOTHY & LYNN
|
MUNICIPAL
HOMESTEAD
NON-RESIDENTIAL
PORTER THOMAS & MISTY
|LAND
79,500
PO BOX 1166
|BUILDING
447,500
|TOTAL REAL
527,000
527,000
QUECHEE VT 05059-1166
|SPEC EXEMPTION
0
TAX MAP:
16-108.000
|
PROP DESC: .66 ACRE & 3 APT DWL & SHOP
|
911 ADDR: 28 US ROUTE 5 NORTH
|
PARCEL ID: 16-108.000 SPAN: 450-142-12661
|
HOUSESITE:
313,900
ACRES:
0.66 R1 S
|GRAND LIST
5,270.00
5,270.00
-----------------------------------------------------------------------------------------------------------------------------------PORTER TIMOTHY & LYNN
|
MUNICIPAL
HOMESTEAD
NON-RESIDENTIAL
PORTER THOMAS & MISTY
|LAND
147,600
PO BOX 1166
|BUILDING
191,900
|TOTAL REAL
339,500
339,500
QUECHEE VT 05059-1166
|SPEC EXEMPTION
0
TAX MAP:
16-109.000
|
PROP DESC: .22 ACRE & 3 APT DWL
|
911 ADDR: 48 US ROUTE 5 NORTH
|
PARCEL ID: 16-109.000 SPAN: 450-142-12662
|
HOUSESITE:
339,500
ACRES:
0.22 R1 S
|GRAND LIST
3,395.00
3,395.00
-----------------------------------------------------------------------------------------------------------------------------------POTTER ALEXANDER G
|
MUNICIPAL
HOMESTEAD
NON-RESIDENTIAL
POTTER LESLIE M
|LAND
111,900
73 DOC HARDY LN
|BUILDING
394,900
|TOTAL REAL
506,800
506,800
NORWICH VT 05055
|SPEC EXEMPTION
0
TAX MAP:
05-002.300
|
PROP DESC: 5.95 ACRES DWL
|
911 ADDR: 73 DOC HARDY LN
|
PARCEL ID: 05-002.300 SPAN: 450-142-12319
|
HOUSESITE:
491,800
ACRES:
5.95 R1 T
|GRAND LIST
5,068.00
5,068.00
-----------------------------------------------------------------------------------------------------------------------------------POULTER WILLIAM DOUGLAS
|
MUNICIPAL
HOMESTEAD
NON-RESIDENTIAL
CHEN JI
|LAND
146,500
136 STOWELL RD
|BUILDING
290,300
|TOTAL REAL
436,800
436,800
NORWICH VT 05055
|SPEC EXEMPTION
0
TAX MAP:
05-034.300
|
PROP DESC: 10.05 ACRES & DWL INCL 1 ADDL LOT
|
911 ADDR: 136 STOWELL RD
|
PARCEL ID: 05-034.300 SPAN: 450-142-12396
|
HOUSESITE:
356,000
ACRES:
10.05 R2 T
|GRAND LIST
4,368.00
4,368.00
------------------------------------------------------------------------------------------------------------------------------------
06/12/2015
01:32 pm
Town of Norwich Grand List
Grand List Report (Detail)
By Name For All Parcels In All Districts
Page 228
jbynum
PARCEL INFORMATION
TAXABLE VALUATIONS / EXEMPTIONS / CONTRACTS
-----------------------------------------------------------------------------------------------------------------------------------POWERS JUDE
HMSTD FILED |
MUNICIPAL
HOMESTEAD
NON-RESIDENTIAL
|LAND
236,300
974 BEAVER MEADOW RD
|BUILDING
347,500
|TOTAL REAL
583,800
481,600
102,200
NORWICH VT 05055
|SPEC EXEMPTION
0
0
TAX MAP:
10-030.100
|
PROP DESC: 49 ACRES & DWL/APT & MOBILE HOME
|
911 ADDR: 974 BEAVER MEADOW RD
|
PARCEL ID: 10-030.100 SPAN: 450-142-11596
|
HOUSESITE:
373,200
ACRES:
49.00 R2 T
|GRAND LIST
5,838.00
4,816.00
1,022.00
-----------------------------------------------------------------------------------------------------------------------------------PRANCKUS DAVID A
|
MUNICIPAL
HOMESTEAD
NON-RESIDENTIAL
|LAND
121,600
354 HIGH ST
|BUILDING
6,200
|TOTAL REAL
127,800
127,800
COVENTRY CT 06238
|SPEC EXEMPTION
0
TAX MAP:
05-128.000
|
PROP DESC: 6.23 ACRES & CAMP
|
911 ADDR: 1090 NEW BOSTON RD
|
PARCEL ID: 05-128.000 SPAN: 450-142-12350
|
HOUSESITE:
110,300
ACRES:
6.23 S2 NS
|GRAND LIST
1,278.00
1,278.00
-----------------------------------------------------------------------------------------------------------------------------------PRATT BLANCHARD
HMSTD FILED |
MUNICIPAL
HOMESTEAD
NON-RESIDENTIAL
|LAND
154,000
766 NEW BOSTON RD
|BUILDING
88,800
|TOTAL REAL
242,800
242,800
NORWICH VT 05055
|SPEC EXEMPTION
0
TAX MAP:
05-151.000
|
PROP DESC: 23 ACRES & DWL
|
911 ADDR: 766 NEW BOSTON RD
|
PARCEL ID: 05-151.000 SPAN: 450-142-12313
|
HOUSESITE:
190,900
ACRES:
23.00 R2 T
|GRAND LIST
2,428.00
2,428.00
-----------------------------------------------------------------------------------------------------------------------------------PREDMORE JAMES
HMSTD FILED |
MUNICIPAL
HOMESTEAD
NON-RESIDENTIAL
PREDMORE LORRAINE
|LAND
104,500
839 NEW BOSTON RD
|BUILDING
311,700
|TOTAL REAL
416,200
416,200
NORWICH VT 05055
|SPEC EXEMPTION
0
TAX MAP:
05-001.000
|
PROP DESC: 2 ACRES & DWL
|
911 ADDR: 839 NEW BOSTON RD
|
PARCEL ID: 05-001.000 SPAN: 450-142-12318
|
HOUSESITE:
416,200
ACRES:
2.00 R1 T
|GRAND LIST
4,162.00
4,162.00
-----------------------------------------------------------------------------------------------------------------------------------PRENDERGAST PENELOPE
HMSTD FILED |
MUNICIPAL
HOMESTEAD
NON-RESIDENTIAL
|LAND
81,700
PO BOX 578
|BUILDING
166,100
|TOTAL REAL
247,800
247,800
NORWICH VT 05055-0578
|SPEC EXEMPTION
0
TAX MAP:
11-050.200
|
PROP DESC: .6 ACRE & DWL
|
911 ADDR: 867 UNION VILLAGE RD
|
PARCEL ID: 11-050.200 SPAN: 450-142-13036
|
HOUSESITE:
247,800
ACRES:
0.60 R1 T
|GRAND LIST
2,478.00
2,478.00
------------------------------------------------------------------------------------------------------------------------------------
06/12/2015
01:32 pm
Town of Norwich Grand List
Grand List Report (Detail)
By Name For All Parcels In All Districts
Page 229
jbynum
PARCEL INFORMATION
TAXABLE VALUATIONS / EXEMPTIONS / CONTRACTS
-----------------------------------------------------------------------------------------------------------------------------------PRINCE GREGORY S
HMSTD FILED |
MUNICIPAL
HOMESTEAD
NON-RESIDENTIAL
PRINCE TONI B
|LAND
162,700
24 ACADEMY RD
|BUILDING
564,400
|TOTAL REAL
727,100
511,830
215,270
NORWICH VT 05055
|SPEC EXEMPTION
0
0
TAX MAP:
05-063.000
|
PROP DESC: 13.7 ACRES & DWL
|
911 ADDR: 24 ACADEMY RD
|
PARCEL ID: 05-063.000 SPAN: 450-142-13072
|
HOUSESITE:
472,530
ACRES:
13.70 R2 T
|GRAND LIST
7,271.00
5,118.30
2,152.70
-----------------------------------------------------------------------------------------------------------------------------------RACUSIN ROBERT J
HMSTD FILED |
MUNICIPAL
HOMESTEAD
NON-RESIDENTIAL
RACUSIN SHARON D.
|LAND
126,800
76 MCKENNA RD
|BUILDING
269,700
|TOTAL REAL
396,500
396,500
NORWICH VT 05055
|SPEC EXEMPTION
0
TAX MAP:
16-074.000
|
PROP DESC: 1.5 ACRES & DWL
|
911 ADDR: 76 MCKENNA RD
|
PARCEL ID: 16-074.000 SPAN: 450-142-12187
|
HOUSESITE:
396,500
ACRES:
1.50 R1 T
|GRAND LIST
3,965.00
3,965.00
-----------------------------------------------------------------------------------------------------------------------------------RAE JANET P
|
MUNICIPAL
HOMESTEAD
NON-RESIDENTIAL
PIERCE LINDA ANN
|LAND
113,700
618 NEW BOSTON RD
|BUILDING
108,600
|TOTAL REAL
222,300
222,300
NORWICH VT 05055
|SPEC EXEMPTION
0
TAX MAP:
10-167.000
|
PROP DESC: 6.8 ACRES & DWL
|
911 ADDR: 618 NEW BOSTON RD
|
PARCEL ID: 10-167.000 SPAN: 450-142-12307
|
HOUSESITE:
206,800
ACRES:
6.80 R2 T
|GRAND LIST
2,223.00
2,223.00
-----------------------------------------------------------------------------------------------------------------------------------RAKHRA HARJIT S
HMSTD FILED |
MUNICIPAL
HOMESTEAD
NON-RESIDENTIAL
RAKHRA AMARJIT K
|LAND
232,700
8 OLD BRIDGE RD
|BUILDING
522,100
|TOTAL REAL
754,800
560,500
194,300
NORWICH VT 05055
|SPEC EXEMPTION
0
0
TAX MAP:
12-015.000
|
PROP DESC: 3.72 ACRE & DWL& 3 APTS & 1 ADDL LOT
|
911 ADDR: 8 OLD BRIDGE RD
|
PARCEL ID: 12-015.000 SPAN: 450-142-12712
|
HOUSESITE:
456,600
ACRES:
3.72 R1 T
|GRAND LIST
7,548.00
5,605.00
1,943.00
-----------------------------------------------------------------------------------------------------------------------------------RAMANATHAN CHANDRASEKHAR
HMSTD FILED |
MUNICIPAL
HOMESTEAD
NON-RESIDENTIAL
BRIGGS PATRICIA
|LAND
110,100
176 BEAVER MEADOW ROAD
|BUILDING
223,400
|TOTAL REAL
333,500
333,500
NORWICH VT 05055
|SPEC EXEMPTION
0
TAX MAP:
20-110.000
|
PROP DESC: .24 ACRE & DWL
|
911 ADDR: 176 BEAVER MEADOW RD
|
PARCEL ID: 20-110.000 SPAN: 450-142-12210
|
HOUSESITE:
333,500
ACRES:
0.24 R1 T
|GRAND LIST
3,335.00
3,335.00
------------------------------------------------------------------------------------------------------------------------------------
06/12/2015
01:32 pm
Town of Norwich Grand List
Grand List Report (Detail)
By Name For All Parcels In All Districts
Page 230
jbynum
PARCEL INFORMATION
TAXABLE VALUATIONS / EXEMPTIONS / CONTRACTS
-----------------------------------------------------------------------------------------------------------------------------------RAMUS VIRGINIA L
HMSTD FILED |
MUNICIPAL
HOMESTEAD
NON-RESIDENTIAL
|LAND
99,100
752 TIGERTOWN RD
|BUILDING
281,800
|TOTAL REAL
380,900
380,900
WHITE RIVER JUNCTION VT 05001
|SPEC EXEMPTION
0
TAX MAP:
08-004.200
|
PROP DESC: 10.3 ACRES & DWL
|
911 ADDR: 752 TIGERTOWN RD
|
PARCEL ID: 08-004.200 SPAN: 450-142-12845
|
HOUSESITE:
351,200
ACRES:
10.30 R2 T
|GRAND LIST
3,809.00
3,809.00
-----------------------------------------------------------------------------------------------------------------------------------RANDALL THOMAS F
|
MUNICIPAL
HOMESTEAD
NON-RESIDENTIAL
RANDALL CINDIA W
|LAND
119,700
PO BOX 641
|BUILDING
161,000
|TOTAL REAL
280,700
280,700
NORWICH VT 05055-0641
|SPEC EXEMPTION
0
TAX MAP:
05-014.100
|
PROP DESC: 12.54 ACRES & DWL
|
911 ADDR: 1268 NEW BOSTON RD
|
PARCEL ID: 05-014.100 SPAN: 450-142-12362
|
HOUSESITE:
248,600
ACRES:
12.54 R2 T
|GRAND LIST
2,807.00
2,807.00
-----------------------------------------------------------------------------------------------------------------------------------RANDALL THOMAS F
|
MUNICIPAL
HOMESTEAD
NON-RESIDENTIAL
RANDALL CINDIA W
|LAND
164,300
PO BOX 641
|BUILDING
0
|TOTAL REAL
164,300
164,300
NORWICH VT 05055-0641
|SPEC EXEMPTION
0
TAX MAP:
05-014.110
|
PROP DESC: 30.9 ACRES
|
911 ADDR: NEW BOSTON RD
|CURRENT USE
160,300
160,300
PARCEL ID: 05-014.110 SPAN: 450-142-13378
|
HOUSESITE:
0
ACRES:
30.90 M
T
|GRAND LIST
40.00
40.00
-----------------------------------------------------------------------------------------------------------------------------------RANDALL THOMAS F
HMSTD FILED |
MUNICIPAL
HOMESTEAD
NON-RESIDENTIAL
RANDALL CINDIA W
|LAND
319,700
PO BOX 641
|BUILDING
245,100
|TOTAL REAL
564,800
564,800
NORWICH VT 05055-0641
|SPEC EXEMPTION
0
TAX MAP:
05-016.000
|
PROP DESC: 62 ACRES & DWL INCL 1 ADDL LOT
|
911 ADDR: 1228 NEW BOSTON RD
|CURRENT USE
207,800
207,800
PARCEL ID: 05-016.000 SPAN: 450-142-12360
|
HOUSESITE:
348,400
ACRES:
62.00 R2 T
|GRAND LIST
3,570.00
3,570.00
-----------------------------------------------------------------------------------------------------------------------------------RASSIAS JOHN A TRUSTEE
HMSTD FILED |
MUNICIPAL
HOMESTEAD
NON-RESIDENTIAL
RASSIAS MARY LIVING TRUST
|LAND
153,600
75 CLIFF ST
|BUILDING
299,200
|TOTAL REAL
452,800
452,800
NORWICH VT 05055
|SPEC EXEMPTION
0
TAX MAP:
16-032.000
|
PROP DESC: 1.8 ACRES & DWL
|
911 ADDR: 75 CLIFF ST
|
PARCEL ID: 16-032.000 SPAN: 450-142-11886
|
HOUSESITE:
452,800
ACRES:
1.80 R1 T
|GRAND LIST
4,528.00
4,528.00
------------------------------------------------------------------------------------------------------------------------------------
06/12/2015
01:32 pm
Town of Norwich Grand List
Grand List Report (Detail)
By Name For All Parcels In All Districts
Page 231
jbynum
PARCEL INFORMATION
TAXABLE VALUATIONS / EXEMPTIONS / CONTRACTS
-----------------------------------------------------------------------------------------------------------------------------------RATLIFF MARCUS
HMSTD FILED |
MUNICIPAL
HOMESTEAD
NON-RESIDENTIAL
|LAND
125,900
6 PARTRIDGE HILL
|BUILDING
501,800
|TOTAL REAL
627,700
627,700
NORWICH VT 05055
|SPEC EXEMPTION
0
TAX MAP:
10-204.000
|
PROP DESC: 1.2 ACRES & DWL
|
911 ADDR: 6 PARTRIDGE HILL
|
PARCEL ID: 10-204.000 SPAN: 450-142-12487
|
HOUSESITE:
627,700
ACRES:
1.20 R1 T
|GRAND LIST
6,277.00
6,277.00
-----------------------------------------------------------------------------------------------------------------------------------RATLIFF MARCUS
|
MUNICIPAL
HOMESTEAD
NON-RESIDENTIAL
|LAND
135,800
6 PARTRIDGE HILL
|BUILDING
453,300
|TOTAL REAL
589,100
589,100
NORWICH VT 05055
|SPEC EXEMPTION
0
TAX MAP:
20-129.000
|
PROP DESC: .36 ACRES & DWLG
|
911 ADDR: 363 MAIN ST
|
PARCEL ID: 20-129.000 SPAN: 450-142-12423
|
HOUSESITE:
589,100
ACRES:
0.36 R1 T
|GRAND LIST
5,891.00
5,891.00
-----------------------------------------------------------------------------------------------------------------------------------RAZ GIL
|
MUNICIPAL
HOMESTEAD
NON-RESIDENTIAL
HERTOG JUDITH
|LAND
95,000
201 HAWK PINE ROAD
|BUILDING
210,000
|TOTAL REAL
305,000
305,000
NORWICH VT 05055-9798
|SPEC EXEMPTION
0
TAX MAP:
11-117.000
|
PROP DESC: 1 ACRE & DWL
|
911 ADDR: 551 GOODRICH FOUR CORNERS RD
|
PARCEL ID: 11-117.000 SPAN: 450-142-12002
|
HOUSESITE:
305,000
ACRES:
1.00 R1 T
|GRAND LIST
3,050.00
3,050.00
-----------------------------------------------------------------------------------------------------------------------------------RAZ GIL
|
MUNICIPAL
HOMESTEAD
NON-RESIDENTIAL
HERTOG JUDITH
|LAND
125,900
201 HAWK PINE RD
|BUILDING
347,000
|TOTAL REAL
472,900
472,900
NORWICH VT 05055
|SPEC EXEMPTION
0
TAX MAP:
16-132.000
|
PROP DESC: 1.57 ACRES & DWL
|
911 ADDR: 201 HAWK PINE RD
|
PARCEL ID: 16-132.000 SPAN: 450-142-12544
|
HOUSESITE:
472,900
ACRES:
1.57 R1 T
|GRAND LIST
4,729.00
4,729.00
-----------------------------------------------------------------------------------------------------------------------------------REDPATH EDWARD L
HMSTD FILED |
MUNICIPAL
HOMESTEAD
NON-RESIDENTIAL
REDPATH MARGARET C
|LAND
164,000
PO BOX 202
|BUILDING
529,600
|TOTAL REAL
693,600
693,600
NORWICH VT 05055-0202
|SPEC EXEMPTION
0
TAX MAP:
|
PROP DESC: 5.88 ACRES & DWLG
|
911 ADDR: 26 GODDARD RD
|
PARCEL ID: 20-057.300 SPAN: 450-142-13399
|
HOUSESITE:
678,000
ACRES:
5.88 R1 T
|GRAND LIST
6,936.00
6,936.00
------------------------------------------------------------------------------------------------------------------------------------
06/12/2015
01:32 pm
Town of Norwich Grand List
Grand List Report (Detail)
By Name For All Parcels In All Districts
Page 232
jbynum
PARCEL INFORMATION
TAXABLE VALUATIONS / EXEMPTIONS / CONTRACTS
-----------------------------------------------------------------------------------------------------------------------------------REED BRITTA
|
MUNICIPAL
HOMESTEAD
NON-RESIDENTIAL
|LAND
144,100
527 STIRLING RIDGE ROAD
|BUILDING
11,200
|TOTAL REAL
155,300
155,300
GROVETOWN GA 30813
|SPEC EXEMPTION
0
TAX MAP:
|
PROP DESC: 10.1 ACRES & BARNS
|
911 ADDR: BRADLEY HILL RD
|
PARCEL ID: 11-039.100 SPAN: 450-142-13435
|
HOUSESITE:
0
ACRES:
10.10 M
NS
|GRAND LIST
1,553.00
1,553.00
-----------------------------------------------------------------------------------------------------------------------------------REED PATRICK
HMSTD FILED |
MUNICIPAL
HOMESTEAD
NON-RESIDENTIAL
|LAND
94,800
222 FARRELL FARM ROAD
|BUILDING
102,500
|TOTAL REAL
197,300
197,300
NORWICH VT 05055
|SPEC EXEMPTION
0
TAX MAP:
12-004.000
|
PROP DESC: 2 ACRES & DWL
|
911 ADDR: 222 FARRELL FARM RD
|
PARCEL ID: 12-004.000 SPAN: 450-142-12684
|
HOUSESITE:
197,300
ACRES:
2.00 R1 T
|GRAND LIST
1,973.00
1,973.00
-----------------------------------------------------------------------------------------------------------------------------------REEVES DAVID C.
HMSTD FILED |
MUNICIPAL
HOMESTEAD
NON-RESIDENTIAL
REEVES SARAH J.
|LAND
225,500
PO BOX 887
|BUILDING
384,000
|TOTAL REAL
609,500
609,500
NORWICH VT 05055-0887
|SPEC EXEMPTION
0
TAX MAP:
20-013.000
|
PROP DESC: 12 ACRES & DWL
|
911 ADDR: 328 ELM ST
|
PARCEL ID: 20-013.000 SPAN: 450-142-11969
|
HOUSESITE:
575,000
ACRES:
12.00 R2 T
|GRAND LIST
6,095.00
6,095.00
-----------------------------------------------------------------------------------------------------------------------------------REIBEL CHARLES B
HMSTD FILED |
MUNICIPAL
HOMESTEAD
NON-RESIDENTIAL
REIBEL NANCY S LEAVITT|LAND
134,900
789 TURNPIKE RD
|BUILDING
253,300
|TOTAL REAL
388,200
388,200
NORWICH VT 05055
|SPEC EXEMPTION
0
TAX MAP:
10-086.000
|
PROP DESC: 3.2 ACRES & DWL
|
911 ADDR: 789 TURNPIKE RD
|
PARCEL ID: 10-086.000 SPAN: 450-142-12943
|
HOUSESITE:
382,800
ACRES:
3.20 R1 T
|GRAND LIST
3,882.00
3,882.00
-----------------------------------------------------------------------------------------------------------------------------------REICHERT BRYANT B
HMSTD FILED |
MUNICIPAL
HOMESTEAD
NON-RESIDENTIAL
|LAND
92,800
80 BRAGG HILL ROAD
|BUILDING
67,300
|TOTAL REAL
160,100
160,100
NORWICH VT 05055
|SPEC EXEMPTION
0
TAX MAP:
20-061.000
|
PROP DESC: .82 ACRES & DWL
|
911 ADDR: 80 BRAGG HILL RD
|
PARCEL ID: 20-061.000 SPAN: 450-142-11659
|
HOUSESITE:
160,100
ACRES:
0.82 R1 T
|GRAND LIST
1,601.00
1,601.00
------------------------------------------------------------------------------------------------------------------------------------
06/12/2015
01:32 pm
Town of Norwich Grand List
Grand List Report (Detail)
By Name For All Parcels In All Districts
Page 233
jbynum
PARCEL INFORMATION
TAXABLE VALUATIONS / EXEMPTIONS / CONTRACTS
-----------------------------------------------------------------------------------------------------------------------------------REICHERT ELIZABETH B
HMSTD FILED |
MUNICIPAL
HOMESTEAD
NON-RESIDENTIAL
|LAND
189,100
180 BIRCH HILL
|BUILDING
1366,600
|TOTAL REAL
1555,700
1262,400
293,300
NORWICH VT 05055-9332
|SPEC EXEMPTION
0
0
TAX MAP:
04-020.300
|
PROP DESC: 11.3 ACRES & DWL
|
911 ADDR: 180 BIRCH HILL LN
|
PARCEL ID: 04-020.300 SPAN: 450-142-12986
|
HOUSESITE:
1229,900
ACRES:
11.30 R2 T
|GRAND LIST
15,557.00
12,624.00
2,933.00
-----------------------------------------------------------------------------------------------------------------------------------REUTENAUER RICHARD J
|
MUNICIPAL
HOMESTEAD
NON-RESIDENTIAL
|LAND
86,400
41 MARSHALL RD
|BUILDING
69,800
|TOTAL REAL
156,200
156,200
BRANFORD CT 06405
|SPEC EXEMPTION
0
TAX MAP:
03-024.000
|
PROP DESC: 1.2 ACRES & DWL
|
911 ADDR: 1767 BEAVER MEADOW RD
|
PARCEL ID: 03-024.000 SPAN: 450-142-11618
|
HOUSESITE:
156,200
ACRES:
1.20 R1 NS
|GRAND LIST
1,562.00
1,562.00
-----------------------------------------------------------------------------------------------------------------------------------REXFORD DOUGLAS R
HMSTD FILED |
MUNICIPAL
HOMESTEAD
NON-RESIDENTIAL
REXFORD BERNA M
|LAND
131,300
PO BOX 43
|BUILDING
566,600
|TOTAL REAL
697,900
697,900
NORWICH VT 05055
|SPEC EXEMPTION
0
TAX MAP:
20-154.000
|
PROP DESC: 2.4 ACRES & DWL
|
911 ADDR: 6 WILLEY HILL RD
|
PARCEL ID: 20-154.000 SPAN: 450-142-12450
|
HOUSESITE:
696,100
ACRES:
2.40 R1 T
|GRAND LIST
6,979.00
6,979.00
-----------------------------------------------------------------------------------------------------------------------------------REYDEL JOHN J JR
|
MUNICIPAL
HOMESTEAD
NON-RESIDENTIAL
GARDINER ETAL E ANNE
|LAND
95,900
66 SPRING ST
|BUILDING
279,300
|TOTAL REAL
375,200
375,200
MARION MA 02738
|SPEC EXEMPTION
0
TAX MAP:
05-070.000
|
PROP DESC: 1.2 ACRES & DWL/APT
|
911 ADDR: 1432 UNION VILLAGE RD
|
PARCEL ID: 05-070.000 SPAN: 450-142-13064
|
HOUSESITE:
375,200
ACRES:
1.20 R1 NS
|GRAND LIST
3,752.00
3,752.00
-----------------------------------------------------------------------------------------------------------------------------------RHIM CHRISTOPHER H
HMSTD FILED |
MUNICIPAL
HOMESTEAD
NON-RESIDENTIAL
RHIM LAUREN M.
|LAND
161,100
PO BOX 483
|BUILDING
291,300
|TOTAL REAL
452,400
452,400
NORWICH VT 05055
|SPEC EXEMPTION
0
TAX MAP:
10-213.000
|
PROP DESC: 6.9 ACRES & DWL
|
911 ADDR: 53 WILLEY HILL RD
|
PARCEL ID: 10-213.000 SPAN: 450-142-13153
|
HOUSESITE:
432,800
ACRES:
6.90 R2 T
|GRAND LIST
4,524.00
4,524.00
------------------------------------------------------------------------------------------------------------------------------------
06/12/2015
01:32 pm
Town of Norwich Grand List
Grand List Report (Detail)
By Name For All Parcels In All Districts
Page 234
jbynum
PARCEL INFORMATION
TAXABLE VALUATIONS / EXEMPTIONS / CONTRACTS
-----------------------------------------------------------------------------------------------------------------------------------RICCARDI KAREN E.
HMSTD FILED |
MUNICIPAL
HOMESTEAD
NON-RESIDENTIAL
|LAND
134,600
417 BRAGG HILL RD
|BUILDING
249,400
|TOTAL REAL
384,000
384,000
NORWICH VT 05055
|SPEC EXEMPTION
0
TAX MAP:
15-029.000
|
PROP DESC: 0.57 ACRE & DWL
|
911 ADDR: 417 BRAGG HILL RD
|
PARCEL ID: 15-029.000 SPAN: 450-142-11671
|
HOUSESITE:
384,000
ACRES:
0.57 R1 T
|GRAND LIST
3,840.00
3,840.00
-----------------------------------------------------------------------------------------------------------------------------------RICE JAMES G
HMSTD FILED |
MUNICIPAL
HOMESTEAD
NON-RESIDENTIAL
|LAND
150,900
1294 TURNPIKE RD
|BUILDING
328,700
|TOTAL REAL
479,600
479,600
NORWICH VT 05055
|SPEC EXEMPTION
0
TAX MAP:
04-029.000
|
PROP DESC: 10.33 ACRES & DWL
|
911 ADDR: 1294 TURNPIKE RD
|
PARCEL ID: 04-029.000 SPAN: 450-142-12971
|
HOUSESITE:
449,900
ACRES:
10.33 R2 T
|GRAND LIST
4,796.00
4,796.00
-----------------------------------------------------------------------------------------------------------------------------------RICHARD DEAN O
HMSTD FILED |
MUNICIPAL
HOMESTEAD
NON-RESIDENTIAL
RICHARD CHRISTINE S
|LAND
132,500
1508 NEW BOSTON RD
|BUILDING
297,300
|TOTAL REAL
429,800
429,800
NORWICH VT 05055-9662
|SPEC EXEMPTION
0
TAX MAP:
04-068.000
|
PROP DESC: 20.12 ACRES & DWL
|
911 ADDR: 1508 NEW BOSTON RD
|
PARCEL ID: 04-068.000 SPAN: 450-142-12376
|
HOUSESITE:
384,600
ACRES:
20.12 R2 T
|GRAND LIST
4,298.00
4,298.00
-----------------------------------------------------------------------------------------------------------------------------------RICHARDS CHARLES E
HMSTD FILED |
MUNICIPAL
HOMESTEAD
NON-RESIDENTIAL
RICHARDS JEANNE L
|LAND
204,000
54 SIMPSON ROAD
|BUILDING
771,800
|TOTAL REAL
975,800
975,800
NORWICH VT 05055-0358
|SPEC EXEMPTION
0
TAX MAP:
20-055.000
|
PROP DESC: 18.79 ACRES & DWL
|
911 ADDR: 54 SIMPSON RD
|
PARCEL ID: 20-055.000 SPAN: 450-142-11663
|
HOUSESITE:
927,800
ACRES:
18.79 R2 T
|GRAND LIST
9,758.00
9,758.00
-----------------------------------------------------------------------------------------------------------------------------------RICHARDS STUART L
HMSTD FILED |
MUNICIPAL
HOMESTEAD
NON-RESIDENTIAL
RICHARDS MIRIAM L
|LAND
207,700
PO BOX 156
|BUILDING
456,300
|TOTAL REAL
664,000
664,000
NORWICH VT 05055-0156
|SPEC EXEMPTION
0
TAX MAP:
20-275.000
|
PROP DESC: 5.44 ACRES & DWL; ADDL LOT
|
911 ADDR: 82 ELM ST
|
PARCEL ID: 20-275.000 SPAN: 450-142-11953
|
HOUSESITE:
635,700
ACRES:
5.99 R1 T
|GRAND LIST
6,640.00
6,640.00
------------------------------------------------------------------------------------------------------------------------------------
06/12/2015
01:32 pm
Town of Norwich Grand List
Grand List Report (Detail)
By Name For All Parcels In All Districts
Page 235
jbynum
PARCEL INFORMATION
TAXABLE VALUATIONS / EXEMPTIONS / CONTRACTS
-----------------------------------------------------------------------------------------------------------------------------------RICHARDSON ERIC L
HMSTD FILED |
MUNICIPAL
HOMESTEAD
NON-RESIDENTIAL
|LAND
136,800
224 TURNPIKE RD
|BUILDING
401,900
|TOTAL REAL
538,700
436,100
102,600
NORWICH VT 05055-9566
|SPEC EXEMPTION
0
0
TAX MAP:
10-195.000
|
PROP DESC: 5.5 ACRES & 2 DWLS
|
911 ADDR: 224 TURNPIKE RD
|
PARCEL ID: 10-195.000 SPAN: 450-142-12906
|
HOUSESITE:
422,400
ACRES:
5.50 R1 T
|GRAND LIST
5,387.00
4,361.00
1,026.00
-----------------------------------------------------------------------------------------------------------------------------------RICHARDSON STEPHEN
HMSTD FILED |
MUNICIPAL
HOMESTEAD
NON-RESIDENTIAL
RICHARDSON MARTHA
|LAND
168,300
PO BOX 301
|BUILDING
576,100
|TOTAL REAL
744,400
744,400
NORWICH VT 05055-0301
|SPEC EXEMPTION
0
TAX MAP:
20-139.000
|
PROP DESC: 1.55 ACRES & DWL
|
911 ADDR: 479 MAIN ST
|
PARCEL ID: 20-139.000 SPAN: 450-142-12447
|
HOUSESITE:
744,400
ACRES:
1.55 R1 T
|GRAND LIST
7,444.00
7,444.00
-----------------------------------------------------------------------------------------------------------------------------------RICHMOND CATHERINE TRUST
HMSTD FILED |
MUNICIPAL
HOMESTEAD
NON-RESIDENTIAL
|LAND
159,500
140 PATTRELL RD
|BUILDING
213,200
|TOTAL REAL
372,700
372,700
NORWICH VT 05055
|SPEC EXEMPTION
0
TAX MAP:
05-104.000
|
PROP DESC: 15.1 ACRES & DWL
|
911 ADDR: 140 PATTRELL RD
|
PARCEL ID: 05-104.000 SPAN: 450-142-12500
|
HOUSESITE:
333,800
ACRES:
15.10 R2 T
|GRAND LIST
3,727.00
3,727.00
-----------------------------------------------------------------------------------------------------------------------------------RICHTER HORST J TRUST
HMSTD FILED |
MUNICIPAL
HOMESTEAD
NON-RESIDENTIAL
|LAND
157,700
PO BOX 59
|BUILDING
342,000
|TOTAL REAL
499,700
499,700
NORWICH VT 05055-0059
|SPEC EXEMPTION
0
TAX MAP:
15-018.000
|
PROP DESC: 11 ACRES & DWL
|
911 ADDR: 11 ABIGAIL RD
|
PARCEL ID: 15-018.000 SPAN: 450-142-11931
|
HOUSESITE:
468,000
ACRES:
11.00 R2 T
|GRAND LIST
4,997.00
4,997.00
-----------------------------------------------------------------------------------------------------------------------------------RIESER HOUSE LLC
|
MUNICIPAL
HOMESTEAD
NON-RESIDENTIAL
|LAND
157,200
C/O LEONARD M RIESER III
|BUILDING
389,000
158 W QUEEN LANE
|TOTAL REAL
546,200
546,200
PHILADELPHIA PA 19144
|SPEC EXEMPTION
0
TAX MAP:
20-312.000
|
PROP DESC: 2.60 ACRES & DWL/APT
|
911 ADDR: 185 ELM ST
|
PARCEL ID: 20-312.000 SPAN: 450-142-11961
|
HOUSESITE:
465,840
ACRES:
2.60 R1 NS
|GRAND LIST
5,462.00
5,462.00
------------------------------------------------------------------------------------------------------------------------------------
06/12/2015
01:32 pm
Town of Norwich Grand List
Grand List Report (Detail)
By Name For All Parcels In All Districts
Page 236
jbynum
PARCEL INFORMATION
TAXABLE VALUATIONS / EXEMPTIONS / CONTRACTS
-----------------------------------------------------------------------------------------------------------------------------------RIESER LEONARD
|
MUNICIPAL
HOMESTEAD
NON-RESIDENTIAL
RIESER TIMOTHY & ABIGAIL
|LAND
684,200
158 W QUEEN LN
|BUILDING
4,600
|TOTAL REAL
688,800
688,800
PHILADELPHIA PA 19144
|SPEC EXEMPTION
0
TAX MAP:
10-003.000
|
PROP DESC: 279.5 ACRES & CAMP
|
911 ADDR: 815 BRAGG HILL RD
|CURRENT USE
570,900
570,900
PARCEL ID: 10-003.000 SPAN: 450-142-11687
|
HOUSESITE:
82,300
ACRES:
279.50 S2 NS
|GRAND LIST
1,179.00
1,179.00
-----------------------------------------------------------------------------------------------------------------------------------RIESER LEONARD
|
MUNICIPAL
HOMESTEAD
NON-RESIDENTIAL
RIESER TIMOTHY & ABIGAIL
|LAND
170,000
158 W QUEEN LN
|BUILDING
0
|TOTAL REAL
170,000
170,000
PHILADELPHIA PA 19144
|SPEC EXEMPTION
0
TAX MAP:
20-268.000
|
PROP DESC: 10.95 ACRES
|
911 ADDR: HOPSON RD
|
PARCEL ID: 20-268.000 SPAN: 450-142-12058
|
HOUSESITE:
0
ACRES:
10.95 M
NS
|GRAND LIST
1,700.00
1,700.00
-----------------------------------------------------------------------------------------------------------------------------------RIESS KERRY
HMSTD FILED |
MUNICIPAL
HOMESTEAD
NON-RESIDENTIAL
|LAND
275,800
529 KERWIN HILL RD
|BUILDING
1116,500
|TOTAL REAL
1392,300
1392,300
NORWICH VT 05055
|SPEC EXEMPTION
0
TAX MAP:
05-115.300
|
PROP DESC: 54.5 ACRES & DWLG
|
911 ADDR: 529 KERWIN HILL RD
|
PARCEL ID: 05-115.300 SPAN: 450-142-13216
|
HOUSESITE:
1241,900
ACRES:
54.50 R2 T
|GRAND LIST
13,923.00
13,923.00
-----------------------------------------------------------------------------------------------------------------------------------RILEY DIANE
HMSTD FILED |
MUNICIPAL
HOMESTEAD
NON-RESIDENTIAL
|LAND
118,000
1718 BEAVER MEADOW RD
|BUILDING
282,300
|TOTAL REAL
400,300
400,300
NORWICH VT 05055
|SPEC EXEMPTION
0
TAX MAP:
03-029.000
|
PROP DESC: 6.7 ACRES & DWL
|
911 ADDR: 1718 BEAVER MEADOW RD
|
PARCEL ID: 03-029.000 SPAN: 450-142-11615
|
HOUSESITE:
381,300
ACRES:
6.70 R2 T
|GRAND LIST
4,003.00
4,003.00
-----------------------------------------------------------------------------------------------------------------------------------RILEY ENRICO M
HMSTD FILED |
MUNICIPAL
HOMESTEAD
NON-RESIDENTIAL
RILEY KATHERINE
|LAND
125,000
108 MCKENNA RD
|BUILDING
201,700
|TOTAL REAL
326,700
326,700
NORWICH VT 05055
|SPEC EXEMPTION
0
TAX MAP:
16-078.000
|
PROP DESC: 1 ACRE & DWL
|
911 ADDR: 108 MCKENNA RD
|
PARCEL ID: 16-078.000 SPAN: 450-142-12194
|
HOUSESITE:
326,700
ACRES:
1.00 R1 T
|GRAND LIST
3,267.00
3,267.00
------------------------------------------------------------------------------------------------------------------------------------
06/12/2015
01:32 pm
Town of Norwich Grand List
Grand List Report (Detail)
By Name For All Parcels In All Districts
Page 237
jbynum
PARCEL INFORMATION
TAXABLE VALUATIONS / EXEMPTIONS / CONTRACTS
-----------------------------------------------------------------------------------------------------------------------------------RIMBERG ALEXANDER J
HMSTD FILED |
MUNICIPAL
HOMESTEAD
NON-RESIDENTIAL
DAY ANNE W
|LAND
156,500
133 UPPER PASTURE RD
|BUILDING
383,100
|TOTAL REAL
539,600
539,600
NORWICH VT 05055
|SPEC EXEMPTION
0
TAX MAP:
11-148.000
|
PROP DESC: 10.1 ACRES & DWL
|
911 ADDR: 133 UPPER PASTURE RD
|
PARCEL ID: 11-148.000 SPAN: 450-142-13100
|
HOUSESITE:
510,500
ACRES:
10.10 R2 T
|GRAND LIST
5,396.00
5,396.00
-----------------------------------------------------------------------------------------------------------------------------------RIMER AVERY E
|
MUNICIPAL
HOMESTEAD
NON-RESIDENTIAL
RIMER EDWARD & MARY
|LAND
128,100
486 HURON AV
|BUILDING
0
|TOTAL REAL
128,100
128,100
CAMBRIDGE MA 02138
|SPEC EXEMPTION
0
TAX MAP:
06-025.000
|
PROP DESC: 4.7 ACRES
|
911 ADDR: CAMPBELL FLATS RD
|CURRENT USE
127,500
127,500
PARCEL ID: 06-025.000 SPAN: 450-142-11779
|
HOUSESITE:
0
ACRES:
4.70 M
NS
|GRAND LIST
6.00
6.00
-----------------------------------------------------------------------------------------------------------------------------------RIMMEL DIONA O
HMSTD FILED |
MUNICIPAL
HOMESTEAD
NON-RESIDENTIAL
RIMMEL JAY J
|LAND
144,000
925 RTE 132
|BUILDING
437,100
|TOTAL REAL
581,100
446,400
134,700
NORWICH VT 05055
|SPEC EXEMPTION
0
0
TAX MAP:
05-054.000
|
PROP DESC: 16 ACRES & 2 DWLS
|
911 ADDR: 925 VT ROUTE 132
|
PARCEL ID: 05-054.000 SPAN: 450-142-12781
|
HOUSESITE:
400,700
ACRES:
16.00 R2 T
|GRAND LIST
5,811.00
4,464.00
1,347.00
-----------------------------------------------------------------------------------------------------------------------------------RIMMER CHRISTOPHER C
HMSTD FILED |
MUNICIPAL
HOMESTEAD
NON-RESIDENTIAL
RIMMER LESLIE L
|LAND
178,500
PO BOX 73
|BUILDING
287,600
|TOTAL REAL
466,100
466,100
NORWICH VT 05055-0073
|SPEC EXEMPTION
0
TAX MAP:
20-020.000
|
PROP DESC: 8.61 ACRES & DWL
|
911 ADDR: 91 SPRING POND RD
|
PARCEL ID: 20-020.000 SPAN: 450-142-12590
|
HOUSESITE:
441,300
ACRES:
8.61 R2 T
|GRAND LIST
4,661.00
4,661.00
-----------------------------------------------------------------------------------------------------------------------------------RING JOHN REVOCABLE TRUST
HMSTD FILED |
MUNICIPAL
HOMESTEAD
NON-RESIDENTIAL
|LAND
226,000
PO BOX 5190
|BUILDING
396,600
|TOTAL REAL
622,600
622,600
HANOVER NH 03755
|SPEC EXEMPTION
0
TAX MAP:
16-106.000
|
PROP DESC: 1.1 ACRES & DWL
|
911 ADDR: 218 RIVER RD
|
PARCEL ID: 16-106.000 SPAN: 450-142-12650
|
HOUSESITE:
622,600
ACRES:
1.10 R1 T
|GRAND LIST
6,226.00
6,226.00
------------------------------------------------------------------------------------------------------------------------------------
06/12/2015
01:32 pm
Town of Norwich Grand List
Grand List Report (Detail)
By Name For All Parcels In All Districts
Page 238
jbynum
PARCEL INFORMATION
TAXABLE VALUATIONS / EXEMPTIONS / CONTRACTS
-----------------------------------------------------------------------------------------------------------------------------------RIORDAN BRIAN
HMSTD FILED |
MUNICIPAL
HOMESTEAD
NON-RESIDENTIAL
RIORDAN MARY
|LAND
101,600
59 UNION VILLAGE RD
|BUILDING
201,500
|TOTAL REAL
303,100
303,100
NORWICH VT 05055
|SPEC EXEMPTION
0
TAX MAP:
10-205.000
|
PROP DESC: 1.7 ACRES & DWL
|
911 ADDR: 59 UNION VILLAGE RD
|
PARCEL ID: 10-205.000 SPAN: 450-142-13003
|
HOUSESITE:
303,100
ACRES:
1.70 R1 T
|GRAND LIST
3,031.00
3,031.00
-----------------------------------------------------------------------------------------------------------------------------------RIVER CAT LLC
|
MUNICIPAL
HOMESTEAD
NON-RESIDENTIAL
|LAND
191,100
C/O CATHERINE HARWOOD
|BUILDING
59,200
PO BOX 754
|TOTAL REAL
250,300
250,300
NORWICH VT 05055
|SPEC EXEMPTION
0
TAX MAP:
10-137.000
|
PROP DESC: 6.65 ACRES & DWL & ADDL LOT
|
911 ADDR: 81 UPPER TURNPIKE RD
|
PARCEL ID: 10-137.000 SPAN: 450-142-13110
|
HOUSESITE:
189,400
ACRES:
6.65 R2 T
|GRAND LIST
2,503.00
2,503.00
-----------------------------------------------------------------------------------------------------------------------------------RIVERDANCE LANDING REALTY TR
|
MUNICIPAL
HOMESTEAD
NON-RESIDENTIAL
CLEM DAVID TRUSTEE
|LAND
235,300
PO BOX 1023
|BUILDING
63,400
|TOTAL REAL
298,700
298,700
NORWICH VT 05055
|SPEC EXEMPTION
0
TAX MAP:
12-042.100
|
PROP DESC: 24.0 ACRES & DWLG & 2 ADDL LOTS (NV)
|
911 ADDR: 1222 US ROUTE 5 NORTH
|
PARCEL ID: 12-042.100 SPAN: 450-142-12705
|
HOUSESITE:
244,600
ACRES:
24.00 S2 T
|GRAND LIST
2,987.00
2,987.00
-----------------------------------------------------------------------------------------------------------------------------------ROBBIE PETER
|
MUNICIPAL
HOMESTEAD
NON-RESIDENTIAL
ROBBIE ELIZABETH
|LAND
175,300
97 MAPLE HILL RD
|BUILDING
385,300
|TOTAL REAL
560,600
560,600
NORWICH VT 05055
|SPEC EXEMPTION
0
TAX MAP:
11-142.000
|
PROP DESC: 10.2 ACRES & DWL
|
911 ADDR: 97 MAPLE HILL RD
|
PARCEL ID: 11-142.000 SPAN: 450-142-12172
|
HOUSESITE:
531,200
ACRES:
10.20 R2 T
|GRAND LIST
5,606.00
5,606.00
-----------------------------------------------------------------------------------------------------------------------------------ROBERTS HARRY
HMSTD FILED |
MUNICIPAL
HOMESTEAD
NON-RESIDENTIAL
|LAND
152,700
1321 BRAGG HILL RD
|BUILDING
276,900
|TOTAL REAL
429,600
429,600
NORWICH VT 05055
|SPEC EXEMPTION
0
TAX MAP:
09-024.000
|
PROP DESC: 8.75 ACRES & DWL
|
911 ADDR: 1321 BRAGG HILL RD
|
PARCEL ID: 09-024.000 SPAN: 450-142-11701
|
HOUSESITE:
404,400
ACRES:
8.75 R2 T
|GRAND LIST
4,296.00
4,296.00
------------------------------------------------------------------------------------------------------------------------------------
06/12/2015
01:32 pm
Town of Norwich Grand List
Grand List Report (Detail)
By Name For All Parcels In All Districts
Page 239
jbynum
PARCEL INFORMATION
TAXABLE VALUATIONS / EXEMPTIONS / CONTRACTS
-----------------------------------------------------------------------------------------------------------------------------------ROBINSON ANDREW M
HMSTD FILED |
MUNICIPAL
HOMESTEAD
NON-RESIDENTIAL
ROBINSON KATE
|LAND
172,500
PO BOX 1016
|BUILDING
607,500
|TOTAL REAL
780,000
780,000
NORWICH VT 05055-1016
|SPEC EXEMPTION
0
TAX MAP:
01-005.000
|
PROP DESC: 25 ACRES & DWL
|
911 ADDR: 31 ROCK LEDGE LN
|
PARCEL ID: 01-005.000 SPAN: 450-142-12384
|
HOUSESITE:
709,600
ACRES:
25.00 R2 T
|GRAND LIST
7,800.00
7,800.00
-----------------------------------------------------------------------------------------------------------------------------------ROBINSON STANLEY
|
MUNICIPAL
HOMESTEAD
NON-RESIDENTIAL
|LAND
40,700
217 WINDSOR DR
|BUILDING
19,300
|TOTAL REAL
60,000
60,000
WHITE RIVER JUNCTION VT 05001
|SPEC EXEMPTION
0
TAX MAP:
09-049.000
|
PROP DESC: 23 ACRES & CAMP
|
911 ADDR: BURTON WOODS RD
|
PARCEL ID: 09-049.000 SPAN: 450-142-12831
|
HOUSESITE:
23,700
ACRES:
23.00 S2 S
|GRAND LIST
600.00
600.00
-----------------------------------------------------------------------------------------------------------------------------------RODRIGUEZ ZANE
|
MUNICIPAL
HOMESTEAD
NON-RESIDENTIAL
RODRIGUEZ TRACY
|LAND
124,800
PO BOX 308
|BUILDING
251,200
|TOTAL REAL
376,000
376,000
NORWICH VT 05055
|SPEC EXEMPTION
0
TAX MAP:
20-035.000
|
PROP DESC: .52 ACRE & DWL
|
911 ADDR: 32 HOPSON RD
|
PARCEL ID: 20-035.000 SPAN: 450-142-12239
|
HOUSESITE:
376,000
ACRES:
0.52 R1 T
|GRAND LIST
3,760.00
3,760.00
-----------------------------------------------------------------------------------------------------------------------------------RODRIGUEZ ZANE J
HMSTD FILED |
MUNICIPAL
HOMESTEAD
NON-RESIDENTIAL
RODRIGUEZ TRACY LYONS
|LAND
137,500
PO BOX 308
|BUILDING
757,800
|TOTAL REAL
895,300
895,300
NORWICH VT 05055-0308
|SPEC EXEMPTION
0
TAX MAP:
10-052.140
|
PROP DESC: 5.2 ACRES & DWL
|
911 ADDR: 112 BRIGHAM HILL RD
|
PARCEL ID: 10-052.140 SPAN: 450-142-13168
|
HOUSESITE:
884,700
ACRES:
5.20 R1 T
|GRAND LIST
8,953.00
8,953.00
-----------------------------------------------------------------------------------------------------------------------------------RODRIGUEZ ZANE J
|
MUNICIPAL
HOMESTEAD
NON-RESIDENTIAL
RODRIGUEZ TRACY LYONS
|LAND
99,400
PO BOX 308
|BUILDING
15,200
|TOTAL REAL
114,600
114,600
NORWICH VT 05055-0308
|SPEC EXEMPTION
0
TAX MAP:
16-059.000
|
PROP DESC: 4.1 ACRES & SHED
|
911 ADDR: 319 RIVER RD
|
PARCEL ID: 16-059.000 SPAN: 450-142-12656
|
HOUSESITE:
0
ACRES:
4.10 M
T
|GRAND LIST
1,146.00
1,146.00
------------------------------------------------------------------------------------------------------------------------------------
06/12/2015
01:32 pm
Town of Norwich Grand List
Grand List Report (Detail)
By Name For All Parcels In All Districts
Page 240
jbynum
PARCEL INFORMATION
TAXABLE VALUATIONS / EXEMPTIONS / CONTRACTS
-----------------------------------------------------------------------------------------------------------------------------------ROGERS FREDERICK L
HMSTD FILED |
MUNICIPAL
HOMESTEAD
NON-RESIDENTIAL
ROGERS MICHIE C
|LAND
118,400
120 OLD PIEDMONT CIRCLE
|BUILDING
405,400
|TOTAL REAL
523,800
523,800
CHAPEL HILL NC 27516
|SPEC EXEMPTION
0
TAX MAP:
10-088.000
|
PROP DESC: 7.24 ACRES & DWL
|
911 ADDR: 50 BOB WHITE LN
|
PARCEL ID: 10-088.000 SPAN: 450-142-13310
|
HOUSESITE:
507,300
ACRES:
7.24 R2 T
|GRAND LIST
5,238.00
5,238.00
-----------------------------------------------------------------------------------------------------------------------------------ROJEK STEPHEN T
|
MUNICIPAL
HOMESTEAD
NON-RESIDENTIAL
ROJEK BLANDINA A
|LAND
177,600
P.O. BOX 150
|BUILDING
5,900
|TOTAL REAL
183,500
183,500
LEBANON NH 03766
|SPEC EXEMPTION
0
TAX MAP:
06-073.200
|
PROP DESC: 2.1 ACRES & CAMP
|
911 ADDR: 218 KENDALL STATION RD
|
PARCEL ID: 06-073.200 SPAN: 450-142-12632
|
HOUSESITE:
183,000
ACRES:
2.10 S1 NS
|GRAND LIST
1,835.00
1,835.00
-----------------------------------------------------------------------------------------------------------------------------------ROMANO LEAH C
HMSTD FILED |
MUNICIPAL
HOMESTEAD
NON-RESIDENTIAL
|LAND
112,700
60 BRADLEY HILL ROAD
|BUILDING
99,100
|TOTAL REAL
211,800
211,800
NORWICH VT 05055
|SPEC EXEMPTION
0
TAX MAP:
11-044.000
|
PROP DESC: 1.1 ACRES & DWL
|
911 ADDR: 60 BRADLEY HILL RD
|
PARCEL ID: 11-044.000 SPAN: 450-142-11633
|
HOUSESITE:
211,800
ACRES:
1.10 R1 T
|GRAND LIST
2,118.00
2,118.00
-----------------------------------------------------------------------------------------------------------------------------------ROOT DISTRICT GAME CLUB
|
MUNICIPAL
HOMESTEAD
NON-RESIDENTIAL
C/O BRIAN COOK
|LAND
72,700
47 BULLOCK RD
|BUILDING
119,100
|TOTAL REAL
191,800
191,800
NORWICH VT 05055
|SPEC EXEMPTION
0
TAX MAP:
11-058.010
|
PROP DESC: .33 ACRE & BLDG; EXMPT BY CONTRACT VOTE
|
911 ADDR: 987 UNION VILLAGE RD
|
PARCEL ID: 11-058.010 SPAN: 450-142-13043
|CONTRACTS
191,800
191,800
HOUSESITE:
0
ACRES:
0.33 C
C
|GRAND LIST
0.00
0.00
-----------------------------------------------------------------------------------------------------------------------------------ROSENKRANZ KARI M
HMSTD FILED |
MUNICIPAL
HOMESTEAD
NON-RESIDENTIAL
|LAND
175,800
151 BIRCH HILL LN
|BUILDING
902,800
|TOTAL REAL
1078,600
1078,600
NORWICH VT 05055
|SPEC EXEMPTION
0
TAX MAP:
04-020.100
|
PROP DESC: 13.1 ACRES & DWL
|
911 ADDR: 151 BIRCH HILL LN
|
PARCEL ID: 04-020.100 SPAN: 450-142-12989
|
HOUSESITE:
1041,000
ACRES:
13.10 R2 T
|GRAND LIST
10,786.00
10,786.00
------------------------------------------------------------------------------------------------------------------------------------
06/12/2015
01:32 pm
Town of Norwich Grand List
Grand List Report (Detail)
By Name For All Parcels In All Districts
Page 241
jbynum
PARCEL INFORMATION
TAXABLE VALUATIONS / EXEMPTIONS / CONTRACTS
-----------------------------------------------------------------------------------------------------------------------------------ROSSI BRIAN K
|
MUNICIPAL
HOMESTEAD
NON-RESIDENTIAL
ROSSI MARGARET S
|LAND
313,000
48 OAK ST
|BUILDING
240,500
|TOTAL REAL
553,500
553,500
COHASSET MA 02025
|SPEC EXEMPTION
0
TAX MAP:
16-103.000
|
PROP DESC: .47 ACRES & 2 DWLGS & ADDL LOT
|
911 ADDR: 164 RIVER RD
|
PARCEL ID: 16-103.000 SPAN: 450-142-12645
|
HOUSESITE:
553,500
ACRES:
0.47 R1 NS
|GRAND LIST
5,535.00
5,535.00
-----------------------------------------------------------------------------------------------------------------------------------ROSTAD HUGH N
HMSTD FILED |
MUNICIPAL
HOMESTEAD
NON-RESIDENTIAL
ROSTAD CHERYL P.
|LAND
182,600
74 FOUR WHEEL DRIVE RD
|BUILDING
967,800
|TOTAL REAL
1150,400
1150,400
NORWICH VT 05055
|SPEC EXEMPTION
0
TAX MAP:
16-020.000
|
PROP DESC: 28.28 ACRES & DWL & 2 ADDL LOTS (NV)
|
911 ADDR: 74 FOUR WHEEL DR
|
PARCEL ID: 16-020.000 SPAN: 450-142-11976
|
HOUSESITE:
1093,300
ACRES:
28.28 R2 T
|GRAND LIST
11,504.00
11,504.00
-----------------------------------------------------------------------------------------------------------------------------------ROTH NEIL
|
MUNICIPAL
HOMESTEAD
NON-RESIDENTIAL
BOGHOSIAN CHERYL
|LAND
159,500
15 HEMLOCK RD
|BUILDING
112,900
|TOTAL REAL
272,400
272,400
HANOVER NH 03755
|SPEC EXEMPTION
0
TAX MAP:
12-036.000
|
PROP DESC: .33 ACRE & DWL
|
911 ADDR: 15 RIVER EDGE LN
|
PARCEL ID: 12-036.000 SPAN: 450-142-12616
|
HOUSESITE:
272,400
ACRES:
0.40 R1 NS
|GRAND LIST
2,724.00
2,724.00
-----------------------------------------------------------------------------------------------------------------------------------ROTHSTEIN JAY L
HMSTD FILED |
MUNICIPAL
HOMESTEAD
NON-RESIDENTIAL
GOLETZ THERESA J
|LAND
137,000
18 ELM STREET
|BUILDING
515,200
|TOTAL REAL
652,200
533,704
118,496
NORWICH VT 05055
|SPEC EXEMPTION
0
0
TAX MAP:
20-295.000
|
PROP DESC: 0.38 ACRE & DWL/APT
|
911 ADDR: 18 ELM ST
|
PARCEL ID: 20-295.000 SPAN: 450-142-11939
|
HOUSESITE:
533,704
ACRES:
0.38 R1 T
|GRAND LIST
6,522.00
5,337.04
1,184.96
-----------------------------------------------------------------------------------------------------------------------------------ROTMAN BARRY S TRUSTEE
|
MUNICIPAL
HOMESTEAD
NON-RESIDENTIAL
ROTMAN ARLINE S TRUSTEE
|LAND
215,000
44 OAK HILL ROAD
|BUILDING
1894,300
|TOTAL REAL
2109,300
2109,300
WORCESTER MA 01699
|SPEC EXEMPTION
0
TAX MAP:
10-130.000
|
PROP DESC: 20.2 ACRES & DWL
|
911 ADDR: 95 DOUGLAS RD
|
PARCEL ID: 10-130.000 SPAN: 450-142-11904
|
HOUSESITE:
1908,000
ACRES:
20.20 R2 NS
|GRAND LIST
21,093.00
21,093.00
------------------------------------------------------------------------------------------------------------------------------------
06/12/2015
01:32 pm
Town of Norwich Grand List
Grand List Report (Detail)
By Name For All Parcels In All Districts
Page 242
jbynum
PARCEL INFORMATION
TAXABLE VALUATIONS / EXEMPTIONS / CONTRACTS
-----------------------------------------------------------------------------------------------------------------------------------ROWELL ALLEN
HMSTD FILED |
MUNICIPAL
HOMESTEAD
NON-RESIDENTIAL
ROWELL DIANNA
|LAND
126,100
212 KERWIN HILL RD
|BUILDING
203,900
|TOTAL REAL
330,000
330,000
NORWICH VT 05055
|SPEC EXEMPTION
0
TAX MAP:
05-050.000
|
PROP DESC: 2.9 ACRES & DWL
|
911 ADDR: 212 KERWIN HILL RD
|
PARCEL ID: 05-050.000 SPAN: 450-142-12120
|
HOUSESITE:
326,000
ACRES:
2.90 R1 T
|GRAND LIST
3,300.00
3,300.00
-----------------------------------------------------------------------------------------------------------------------------------ROYCE RAYMOND
HMSTD FILED |
MUNICIPAL
HOMESTEAD
NON-RESIDENTIAL
ROYCE ANNA
|LAND
154,000
71 CHAPEL HILL RD
|BUILDING
212,100
|TOTAL REAL
366,100
366,100
NORWICH VT 05055
|SPEC EXEMPTION
0
TAX MAP:
09-010.100
|
PROP DESC: 42.5 ACRES & DWL
|
911 ADDR: 71 CHAPEL HILL RD
|CURRENT USE
79,900
79,900
PARCEL ID: 09-010.100 SPAN: 450-142-11835
|
HOUSESITE:
280,700
ACRES:
42.50 R2 T
|GRAND LIST
2,862.00
2,862.00
-----------------------------------------------------------------------------------------------------------------------------------ROYCE RAYMOND
|
MUNICIPAL
HOMESTEAD
NON-RESIDENTIAL
ROYCE ANNA
|LAND
71,400
71 CHAPEL HILL RD
|BUILDING
251,500
|TOTAL REAL
322,900
322,900
NORWICH VT 05055
|SPEC EXEMPTION
0
TAX MAP:
09-010.200
|
PROP DESC: 2.4 ACRES & DWL
|
911 ADDR: 56 CHAPEL HILL RD
|
PARCEL ID: 09-010.200 SPAN: 450-142-11836
|
HOUSESITE:
321,300
ACRES:
2.40 R1 T
|GRAND LIST
3,229.00
3,229.00
-----------------------------------------------------------------------------------------------------------------------------------ROZYCKI ALAN A TRUSTEE
HMSTD FILED |
MUNICIPAL
HOMESTEAD
NON-RESIDENTIAL
ALAN A ROZYCKI 2008 REVOCAB TR
|LAND
117,300
56 MCKENNA RD
|BUILDING
332,600
|TOTAL REAL
449,900
449,900
NORWICH VT 05055
|SPEC EXEMPTION
0
TAX MAP:
16-072.000
|
PROP DESC: 1.5 ACRES & DWL
|
911 ADDR: 56 MCKENNA RD
|
PARCEL ID: 16-072.000 SPAN: 450-142-12183
|
HOUSESITE:
449,900
ACRES:
1.50 R1 T
|GRAND LIST
4,499.00
4,499.00
-----------------------------------------------------------------------------------------------------------------------------------RUELLA LAND TRUST INC
|
MUNICIPAL
HOMESTEAD
NON-RESIDENTIAL
C/O TERRY HALL
|LAND
200,000
14 SPENCER RD
|BUILDING
89,600
|TOTAL REAL
289,600
289,600
HANOVER NH 03755
|SPEC EXEMPTION
0
TAX MAP:
09-005.000
|
PROP DESC: 20.8 ACRES & 2 DWLS INCL 1 ADDL LOT
|
911 ADDR: 32 RUELLA RD
|CURRENT USE
48,600
48,600
PARCEL ID: 09-005.000 SPAN: 450-142-12267
|
HOUSESITE:
126,900
ACRES:
20.80 R2 NS
|GRAND LIST
2,410.00
2,410.00
------------------------------------------------------------------------------------------------------------------------------------
06/12/2015
01:32 pm
Town of Norwich Grand List
Grand List Report (Detail)
By Name For All Parcels In All Districts
Page 243
jbynum
PARCEL INFORMATION
TAXABLE VALUATIONS / EXEMPTIONS / CONTRACTS
-----------------------------------------------------------------------------------------------------------------------------------RUOFF JEFFREY K
HMSTD FILED |
MUNICIPAL
HOMESTEAD
NON-RESIDENTIAL
GOLD GLENNIS M
|LAND
97,900
RR 1, BOX 421
|BUILDING
194,800
|TOTAL REAL
292,700
292,700
SHARON VT 05065
|SPEC EXEMPTION
0
TAX MAP:
03-017.000
|
PROP DESC: 2.2 ACRES & DWL
|
911 ADDR: 38 WALLACE FARM RD
|
PARCEL ID: 03-017.000 SPAN: 450-142-12261
|
HOUSESITE:
291,900
ACRES:
2.20 R1 T
|GRAND LIST
2,927.00
2,927.00
-----------------------------------------------------------------------------------------------------------------------------------RUSSELL ELISABETH W TRUSTEE
|
MUNICIPAL
HOMESTEAD
NON-RESIDENTIAL
|LAND
459,700
11 COSSINGHAM RD
|BUILDING
207,200
|TOTAL REAL
666,900
666,900
NORWICH VT 05055
|SPEC EXEMPTION
0
TAX MAP:
15-009.000
|
PROP DESC: 122.59 ACRES & DWL
|
911 ADDR: 70 COSSINGHAM RD
|CURRENT USE
312,200
312,200
PARCEL ID: 15-009.000 SPAN: 450-142-12388
|
HOUSESITE:
332,500
ACRES:
122.59 R2 T
|GRAND LIST
3,547.00
3,547.00
-----------------------------------------------------------------------------------------------------------------------------------RUSSELL ELISABETH W TRUSTEE
HMSTD FILED |
MUNICIPAL
HOMESTEAD
NON-RESIDENTIAL
|LAND
125,200
11 COSSINGHAM RD
|BUILDING
316,800
|TOTAL REAL
442,000
442,000
NORWICH VT 05055
|SPEC EXEMPTION
0
TAX MAP:
15-030.000
|
PROP DESC: 1.61 ACRES & DWL
|
911 ADDR: 11 COSSINGHAM RD
|
PARCEL ID: 15-030.000 SPAN: 450-142-12386
|
HOUSESITE:
442,000
ACRES:
1.61 R1 T
|GRAND LIST
4,420.00
4,420.00
-----------------------------------------------------------------------------------------------------------------------------------RUTLEDGE PETER
HMSTD FILED |
MUNICIPAL
HOMESTEAD
NON-RESIDENTIAL
|LAND
132,600
PO BOX 1233
|BUILDING
237,900
|TOTAL REAL
370,500
370,500
NORWICH VT 05055-1233
|SPEC EXEMPTION
0
TAX MAP:
03-021.000
|
PROP DESC: 21.2 ACRES & DWL
|
911 ADDR: 66 RIDGEWOOD HILL
|
PARCEL ID: 03-021.000 SPAN: 450-142-12260
|
HOUSESITE:
322,500
ACRES:
21.20 R2 T
|GRAND LIST
3,705.00
3,705.00
-----------------------------------------------------------------------------------------------------------------------------------RYAN R. BRET
|
MUNICIPAL
HOMESTEAD
NON-RESIDENTIAL
|LAND
110,100
PO BOX 167
|BUILDING
804,600
|TOTAL REAL
914,700
914,700
LYME CENTER NH 03769-0167
|SPEC EXEMPTION
0
TAX MAP:
06-059.000
|
PROP DESC: 3.8 ACRES & DUPLEX
|
911 ADDR: 1701 US ROUTE 5 NORTH
|
PARCEL ID: 06-059.000 SPAN: 450-142-12722
|
HOUSESITE:
0
ACRES:
3.80 CA NS
|GRAND LIST
9,147.00
9,147.00
------------------------------------------------------------------------------------------------------------------------------------
06/12/2015
01:32 pm
Town of Norwich Grand List
Grand List Report (Detail)
By Name For All Parcels In All Districts
Page 244
jbynum
PARCEL INFORMATION
TAXABLE VALUATIONS / EXEMPTIONS / CONTRACTS
-----------------------------------------------------------------------------------------------------------------------------------SABATELLE ROBERT C.
HMSTD FILED |
MUNICIPAL
HOMESTEAD
NON-RESIDENTIAL
SABATELLE LAURIE J.
|LAND
157,300
271 NEW BOSTON RD
|BUILDING
622,300
|TOTAL REAL
779,600
779,600
NORWICH VT 05055
|SPEC EXEMPTION
0
TAX MAP:
10-119.000
|
PROP DESC: 9.98 ACRES & DWL
|
911 ADDR: 271 NEW BOSTON RD
|
PARCEL ID: 10-119.000 SPAN: 450-142-12279
|
HOUSESITE:
750,900
ACRES:
9.98 R2 T
|GRAND LIST
7,796.00
7,796.00
-----------------------------------------------------------------------------------------------------------------------------------SABKY REBECCA
HMSTD FILED |
MUNICIPAL
HOMESTEAD
NON-RESIDENTIAL
|LAND
127,900
37 SUNDBACK LN
|BUILDING
198,600
|TOTAL REAL
326,500
326,500
NORWICH VT 05055
|SPEC EXEMPTION
0
TAX MAP:
10-168.110
|
PROP DESC: 10.16 ACRES & DWL
|
911 ADDR: 37 SUNDBACK LN
|
PARCEL ID: 10-168.110 SPAN: 450-142-12302
|
HOUSESITE:
300,200
ACRES:
10.16 R2 T
|GRAND LIST
3,265.00
3,265.00
-----------------------------------------------------------------------------------------------------------------------------------SABLAN SCOTT A.
|
MUNICIPAL
HOMESTEAD
NON-RESIDENTIAL
MILLER CHRISTINE A.
|LAND
118,200
15 FALCON LN
|BUILDING
180,000
|TOTAL REAL
298,200
298,200
NORWICH VT 05055
|SPEC EXEMPTION
0
TAX MAP:
11-174.000
|
PROP DESC: 1.5 ACRES & DWL
|
911 ADDR: 15 FALCON LN
|
PARCEL ID: 11-174.000 SPAN: 450-142-12540
|
HOUSESITE:
298,200
ACRES:
1.50 R1 T
|GRAND LIST
2,982.00
2,982.00
-----------------------------------------------------------------------------------------------------------------------------------SACHS ERNEST P
HMSTD FILED |
MUNICIPAL
HOMESTEAD
NON-RESIDENTIAL
SACHS MARLENE
|LAND
128,300
PO BOX 1360
|BUILDING
339,400
|TOTAL REAL
467,700
467,700
NORWICH VT 05055-1360
|SPEC EXEMPTION
0
TAX MAP:
15-057.000
|
PROP DESC: 2 ACRES & DWL
|
911 ADDR: 15 HOPSON LN
|
PARCEL ID: 15-057.000 SPAN: 450-142-12079
|
HOUSESITE:
467,700
ACRES:
2.00 R1 T
|GRAND LIST
4,677.00
4,677.00
-----------------------------------------------------------------------------------------------------------------------------------SACHSSE MARY M
HMSTD FILED |
MUNICIPAL
HOMESTEAD
NON-RESIDENTIAL
|LAND
170,800
32 OLD ORCHARD
|BUILDING
415,400
|TOTAL REAL
586,200
586,200
NORWICH VT 05055
|SPEC EXEMPTION
0
TAX MAP:
04-002.700
|
PROP DESC: 13 ACRES & DWL
|
911 ADDR: 32 OLD ORCHARD LN
|
PARCEL ID: 04-002.700 SPAN: 450-142-12954
|
HOUSESITE:
552,600
ACRES:
13.00 R2 T
|GRAND LIST
5,862.00
5,862.00
------------------------------------------------------------------------------------------------------------------------------------
06/12/2015
01:32 pm
Town of Norwich Grand List
Grand List Report (Detail)
By Name For All Parcels In All Districts
Page 245
jbynum
PARCEL INFORMATION
TAXABLE VALUATIONS / EXEMPTIONS / CONTRACTS
-----------------------------------------------------------------------------------------------------------------------------------SAEMANN ANDREW K
HMSTD FILED |
MUNICIPAL
HOMESTEAD
NON-RESIDENTIAL
SAEMANN KATHERINE E
|LAND
197,800
436 JOSHUA RD
|BUILDING
257,700
|TOTAL REAL
455,500
455,500
WHITE RIVER JCT VT 05001
|SPEC EXEMPTION
0
TAX MAP:
14-031.000
|
PROP DESC: 27.51 ACRES & DWL
|
911 ADDR: 436 JOSHUA RD
|
PARCEL ID: 14-031.000 SPAN: 450-142-12805
|
HOUSESITE:
378,300
ACRES:
27.51 R2 T
|GRAND LIST
4,555.00
4,555.00
-----------------------------------------------------------------------------------------------------------------------------------SALER TOM R
HMSTD FILED |
MUNICIPAL
HOMESTEAD
NON-RESIDENTIAL
SALER DARLENE A
|LAND
130,000
1363 TURNPIKE RD
|BUILDING
248,300
|TOTAL REAL
378,300
378,300
NORWICH VT 05055
|SPEC EXEMPTION
0
TAX MAP:
04-006.000
|
PROP DESC: 5.2 ACRES & DWL
|
911 ADDR: 1363 TURNPIKE RD
|
PARCEL ID: 04-006.000 SPAN: 450-142-12978
|
HOUSESITE:
365,500
ACRES:
5.20 R1 T
|GRAND LIST
3,783.00
3,783.00
-----------------------------------------------------------------------------------------------------------------------------------SAMS FAMILY HICKORY RIDGE LLC
|
MUNICIPAL
HOMESTEAD
NON-RESIDENTIAL
SAMS PIETRINA, PRESIDENT
|LAND
352,600
100 4TH AVENUE SOUTH APT 205
|BUILDING
504,800
|TOTAL REAL
857,400
857,400
ST PETERSBURG FL 33701
|SPEC EXEMPTION
0
TAX MAP:
15-037.100
|
PROP DESC: 74 ACRES & DWL
|
911 ADDR: 159 HICKORY RIDGE
|CURRENT USE
140,400
140,400
PARCEL ID: 15-037.100 SPAN: 450-142-12040
|
HOUSESITE:
692,900
ACRES:
74.00 R2 NS
|GRAND LIST
7,170.00
7,170.00
-----------------------------------------------------------------------------------------------------------------------------------SAMWICK ANDREW
HMSTD FILED |
MUNICIPAL
HOMESTEAD
NON-RESIDENTIAL
SAMWICK MARIA-TERESA
|LAND
201,100
211 UPPER PASTURE RD
|BUILDING
714,100
|TOTAL REAL
915,200
836,649
78,551
NORWICH VT 05055
|SPEC EXEMPTION
0
0
TAX MAP:
11-151.000
|
PROP DESC: 15.65 ACRES & DWL
|
911 ADDR: 211 UPPER PASTURE RD
|
PARCEL ID: 11-151.000 SPAN: 450-142-13104
|
HOUSESITE:
791,949
ACRES:
15.65 R2 T
|GRAND LIST
9,152.00
8,366.49
785.51
-----------------------------------------------------------------------------------------------------------------------------------SANDERS GAIL KILEY LIVING TRUST
|
MUNICIPAL
HOMESTEAD
NON-RESIDENTIAL
|LAND
125,000
496 SHAKER BLVD
|BUILDING
206,800
|TOTAL REAL
331,800
331,800
ENFIELD NH 03748
|SPEC EXEMPTION
0
TAX MAP:
20-076.000
|
PROP DESC: 1.47 ACRES & DWL
|
911 ADDR: 73 GLEN RIDGE RD
|
PARCEL ID: 20-076.000 SPAN: 450-142-11985
|
HOUSESITE:
331,800
ACRES:
1.40 R1 NS
|GRAND LIST
3,318.00
3,318.00
------------------------------------------------------------------------------------------------------------------------------------
06/12/2015
01:32 pm
Town of Norwich Grand List
Grand List Report (Detail)
By Name For All Parcels In All Districts
Page 246
jbynum
PARCEL INFORMATION
TAXABLE VALUATIONS / EXEMPTIONS / CONTRACTS
-----------------------------------------------------------------------------------------------------------------------------------SANDERS NICHOLAS A
|
MUNICIPAL
HOMESTEAD
NON-RESIDENTIAL
SANDERS GAIL
|LAND
126,800
79 GLEN RIDGE RD
|BUILDING
416,600
|TOTAL REAL
543,400
543,400
NORWICH VT 05055
|SPEC EXEMPTION
0
TAX MAP:
20-077.000
|
PROP DESC: 1.41 ACRES & DWL
|
911 ADDR: 79 GLEN RIDGE RD
|
PARCEL ID: 20-077.000 SPAN: 450-142-11984
|
HOUSESITE:
543,400
ACRES:
1.41 R1 T
|GRAND LIST
5,434.00
5,434.00
-----------------------------------------------------------------------------------------------------------------------------------SANDS FRANK E
HMSTD FILED |
MUNICIPAL
HOMESTEAD
NON-RESIDENTIAL
SANDS BRINNA B
|LAND
644,400
288 HOGBACK RD
|BUILDING
694,400
|TOTAL REAL
1338,800
1338,800
NORWICH VT 05055
|SPEC EXEMPTION
0
TAX MAP:
06-041.000
|
PROP DESC: 238.94 ACRES & DWL; INCL ADDL LOT (NV)
|
911 ADDR: 288 HOGBACK RD
|CURRENT USE
481,100
481,100
PARCEL ID: 06-041.000 SPAN: 450-142-12045
|
HOUSESITE:
796,100
ACRES:
238.94 R2 T
|GRAND LIST
8,577.00
8,577.00
-----------------------------------------------------------------------------------------------------------------------------------SARGENT DAVID R
|
MUNICIPAL
HOMESTEAD
NON-RESIDENTIAL
SARGENT ANN S.
|LAND
126,200
397 CAMPBELL FLATS RD
|BUILDING
484,000
|TOTAL REAL
610,200
610,200
NORWICH VT 05055
|SPEC EXEMPTION
0
TAX MAP:
06-021.000
|
PROP DESC: 3.1 ACRES & DWL & OFFICE
|
911 ADDR: 397 CAMPBELL FLATS RD
|
PARCEL ID: 06-021.000 SPAN: 450-142-11770
|
HOUSESITE:
555,900
ACRES:
3.10 R1 T
|GRAND LIST
6,102.00
6,102.00
-----------------------------------------------------------------------------------------------------------------------------------SARGENT DWIGHT ET AL
|
MUNICIPAL
HOMESTEAD
NON-RESIDENTIAL
SARGENT THOMAS A
|LAND
324,000
494 CAMPBELL FLATS RD
|BUILDING
522,300
|TOTAL REAL
846,300
846,300
NORWICH VT 05055
|SPEC EXEMPTION
0
TAX MAP:
06-031.000
|
PROP DESC: 62.75 ACRES & 2 DWLS
|
911 ADDR: 257 CAMPBELL FLATS RD
|CURRENT USE
154,400
154,400
PARCEL ID: 06-031.000 SPAN: 450-142-11764
|
HOUSESITE:
466,100
ACRES:
62.75 R2 T
|GRAND LIST
6,919.00
6,919.00
-----------------------------------------------------------------------------------------------------------------------------------SARGENT DWIGHT O
|
MUNICIPAL
HOMESTEAD
NON-RESIDENTIAL
|LAND
133,700
494 CAMPBELL FLAT RD
|BUILDING
34,000
|TOTAL REAL
167,700
167,700
NORWICH VT 05055
|SPEC EXEMPTION
0
TAX MAP:
06-033.200
|
PROP DESC: 12.1 ACRES & DWL
|
911 ADDR: 98 CAMPBELL FLATS RD
|
PARCEL ID: 06-033.200 SPAN: 450-142-11762
|
HOUSESITE:
136,400
ACRES:
12.10 R2 T
|GRAND LIST
1,677.00
1,677.00
------------------------------------------------------------------------------------------------------------------------------------
06/12/2015
01:32 pm
Town of Norwich Grand List
Grand List Report (Detail)
By Name For All Parcels In All Districts
Page 247
jbynum
PARCEL INFORMATION
TAXABLE VALUATIONS / EXEMPTIONS / CONTRACTS
-----------------------------------------------------------------------------------------------------------------------------------SARGENT FAMILY REALTY TRUST
HMSTD FILED |
MUNICIPAL
HOMESTEAD
NON-RESIDENTIAL
SARGENT, DWIGHT O
|LAND
527,000
494 CAMPBELL FLATS RD
|BUILDING
617,300
|TOTAL REAL
1144,300
1090,300
54,000
NORWICH VT 05055
|SPEC EXEMPTION
0
0
TAX MAP:
06-027.000
|
PROP DESC: 137.9 ACRES & 2 DWLS
|
911 ADDR: 498 CAMPBELL FLATS RD
|CURRENT USE
341,500
341,500
PARCEL ID: 06-027.000 SPAN: 450-142-11775
|
HOUSESITE:
714,600
ACRES:
137.90 F
T
|GRAND LIST
8,028.00
7,488.00
540.00
-----------------------------------------------------------------------------------------------------------------------------------SARGENT FARMS TRUST
|
MUNICIPAL
HOMESTEAD
NON-RESIDENTIAL
C/O D O SARGENT
|LAND
407,000
494 CAMPBELL FLATS RD
|BUILDING
0
|TOTAL REAL
407,000
407,000
NORWICH VT 05055
|SPEC EXEMPTION
0
TAX MAP:
06-033.100
|
PROP DESC: 126.3 ACRES
|
911 ADDR: CAMPBELL FLATS RD
|CURRENT USE
384,300
384,300
PARCEL ID: 06-033.100 SPAN: 450-142-11771
|
HOUSESITE:
0
ACRES:
126.30 M
T
|GRAND LIST
227.00
227.00
-----------------------------------------------------------------------------------------------------------------------------------SARGENT JAMES
HMSTD FILED |
MUNICIPAL
HOMESTEAD
NON-RESIDENTIAL
BERNHARDT AMY
|LAND
0
23 HERITAGE LN
|BUILDING
285,400
|TOTAL REAL
285,400
285,400
NORWICH VT 05055
|SPEC EXEMPTION
0
TAX MAP:
20-043.400
|
PROP DESC: UNIT 4 HERITAGE TOWNHOUSES
|
911 ADDR: 23 HERITAGE LN
|
PARCEL ID: 20-043.400 SPAN: 450-142-11754
|
HOUSESITE:
285,400
ACRES:
0.00 O
T
|GRAND LIST
2,854.00
2,854.00
-----------------------------------------------------------------------------------------------------------------------------------SARGENT JANE O
HMSTD FILED |
MUNICIPAL
HOMESTEAD
NON-RESIDENTIAL
|LAND
170,100
360 CAMPBELL FLATS RD
|BUILDING
317,700
|TOTAL REAL
487,800
487,800
NORWICH VT 05055
|SPEC EXEMPTION
0
TAX MAP:
06-033.300
|
PROP DESC: 7.6 ACRES & DWL
|
911 ADDR: 360 CAMPBELL FLATS RD
|
PARCEL ID: 06-033.300 SPAN: 450-142-11772
|
HOUSESITE:
468,200
ACRES:
7.60 R2 T
|GRAND LIST
4,878.00
4,878.00
-----------------------------------------------------------------------------------------------------------------------------------SARGENT THOMAS A
|
MUNICIPAL
HOMESTEAD
NON-RESIDENTIAL
IJAMS ALLISON D
|LAND
244,400
25 THE WATERWAY
|BUILDING
0
|TOTAL REAL
244,400
244,400
WELLESEY MA 02481-3242
|SPEC EXEMPTION
0
TAX MAP:
06-016.000
|
PROP DESC: 19.75 ACRES INCL 1 ADDL LOT
|
911 ADDR: CAMPBELL FLATS RD
|
PARCEL ID: 06-016.000 SPAN: 450-142-11767
|
HOUSESITE:
0
ACRES:
16.75 M
NS
|GRAND LIST
2,444.00
2,444.00
------------------------------------------------------------------------------------------------------------------------------------
06/12/2015
01:32 pm
Town of Norwich Grand List
Grand List Report (Detail)
By Name For All Parcels In All Districts
Page 248
jbynum
PARCEL INFORMATION
TAXABLE VALUATIONS / EXEMPTIONS / CONTRACTS
-----------------------------------------------------------------------------------------------------------------------------------SAROYAN JOHN M
HMSTD FILED |
MUNICIPAL
HOMESTEAD
NON-RESIDENTIAL
SAROYAN KRISTIN S
|LAND
129,200
102 BOB WHITE LANE
|BUILDING
296,100
|TOTAL REAL
425,300
425,300
NORWICH VT 05055
|SPEC EXEMPTION
0
TAX MAP:
10-084.000
|
PROP DESC: 11.9 ACRES & DWL
|
911 ADDR: 102 BOB WHITE LN
|
PARCEL ID: 10-084.000 SPAN: 450-142-12941
|
HOUSESITE:
397,600
ACRES:
11.90 R2 T
|GRAND LIST
4,253.00
4,253.00
-----------------------------------------------------------------------------------------------------------------------------------SASVARI KATALIN
HMSTD FILED |
MUNICIPAL
HOMESTEAD
NON-RESIDENTIAL
STOCKING JEREMIAH A
|LAND
0
PO BOX 213
|BUILDING
95,700
|TOTAL REAL
95,700
95,700
ETNA NH 03750
|SPEC EXEMPTION
0
TAX MAP:
12-003.260
|
PROP DESC: DWELLING ONLY LOT 6
|
911 ADDR: 55 STARLAKE LN
|
PARCEL ID: 12-003.260 SPAN: 450-142-12693
|
HOUSESITE:
95,700
ACRES:
0.00 R1 T
|GRAND LIST
957.00
957.00
-----------------------------------------------------------------------------------------------------------------------------------SATEIA HOLLY F
|
MUNICIPAL
HOMESTEAD
NON-RESIDENTIAL
|LAND
129,000
5 BRADLEY HILL RD
|BUILDING
400,500
|TOTAL REAL
529,500
529,500
NORWICH VT 05055
|SPEC EXEMPTION
0
TAX MAP:
11-027.000
|
PROP DESC: 1.9 ACRES & DWL
|
911 ADDR: 5 BRADLEY HILL RD
|
PARCEL ID: 11-027.000 SPAN: 450-142-11630
|
HOUSESITE:
529,500
ACRES:
1.90 R1 T
|GRAND LIST
5,295.00
5,295.00
-----------------------------------------------------------------------------------------------------------------------------------SCANLAN MARTIN K
HMSTD FILED |
MUNICIPAL
HOMESTEAD
NON-RESIDENTIAL
SCANLAN MELISSA K
|LAND
109,600
11 TRUMBULL LN
|BUILDING
347,500
|TOTAL REAL
457,100
457,100
NORWICH VT 05055
|SPEC EXEMPTION
0
TAX MAP:
20-126.000
|
PROP DESC: .23 ACRE & DWL
|
911 ADDR: 11 TRUMBULL LN
|
PARCEL ID: 20-126.000 SPAN: 450-142-12874
|
HOUSESITE:
457,100
ACRES:
0.23 R1 T
|GRAND LIST
4,571.00
4,571.00
-----------------------------------------------------------------------------------------------------------------------------------SCHAFFNER WILLIAM A
|
MUNICIPAL
HOMESTEAD
NON-RESIDENTIAL
SONNERUP ANNA M
|LAND
387,700
PO BOX 1309
|BUILDING
1796,300
|TOTAL REAL
2184,000
2184,000
WILSON WY 83014
|SPEC EXEMPTION
0
TAX MAP:
05-119.000
|
PROP DESC: 84 ACRES & DWL
|
911 ADDR: 451 BRADLEY HILL RD
|
PARCEL ID: 05-119.000 SPAN: 450-142-11650
|
HOUSESITE:
1953,800
ACRES:
84.00 R2 NS
|GRAND LIST
21,840.00
21,840.00
------------------------------------------------------------------------------------------------------------------------------------
06/12/2015
01:32 pm
Town of Norwich Grand List
Grand List Report (Detail)
By Name For All Parcels In All Districts
Page 249
jbynum
PARCEL INFORMATION
TAXABLE VALUATIONS / EXEMPTIONS / CONTRACTS
-----------------------------------------------------------------------------------------------------------------------------------SCHEIER HENRY
HMSTD FILED |
MUNICIPAL
HOMESTEAD
NON-RESIDENTIAL
SCHEIER EDYTHE Z
|LAND
140,200
PO BOX 402
|BUILDING
363,100
|TOTAL REAL
503,300
503,300
NORWICH VT 05055-0402
|SPEC EXEMPTION
0
TAX MAP:
05-071.000
|
PROP DESC: 16.3 ACRES & DWL
|
911 ADDR: 1422 UNION VILLAGE RD
|
PARCEL ID: 05-071.000 SPAN: 450-142-13063
|
HOUSESITE:
461,400
ACRES:
16.30 R2 T
|GRAND LIST
5,033.00
5,033.00
-----------------------------------------------------------------------------------------------------------------------------------SCHERER ANDREW M
HMSTD FILED |
MUNICIPAL
HOMESTEAD
NON-RESIDENTIAL
SCHERER EMILY A
|LAND
109,600
23 HAZEN STREET
|BUILDING
165,800
|TOTAL REAL
275,400
275,400
NORWICH VT 05055
|SPEC EXEMPTION
0
TAX MAP:
20-194.000
|
PROP DESC: .23 ACRE & DWL
|
911 ADDR: 23 HAZEN ST
|
PARCEL ID: 20-194.000 SPAN: 450-142-12025
|
HOUSESITE:
275,400
ACRES:
0.23 R1 T
|GRAND LIST
2,754.00
2,754.00
-----------------------------------------------------------------------------------------------------------------------------------SCHERR SYLVIA E REV LIV TRUST
HMSTD FILED |
MUNICIPAL
HOMESTEAD
NON-RESIDENTIAL
|LAND
139,800
P O BOX 436
|BUILDING
628,100
|TOTAL REAL
767,900
767,900
NORWICH VT 05055
|SPEC EXEMPTION
0
TAX MAP:
10-212.000
|
PROP DESC: 4.28 ACRES &DWL
|
911 ADDR: 21 WILLEY HILL RD
|
PARCEL ID: 10-212.000 SPAN: 450-142-13149
|
HOUSESITE:
757,600
ACRES:
4.28 R1 T
|GRAND LIST
7,679.00
7,679.00
-----------------------------------------------------------------------------------------------------------------------------------SCHICKNER NEIL
HMSTD FILED |
MUNICIPAL
HOMESTEAD
NON-RESIDENTIAL
LEVIN LAURIE
|LAND
99,300
8 HAWK PINE RD
|BUILDING
243,100
|TOTAL REAL
342,400
342,400
NORWICH VT 05055
|SPEC EXEMPTION
0
TAX MAP:
11-187.000
|
PROP DESC: 1.06 ACRES & DWL
|
911 ADDR: 8 HAWK PINE RD
|
PARCEL ID: 11-187.000 SPAN: 450-142-12519
|
HOUSESITE:
342,400
ACRES:
1.06 R1 T
|GRAND LIST
3,424.00
3,424.00
-----------------------------------------------------------------------------------------------------------------------------------SCHILLER SUE ANN
HMSTD FILED |
MUNICIPAL
HOMESTEAD
NON-RESIDENTIAL
|LAND
145,800
PO BOX 1417
|BUILDING
868,400
|TOTAL REAL
1014,200
1014,200
NORWICH VT 05055-1417
|SPEC EXEMPTION
0
TAX MAP:
11-067.300
|
PROP DESC: 10.22 ACRES & DWL
|
911 ADDR: 1089 UNION VILLAGE RD
|
PARCEL ID: 11-067.300 SPAN: 450-142-13048
|
HOUSESITE:
984,800
ACRES:
10.22 R2 T
|GRAND LIST
10,142.00
10,142.00
------------------------------------------------------------------------------------------------------------------------------------
06/12/2015
01:32 pm
Town of Norwich Grand List
Grand List Report (Detail)
By Name For All Parcels In All Districts
Page 250
jbynum
PARCEL INFORMATION
TAXABLE VALUATIONS / EXEMPTIONS / CONTRACTS
-----------------------------------------------------------------------------------------------------------------------------------SCHLEICHER PAULA U TRUSTEE
|
MUNICIPAL
HOMESTEAD
NON-RESIDENTIAL
SCHLEICHER MARK C TRUSTEE
|LAND
628,100
PO BOX 590
|BUILDING
2566,400
|TOTAL REAL
3194,500
3194,500
NORWICH VT 05055-0590
|SPEC EXEMPTION
0
TAX MAP:
20-011.000
|
PROP DESC: 197.29 ACRES & DWL
|
911 ADDR: 249 BRAGG HILL RD
|CURRENT USE
427,800
427,800
PARCEL ID: 20-011.000 SPAN: 450-142-11665
|
HOUSESITE:
2560,700
ACRES:
197.29 R2 T
|GRAND LIST
27,667.00
27,667.00
-----------------------------------------------------------------------------------------------------------------------------------SCHLEIN RICHARD A
HMSTD FILED |
MUNICIPAL
HOMESTEAD
NON-RESIDENTIAL
SCHLEIN MARGARET S
|LAND
172,700
RR 2 BOX 373
|BUILDING
471,300
|TOTAL REAL
644,000
644,000
WHITE RIVER JUNCTION VT 05001
|SPEC EXEMPTION
0
TAX MAP:
14-029.000
|
PROP DESC: 5.01 ACRES & DWL
|
911 ADDR: 170 JOSHUA RD
|
PARCEL ID: 14-029.000 SPAN: 450-142-12801
|
HOUSESITE:
630,500
ACRES:
5.01 R1 T
|GRAND LIST
6,440.00
6,440.00
-----------------------------------------------------------------------------------------------------------------------------------SCHLEIPMAN FREDERICK PETER
HMSTD FILED |
MUNICIPAL
HOMESTEAD
NON-RESIDENTIAL
SCHLEIPMAN DOROTHEA F
|LAND
177,000
66 PARTRIDGE HILL
|BUILDING
390,100
|TOTAL REAL
567,100
567,100
NORWICH VT 05055-9637
|SPEC EXEMPTION
0
TAX MAP:
10-201.000
|
PROP DESC: 5.90 ACRES & DWL
|
911 ADDR: 66 PARTRIDGE HILL
|
PARCEL ID: 10-201.000 SPAN: 450-142-12490
|
HOUSESITE:
550,600
ACRES:
5.90 R1 T
|GRAND LIST
5,671.00
5,671.00
-----------------------------------------------------------------------------------------------------------------------------------SCHLEIPMAN RUSSELL
|
MUNICIPAL
HOMESTEAD
NON-RESIDENTIAL
|LAND
123,000
66 PARTRIDGE HILL
|BUILDING
0
|TOTAL REAL
123,000
123,000
NORWICH VT 05055
|SPEC EXEMPTION
0
TAX MAP:
10-207.100
|
PROP DESC: 13.2 ACRES
|
911 ADDR: UNION VILLAGE RD
|
PARCEL ID: 10-207.100 SPAN: 450-142-13005
|
HOUSESITE:
0
ACRES:
13.20 M
T
|GRAND LIST
1,230.00
1,230.00
-----------------------------------------------------------------------------------------------------------------------------------SCHNED ALAN
HMSTD FILED |
MUNICIPAL
HOMESTEAD
NON-RESIDENTIAL
SCHNED ALLISON
|LAND
131,500
47 TILDEN HILL RD
|BUILDING
402,200
|TOTAL REAL
533,700
533,700
NORWICH VT 05055
|SPEC EXEMPTION
0
TAX MAP:
10-067.000
|
PROP DESC: 3 ACRES & DWL
|
911 ADDR: 47 TILDEN HILL RD
|
PARCEL ID: 10-067.000 SPAN: 450-142-12856
|
HOUSESITE:
529,200
ACRES:
3.00 R1 T
|GRAND LIST
5,337.00
5,337.00
------------------------------------------------------------------------------------------------------------------------------------
06/12/2015
01:32 pm
Town of Norwich Grand List
Grand List Report (Detail)
By Name For All Parcels In All Districts
Page 251
jbynum
PARCEL INFORMATION
TAXABLE VALUATIONS / EXEMPTIONS / CONTRACTS
-----------------------------------------------------------------------------------------------------------------------------------SCHOENIG JOSEPH
HMSTD FILED |
MUNICIPAL
HOMESTEAD
NON-RESIDENTIAL
|LAND
117,100
22 EAGLE LA
|BUILDING
202,900
|TOTAL REAL
320,000
320,000
NORWICH VT 05055
|SPEC EXEMPTION
0
TAX MAP:
11-179.000
|
PROP DESC: 1.16 ACRES & DWL
|
911 ADDR: 22 EAGLE LN
|
PARCEL ID: 11-179.000 SPAN: 450-142-12534
|
HOUSESITE:
320,000
ACRES:
1.16 R1 T
|GRAND LIST
3,200.00
3,200.00
-----------------------------------------------------------------------------------------------------------------------------------SCHULLER KATHLEEN I
|
MUNICIPAL
HOMESTEAD
NON-RESIDENTIAL
|LAND
124,300
41 CLIFF RD
|BUILDING
109,800
|TOTAL REAL
234,100
234,100
WELLESLEY HILLS MA 02481
|SPEC EXEMPTION
0
TAX MAP:
05-007.000
|
PROP DESC: 11.5 ACRES & DWL
|
911 ADDR: 1063 NEW BOSTON RD
|
PARCEL ID: 05-007.000 SPAN: 450-142-12349
|
HOUSESITE:
207,600
ACRES:
11.50 R2 NS
|GRAND LIST
2,341.00
2,341.00
-----------------------------------------------------------------------------------------------------------------------------------SCHULTS WILLIAM
HMSTD FILED |
MUNICIPAL
HOMESTEAD
NON-RESIDENTIAL
MAISLEN ELIZABETH
|LAND
155,600
230 ELM ST
|BUILDING
254,900
|TOTAL REAL
410,500
410,500
NORWICH VT 05055
|SPEC EXEMPTION
0
TAX MAP:
20-014.300
|
PROP DESC: 2.25 ACRES & DWL
|
911 ADDR: 230 ELM ST
|
PARCEL ID: 20-014.300 SPAN: 450-142-11966
|
HOUSESITE:
409,400
ACRES:
2.25 R1 T
|GRAND LIST
4,105.00
4,105.00
-----------------------------------------------------------------------------------------------------------------------------------SCHWAB HANS P
HMSTD FILED |
MUNICIPAL
HOMESTEAD
NON-RESIDENTIAL
SCHWAB JEAN P
|LAND
81,500
6 KENDALL STATION RD
|BUILDING
158,100
|TOTAL REAL
239,600
239,600
NORWICH VT 05055
|SPEC EXEMPTION
0
TAX MAP:
12-039.000
|
PROP DESC: 1.3 ACRES & DWL
|
911 ADDR: 6 KENDALL STATION RD
|
PARCEL ID: 12-039.000 SPAN: 450-142-12611
|
HOUSESITE:
239,600
ACRES:
1.30 R1 T
|GRAND LIST
2,396.00
2,396.00
-----------------------------------------------------------------------------------------------------------------------------------SCHWARTZ ERIC A
|
MUNICIPAL
HOMESTEAD
NON-RESIDENTIAL
SCHWARTZ ELIZABETH HOCHMAN
|LAND
321,900
410 E 57TH STREET, APT 9C
|BUILDING
701,400
|TOTAL REAL
1023,300
1023,300
NEW YORK NY 10022
|SPEC EXEMPTION
0
TAX MAP:
14-021.400
|
PROP DESC: 16.98 ACRES & DWL INCL 1 ADDL LOT
|
911 ADDR: 166 DELTA DR
|
PARCEL ID: 14-021.400 SPAN: 450-142-12815
|
HOUSESITE:
858,100
ACRES:
16.98 R2 NS
|GRAND LIST
10,233.00
10,233.00
------------------------------------------------------------------------------------------------------------------------------------
06/12/2015
01:32 pm
Town of Norwich Grand List
Grand List Report (Detail)
By Name For All Parcels In All Districts
Page 252
jbynum
PARCEL INFORMATION
TAXABLE VALUATIONS / EXEMPTIONS / CONTRACTS
-----------------------------------------------------------------------------------------------------------------------------------SCHWARTZMAN JOSEPH D
HMSTD FILED |
MUNICIPAL
HOMESTEAD
NON-RESIDENTIAL
SCHWARTZMAN NANETTE A
|LAND
182,400
PO BOX 1302
|BUILDING
618,700
|TOTAL REAL
801,100
801,100
NORWICH VT 05055-1302
|SPEC EXEMPTION
0
TAX MAP:
06-010.200
|
PROP DESC: 16.2 ACRES & DWL INCL 1 ADDL LOT - NV
|
911 ADDR: 404 VT ROUTE 132
|
PARCEL ID: 06-010.200 SPAN: 450-142-12774
|
HOUSESITE:
759,500
ACRES:
16.20 R2 T
|GRAND LIST
8,011.00
8,011.00
-----------------------------------------------------------------------------------------------------------------------------------SCIBETTA COLLEEN QUINN
|
MUNICIPAL
HOMESTEAD
NON-RESIDENTIAL
|LAND
419,100
358 KERWIN HILL RD
|BUILDING
978,600
|TOTAL REAL
1397,700
1397,700
NORWICH VT 05055
|SPEC EXEMPTION
0
TAX MAP:
05-114.110
|
PROP DESC: 96.2 ACRES & DWL
|
911 ADDR: 358 KERWIN HILL RD
|
PARCEL ID: 05-114.110 SPAN: 450-142-12126
|
HOUSESITE:
1134,500
ACRES:
96.20 R2 T
|GRAND LIST
13,977.00
13,977.00
-----------------------------------------------------------------------------------------------------------------------------------SCIBETTA PAUL LOUIS
|
MUNICIPAL
HOMESTEAD
NON-RESIDENTIAL
SCIBETTA COLLEEN Q.
|LAND
132,400
358 KERWIN HILL RD
|BUILDING
15,400
|TOTAL REAL
147,800
147,800
NORWICH VT 05055
|SPEC EXEMPTION
0
TAX MAP:
05-113.000
|
PROP DESC: 6 ACRES & CAMP
|
911 ADDR: 319 KERWIN HILL RD
|
PARCEL ID: 05-113.000 SPAN: 450-142-12124
|
HOUSESITE:
131,000
ACRES:
6.00 S2 NS
|GRAND LIST
1,478.00
1,478.00
-----------------------------------------------------------------------------------------------------------------------------------SDO GROUP
|
MUNICIPAL
HOMESTEAD
NON-RESIDENTIAL
|LAND
137,000
PO BOX 1090
|BUILDING
425,200
|TOTAL REAL
562,200
562,200
NORWICH VT 05055-1090
|SPEC EXEMPTION
0
TAX MAP:
20-122.000
|
PROP DESC: .10 ACRE & OFFICE BLDG
|
911 ADDR: 2 BEAVER MEADOW RD
|
PARCEL ID: 20-122.000 SPAN: 450-142-12222
|
HOUSESITE:
0
ACRES:
0.10 C
C
|GRAND LIST
5,622.00
5,622.00
-----------------------------------------------------------------------------------------------------------------------------------SEAVER DANIEL B
HMSTD FILED |
MUNICIPAL
HOMESTEAD
NON-RESIDENTIAL
ROSEN LAUREN S
|LAND
141,900
466 NEW BOSTON RD
|BUILDING
389,400
|TOTAL REAL
531,300
531,300
NORWICH VT 05055-9675
|SPEC EXEMPTION
0
TAX MAP:
10-172.000
|
PROP DESC: 15 ACRES & DWL
|
911 ADDR: 466 NEW BOSTON RD
|
PARCEL ID: 10-172.000 SPAN: 450-142-12289
|
HOUSESITE:
492,700
ACRES:
15.00 R2 T
|GRAND LIST
5,313.00
5,313.00
------------------------------------------------------------------------------------------------------------------------------------
06/12/2015
01:32 pm
Town of Norwich Grand List
Grand List Report (Detail)
By Name For All Parcels In All Districts
Page 253
jbynum
PARCEL INFORMATION
TAXABLE VALUATIONS / EXEMPTIONS / CONTRACTS
-----------------------------------------------------------------------------------------------------------------------------------SEAVER VICKIE A
HMSTD FILED |
MUNICIPAL
HOMESTEAD
NON-RESIDENTIAL
SEAVER MICHAEL
|LAND
82,400
1209 NEW BOSTON RD
|BUILDING
61,900
|TOTAL REAL
144,300
144,300
NORWICH VT 05055
|SPEC EXEMPTION
0
TAX MAP:
05-011.000
|
PROP DESC: 1.7 ACRES & DWL & CAMP
|
911 ADDR: 1209 NEW BOSTON RD
|
PARCEL ID: 05-011.000 SPAN: 450-142-12357
|
HOUSESITE:
144,300
ACRES:
1.70 R1 T
|GRAND LIST
1,443.00
1,443.00
-----------------------------------------------------------------------------------------------------------------------------------SEIBERT DEAN J
|
MUNICIPAL
HOMESTEAD
NON-RESIDENTIAL
SEIBERT ANN
|LAND
222,900
386 MAIN ST
|BUILDING
228,000
|TOTAL REAL
450,900
450,900
NORWICH VT 05055
|SPEC EXEMPTION
0
TAX MAP:
15-047.000
|
PROP DESC: 34 ACRES & 3 APT DWL
|
911 ADDR: 360 HOPSON RD
|
PARCEL ID: 15-047.000 SPAN: 450-142-12075
|
HOUSESITE:
356,000
ACRES:
34.00 R2 T
|GRAND LIST
4,509.00
4,509.00
-----------------------------------------------------------------------------------------------------------------------------------SEIBERT DEAN J
HMSTD FILED |
MUNICIPAL
HOMESTEAD
NON-RESIDENTIAL
SEIBERT ANN
|LAND
137,000
386 MAIN ST
|BUILDING
266,300
|TOTAL REAL
403,300
352,912
50,388
NORWICH VT 05055
|SPEC EXEMPTION
0
0
TAX MAP:
20-202.000
|
PROP DESC: .38 ACRE & DWL/APT
|
911 ADDR: 386 MAIN ST
|
PARCEL ID: 20-202.000 SPAN: 450-142-12430
|
HOUSESITE:
352,912
ACRES:
0.38 R1 T
|GRAND LIST
4,033.00
3,529.12
503.88
-----------------------------------------------------------------------------------------------------------------------------------SEIFFERT ELLEN A
|
MUNICIPAL
HOMESTEAD
NON-RESIDENTIAL
OREM ALEXANDER R
|LAND
115,300
74 CARPENTER STREET
|BUILDING
422,600
|TOTAL REAL
537,900
537,900
NORWICH VT 05055
|SPEC EXEMPTION
0
TAX MAP:
16-044.000
|
PROP DESC: .34 ACRE & DWL
|
911 ADDR: 55 CHURCH ST
|
PARCEL ID: 16-044.000 SPAN: 450-142-11850
|
HOUSESITE:
537,900
ACRES:
0.34 R1 T
|GRAND LIST
5,379.00
5,379.00
-----------------------------------------------------------------------------------------------------------------------------------SEIGNE JOHN D
HMSTD FILED |
MUNICIPAL
HOMESTEAD
NON-RESIDENTIAL
SEIGNE PATRICIA
|LAND
205,900
280 DUTTON HILL RD
|BUILDING
764,800
|TOTAL REAL
970,700
970,700
NORWICH VT 05055-9404
|SPEC EXEMPTION
0
TAX MAP:
15-020.100
|
PROP DESC: 17.4 ACRES & DWL
|
911 ADDR: 280 DUTTON HILL CENTER
|
PARCEL ID: 15-020.100 SPAN: 450-142-11929
|
HOUSESITE:
926,100
ACRES:
17.40 R2 T
|GRAND LIST
9,707.00
9,707.00
------------------------------------------------------------------------------------------------------------------------------------
06/12/2015
01:32 pm
Town of Norwich Grand List
Grand List Report (Detail)
By Name For All Parcels In All Districts
Page 254
jbynum
PARCEL INFORMATION
TAXABLE VALUATIONS / EXEMPTIONS / CONTRACTS
-----------------------------------------------------------------------------------------------------------------------------------SELLMAN PAUL V
|
MUNICIPAL
HOMESTEAD
NON-RESIDENTIAL
|LAND
648,300
1686 NEW BOSTON RD
|BUILDING
504,500
|TOTAL REAL
1152,800
1152,800
NORWICH VT 05055
|SPEC EXEMPTION
0
TAX MAP:
01-011.000
|
PROP DESC: 182.2 ACRES & DWL INCL 1 ADDL LOT
|
911 ADDR: 1686 NEW BOSTON RD
|CURRENT USE
523,200
523,200
PARCEL ID: 01-011.000 SPAN: 450-142-12380
|
HOUSESITE:
604,100
ACRES:
182.20 R2 T
|GRAND LIST
6,296.00
6,296.00
-----------------------------------------------------------------------------------------------------------------------------------SEVERANCE MICHAEL
|
MUNICIPAL
HOMESTEAD
NON-RESIDENTIAL
|LAND
83,100
169 LEXINGTON RD
|BUILDING
23,000
|TOTAL REAL
106,100
106,100
COLCHESTER VT 05446
|SPEC EXEMPTION
0
TAX MAP:
14-006.000
|
PROP DESC: 12 ACRES & CAMP
|
911 ADDR: 1019 PODUNK RD
|
PARCEL ID: 14-006.000 SPAN: 450-142-12595
|
HOUSESITE:
78,500
ACRES:
12.00 S2 S
|GRAND LIST
1,061.00
1,061.00
-----------------------------------------------------------------------------------------------------------------------------------SEVERINGHAUS JOHN M
HMSTD FILED |
MUNICIPAL
HOMESTEAD
NON-RESIDENTIAL
SEVERINGHAUS MARGARITA R
|LAND
163,500
222 TUCKER HILL RD
|BUILDING
606,500
|TOTAL REAL
770,000
681,600
88,400
NORWICH VT 05055
|SPEC EXEMPTION
0
0
TAX MAP:
09-027.000
|
PROP DESC: 14.1 ACRES & 2 DWLS
|
911 ADDR: 222 TUCKER HILL RD
|
PARCEL ID: 09-027.000 SPAN: 450-142-12883
|
HOUSESITE:
645,200
ACRES:
14.10 R2 T
|GRAND LIST
7,700.00
6,816.00
884.00
-----------------------------------------------------------------------------------------------------------------------------------SEYBOLD ERIC SCOTT
|
MUNICIPAL
HOMESTEAD
NON-RESIDENTIAL
FOSTER TARYN L.
|LAND
120,100
PO BOX 1341
|BUILDING
217,500
|TOTAL REAL
337,600
337,600
NORWICH VT 05055
|SPEC EXEMPTION
0
TAX MAP:
20-080.000
|
PROP DESC: 1.29 ACRE & DWL
|
911 ADDR: 18 GLEN RIDGE RD
|
PARCEL ID: 20-080.000 SPAN: 450-142-11977
|
HOUSESITE:
337,600
ACRES:
1.29 R1 T
|GRAND LIST
3,376.00
3,376.00
-----------------------------------------------------------------------------------------------------------------------------------SEYMOUR SANDRA E.
|
MUNICIPAL
HOMESTEAD
NON-RESIDENTIAL
|LAND
141,200
31 MT TABOR RD
|BUILDING
246,600
|TOTAL REAL
387,800
387,800
NORWICH VT 05055
|SPEC EXEMPTION
0
TAX MAP:
05-004.100
|
PROP DESC: 17.55 ACRES & DWL
|
911 ADDR: 31 MOUNT TABOR RD
|
PARCEL ID: 05-004.100 SPAN: 450-142-12335
|
HOUSESITE:
347,800
ACRES:
17.55 R2 T
|GRAND LIST
3,878.00
3,878.00
------------------------------------------------------------------------------------------------------------------------------------
06/12/2015
01:32 pm
Town of Norwich Grand List
Grand List Report (Detail)
By Name For All Parcels In All Districts
Page 255
jbynum
PARCEL INFORMATION
TAXABLE VALUATIONS / EXEMPTIONS / CONTRACTS
-----------------------------------------------------------------------------------------------------------------------------------SHAMBO PHYLLIS M TRUSTEE
|
MUNICIPAL
HOMESTEAD
NON-RESIDENTIAL
PHYLLIS M SHAMBO REV TRUST
|LAND
169,400
PO BOX 825
|BUILDING
0
|TOTAL REAL
169,400
169,400
WHITE RIVER JUNCTION VT 05001-0825
|SPEC EXEMPTION
0
TAX MAP:
08-002.000
|
PROP DESC: 47 ACRES
|
911 ADDR: TIGERTOWN RD
|
PARCEL ID: 08-002.000 SPAN: 450-142-12850
|
HOUSESITE:
0
ACRES:
47.00 M
S
|GRAND LIST
1,694.00
1,694.00
-----------------------------------------------------------------------------------------------------------------------------------SHANNON CYNTHIA M
|
MUNICIPAL
HOMESTEAD
NON-RESIDENTIAL
ANTAL JAMES M
|LAND
147,800
600 SALEM END RD
|BUILDING
398,100
|TOTAL REAL
545,900
545,900
FRAMINGHAM MA 01702
|SPEC EXEMPTION
0
TAX MAP:
11-050.130
|
PROP DESC: 11.06 AC & DWL
|
911 ADDR: 829 UNION VILLAGE RD
|
PARCEL ID: 11-050.130 SPAN: 450-142-13035
|
HOUSESITE:
520,400
ACRES:
11.06 R2 NS
|GRAND LIST
5,459.00
5,459.00
-----------------------------------------------------------------------------------------------------------------------------------SHARLET JEFFREY C
HMSTD FILED |
MUNICIPAL
HOMESTEAD
NON-RESIDENTIAL
RABIG JULIA A
|LAND
102,300
1163 NEW BOSTON RD
|BUILDING
280,100
|TOTAL REAL
382,400
382,400
NORWICH VT 05055
|SPEC EXEMPTION
0
TAX MAP:
05-009.000
|
PROP DESC: 2 ACRES & DWL
|
911 ADDR: 1163 NEW BOSTON RD
|
PARCEL ID: 05-009.000 SPAN: 450-142-12355
|
HOUSESITE:
382,400
ACRES:
2.00 R1 T
|GRAND LIST
3,824.00
3,824.00
-----------------------------------------------------------------------------------------------------------------------------------SHAW FRANZISKA R TRUSTEE
|
MUNICIPAL
HOMESTEAD
NON-RESIDENTIAL
SHAW R DESMOND TRUSTEE
|LAND
732,400
630 A STREET SE
|BUILDING
719,700
|TOTAL REAL
1452,100
1452,100
WASHINGTON DC 20003
|SPEC EXEMPTION
0
TAX MAP:
04-048.000
|
PROP DESC: 98 ACRES & DWL INCL 3 ADDL LOTS
|
911 ADDR: 430 UPPER TURNPIKE RD
|CURRENT USE
582,400
582,400
PARCEL ID: 04-048.000 SPAN: 450-142-13121
|
HOUSESITE:
786,030
ACRES:
98.00 R2 NS
|GRAND LIST
8,697.00
8,697.00
-----------------------------------------------------------------------------------------------------------------------------------SHEETS JOHN EDRINGTON
HMSTD FILED |
MUNICIPAL
HOMESTEAD
NON-RESIDENTIAL
SHEETS DEIRDRE OCONNER
|LAND
142,200
63 OLD FARM RD
|BUILDING
331,000
|TOTAL REAL
473,200
473,200
NORWICH VT 05055
|SPEC EXEMPTION
0
TAX MAP:
10-125.200
|
PROP DESC: 6.32 ACRES & DWL
|
911 ADDR: 63 OLD FARM RD
|
PARCEL ID: 10-125.200 SPAN: 450-142-11891
|
HOUSESITE:
457,200
ACRES:
6.32 R2 T
|GRAND LIST
4,732.00
4,732.00
------------------------------------------------------------------------------------------------------------------------------------
06/12/2015
01:32 pm
Town of Norwich Grand List
Grand List Report (Detail)
By Name For All Parcels In All Districts
Page 256
jbynum
PARCEL INFORMATION
TAXABLE VALUATIONS / EXEMPTIONS / CONTRACTS
-----------------------------------------------------------------------------------------------------------------------------------SHEPHERD CALEB J
HMSTD FILED |
MUNICIPAL
HOMESTEAD
NON-RESIDENTIAL
|LAND
132,300
465 NEW BOSTON RD
|BUILDING
202,200
|TOTAL REAL
334,500
334,500
NORWICH VT 05055
|SPEC EXEMPTION
0
TAX MAP:
10-158.100
|
PROP DESC: 12.58 ACRES
|
911 ADDR: 465 NEW BOSTON RD
|
PARCEL ID: 10-158.100 SPAN: 450-142-13340
|
HOUSESITE:
305,600
ACRES:
12.58 R2 T
|GRAND LIST
3,345.00
3,345.00
-----------------------------------------------------------------------------------------------------------------------------------SHEPHERD JENNIFER A
HMSTD FILED |
MUNICIPAL
HOMESTEAD
NON-RESIDENTIAL
|LAND
69,400
164 CHURCH ST
|BUILDING
262,800
|TOTAL REAL
332,200
332,200
NORWICH VT 05055
|SPEC EXEMPTION
0
TAX MAP:
16-054.000
|
PROP DESC: .23 ACRE & DWL
|
911 ADDR: 164 CHURCH ST
|
PARCEL ID: 16-054.000 SPAN: 450-142-11867
|
HOUSESITE:
332,200
ACRES:
0.23 R1 T
|GRAND LIST
3,322.00
3,322.00
-----------------------------------------------------------------------------------------------------------------------------------SHEPHERD JOHN E
HMSTD FILED |
MUNICIPAL
HOMESTEAD
NON-RESIDENTIAL
SHEPHERD KATHLEEN
|LAND
117,500
447 NEW BOSTON RD
|BUILDING
321,900
|TOTAL REAL
439,400
439,400
NORWICH VT 05055
|SPEC EXEMPTION
0
TAX MAP:
10-158.000
|
PROP DESC: 5.32 ACRES & DWL
|
911 ADDR: 447 NEW BOSTON RD
|
PARCEL ID: 10-158.000 SPAN: 450-142-12290
|
HOUSESITE:
426,300
ACRES:
5.32 R1 T
|GRAND LIST
4,394.00
4,394.00
-----------------------------------------------------------------------------------------------------------------------------------SHERWIN BEVERLY
HMSTD FILED |
MUNICIPAL
HOMESTEAD
NON-RESIDENTIAL
|LAND
152,200
PO BOX 756
|BUILDING
649,100
|TOTAL REAL
801,300
375,700
425,600
NORWICH VT 05055-0756
|SPEC EXEMPTION
0
0
TAX MAP:
16-053.000
|
PROP DESC: 20 ACRES & 3 DWLS
|
911 ADDR: 48 FRENCH FARM ED
|
PARCEL ID: 16-053.000 SPAN: 450-142-11865
|
HOUSESITE:
324,700
ACRES:
20.00 R2 T
|GRAND LIST
8,013.00
3,757.00
4,256.00
-----------------------------------------------------------------------------------------------------------------------------------SHERWIN ROBERT W
HMSTD FILED |
MUNICIPAL
HOMESTEAD
NON-RESIDENTIAL
JAMES CHRISTIE D.
|LAND
410,900
PO BOX 408
|BUILDING
576,800
|TOTAL REAL
987,700
854,500
133,200
NORWICH VT 05055-0408
|SPEC EXEMPTION
0
0
TAX MAP:
12-003.100
|
PROP DESC: 113.99 ARES & DWL/BLDGS & ADDL LOT (NV)
|
911 ADDR: 256 FARRELL FARM RD
|CURRENT USE
224,800
224,800
PARCEL ID: 12-003.100 SPAN: 450-142-12686
|
HOUSESITE:
543,100
ACRES:
113.99 F
T
|GRAND LIST
7,629.00
6,297.00
1,332.00
------------------------------------------------------------------------------------------------------------------------------------
06/12/2015
01:32 pm
Town of Norwich Grand List
Grand List Report (Detail)
By Name For All Parcels In All Districts
Page 257
jbynum
PARCEL INFORMATION
TAXABLE VALUATIONS / EXEMPTIONS / CONTRACTS
-----------------------------------------------------------------------------------------------------------------------------------SHERWIN ZEPHYR T
|
MUNICIPAL
HOMESTEAD
NON-RESIDENTIAL
|LAND
127,700
PO BOX 756
|BUILDING
183,700
|TOTAL REAL
311,400
311,400
NORWICH VT 05055-0756
|SPEC EXEMPTION
0
TAX MAP:
16-025.000
|
PROP DESC: 1.6 ACRES & DWL/APT
|
911 ADDR: 123 CHURCH ST
|
PARCEL ID: 16-025.000 SPAN: 450-142-11861
|
HOUSESITE:
311,400
ACRES:
1.60 R1 T
|GRAND LIST
3,114.00
3,114.00
-----------------------------------------------------------------------------------------------------------------------------------SHIELD ROBIN
|
MUNICIPAL
HOMESTEAD
NON-RESIDENTIAL
|LAND
144,100
66 CHURCH ST
|BUILDING
0
|TOTAL REAL
144,100
144,100
NORWICH VT 05055
|SPEC EXEMPTION
0
TAX MAP:
20-068.100
|
PROP DESC: 10.11 ACRES
|
911 ADDR: DUTTON HILL
|
PARCEL ID: 20-068.100 SPAN: 450-142-12207
|
HOUSESITE:
0
ACRES:
10.11 M
T
|GRAND LIST
1,441.00
1,441.00
-----------------------------------------------------------------------------------------------------------------------------------SHIELD ROBIN R
|
MUNICIPAL
HOMESTEAD
NON-RESIDENTIAL
TARIOT JOHN A
|LAND
416,600
66 CHURCH ST
|BUILDING
0
|TOTAL REAL
416,600
416,600
NORWICH VT 05055
|SPEC EXEMPTION
0
TAX MAP:
05-121.000
|
PROP DESC: 119 ACRES
|
911 ADDR: BRADLEY HILL RD
|
PARCEL ID: 05-121.000 SPAN: 450-142-11653
|
HOUSESITE:
0
ACRES:
119.00 M
T
|GRAND LIST
4,166.00
4,166.00
-----------------------------------------------------------------------------------------------------------------------------------SHULTZ EDWARD K
|
MUNICIPAL
HOMESTEAD
NON-RESIDENTIAL
SHULTZ PATRICIA
|LAND
145,100
709 ROANTREE DR
|BUILDING
209,200
|TOTAL REAL
354,300
354,300
BRENTWOOD TN 37027
|SPEC EXEMPTION
0
TAX MAP:
15-051.000
|
PROP DESC: 2.7 ACRES & DWL
|
911 ADDR: 308 HOPSON RD
|
PARCEL ID: 15-051.000 SPAN: 450-142-12069
|
HOUSESITE:
351,200
ACRES:
2.70 R1 NS
|GRAND LIST
3,543.00
3,543.00
-----------------------------------------------------------------------------------------------------------------------------------SIGLER ANDREW C TRUSTEE
HMSTD FILED |
MUNICIPAL
HOMESTEAD
NON-RESIDENTIAL
ANDREW C SIGLER REV TRUST
|LAND
330,600
PO BOX 1105
|BUILDING
909,300
|TOTAL REAL
1239,900
1061,800
178,100
NORWICH VT 05055-1105
|SPEC EXEMPTION
0
0
TAX MAP:
10-028.000
|
PROP DESC: 88.1 ACRES & DWL
|
911 ADDR: 1046 BEAVER MEADOW RD
|CURRENT USE
166,800
166,800
PARCEL ID: 10-028.000 SPAN: 450-142-11597
|
HOUSESITE:
859,000
ACRES:
88.10 R2 T
|GRAND LIST
10,731.00
8,950.00
1,781.00
------------------------------------------------------------------------------------------------------------------------------------
06/12/2015
01:32 pm
Town of Norwich Grand List
Grand List Report (Detail)
By Name For All Parcels In All Districts
Page 258
jbynum
PARCEL INFORMATION
TAXABLE VALUATIONS / EXEMPTIONS / CONTRACTS
-----------------------------------------------------------------------------------------------------------------------------------SIGLER ANDREW C TRUSTEE
|
MUNICIPAL
HOMESTEAD
NON-RESIDENTIAL
ANDREW C SIGLER REV TRUST
|LAND
334,700
PO BOX 1105
|BUILDING
0
|TOTAL REAL
334,700
334,700
NORWICH VT 05055-1105
|SPEC EXEMPTION
0
TAX MAP:
10-076.600
|
PROP DESC: 100.3 ACRES
|
911 ADDR: BEAVER MEADOW RD
|CURRENT USE
321,600
321,600
PARCEL ID: 10-076.600 SPAN: 450-142-12931
|
HOUSESITE:
0
ACRES:
100.30 M
T
|GRAND LIST
131.00
131.00
-----------------------------------------------------------------------------------------------------------------------------------SIGLER MARGARET R TRUSTEE
|
MUNICIPAL
HOMESTEAD
NON-RESIDENTIAL
MARGARET R SIGLER REV TRUST
|LAND
116,500
PO BOX 1105
|BUILDING
0
|TOTAL REAL
116,500
116,500
NORWICH VT 05055-1105
|SPEC EXEMPTION
0
TAX MAP:
10-031.200
|
PROP DESC: 5.5 ACRES
|
911 ADDR: 916 BEAVER MEADOW RD
|
PARCEL ID: 10-031.200 SPAN: 450-142-11593
|
HOUSESITE:
0
ACRES:
5.50 M
T
|GRAND LIST
1,165.00
1,165.00
-----------------------------------------------------------------------------------------------------------------------------------SIGLER MARGARET R TRUSTEE
|
MUNICIPAL
HOMESTEAD
NON-RESIDENTIAL
MARGARET R SIGLER REV TRUST
|LAND
956,500
PO BOX 1105
|BUILDING
326,000
|TOTAL REAL
1282,500
1282,500
NORWICH VT 05055-1105
|SPEC EXEMPTION
0
TAX MAP:
10-078.000
|
PROP DESC: 264.21 AC & DWL & MH INC 1 ADDL LOT
|
911 ADDR: 747 TURNPIKE RD
|CURRENT USE
644,600
644,600
PARCEL ID: 10-078.000 SPAN: 450-142-12933
|
HOUSESITE:
412,200
ACRES:
264.21 R2 T
|GRAND LIST
6,379.00
6,379.00
-----------------------------------------------------------------------------------------------------------------------------------SILBERFARB ANNE W
HMSTD FILED |
MUNICIPAL
HOMESTEAD
NON-RESIDENTIAL
SILBERFARB PETER M
|LAND
196,400
287 BRAGG HILL RD
|BUILDING
465,900
|TOTAL REAL
662,300
662,300
NORWICH VT 05055
|SPEC EXEMPTION
0
TAX MAP:
15-024.000
|
PROP DESC: 13.4 ACRES & DWL
|
911 ADDR: 287 BRAGG HILL RD
|
PARCEL ID: 15-024.000 SPAN: 450-142-11666
|
HOUSESITE:
627,700
ACRES:
13.40 R2 T
|GRAND LIST
6,623.00
6,623.00
-----------------------------------------------------------------------------------------------------------------------------------SIMMERS CLAYTON
|
MUNICIPAL
HOMESTEAD
NON-RESIDENTIAL
HAMILL SIMMERS SUSAN
|LAND
218,100
353 DUTTON HILL RD
|BUILDING
706,100
|TOTAL REAL
924,200
924,200
NORWICH VT 05055
|SPEC EXEMPTION
0
TAX MAP:
15-022.000
|
PROP DESC: 5.7 ACRES & DWL
|
911 ADDR: 353 DUTTON HILL WEST
|
PARCEL ID: 15-022.000 SPAN: 450-142-11676
|
HOUSESITE:
908,400
ACRES:
5.70 R1 T
|GRAND LIST
9,242.00
9,242.00
------------------------------------------------------------------------------------------------------------------------------------
06/12/2015
01:32 pm
Town of Norwich Grand List
Grand List Report (Detail)
By Name For All Parcels In All Districts
Page 259
jbynum
PARCEL INFORMATION
TAXABLE VALUATIONS / EXEMPTIONS / CONTRACTS
-----------------------------------------------------------------------------------------------------------------------------------SIMONS RICHARD J
|
MUNICIPAL
HOMESTEAD
NON-RESIDENTIAL
SIMONS KATHRYN H
|LAND
131,000
98 MYSTIC DR
|BUILDING
556,000
|TOTAL REAL
687,000
687,000
NORWICH VT 05055
|SPEC EXEMPTION
0
TAX MAP:
11-152.500
|
PROP DESC: 4.25 ACRES & DWL
|
911 ADDR: 98 MYSTIC DR
|
PARCEL ID: 11-152.500 SPAN: 450-142-11994
|
HOUSESITE:
676,900
ACRES:
4.25 R1 T
|GRAND LIST
6,870.00
6,870.00
-----------------------------------------------------------------------------------------------------------------------------------SIMPSON EARLE M JR
|
MUNICIPAL
HOMESTEAD
NON-RESIDENTIAL
SIMPSON JACQUELINE
|LAND
153,200
121 MCKENNA RD
|BUILDING
428,000
|TOTAL REAL
581,200
581,200
NORWICH VT 05055
|SPEC EXEMPTION
0
TAX MAP:
16-080.000
|
PROP DESC: 9.51 ACRES & DWL
|
911 ADDR: 121 MCKENNA RD
|
PARCEL ID: 16-080.000 SPAN: 450-142-12197
|
HOUSESITE:
556,600
ACRES:
9.51 R2 T
|GRAND LIST
5,812.00
5,812.00
-----------------------------------------------------------------------------------------------------------------------------------SIMPSON MAURICE E
|
MUNICIPAL
HOMESTEAD
NON-RESIDENTIAL
SIMPSON BONNIE M
|LAND
115,100
PO BOX 275
|BUILDING
16,900
|TOTAL REAL
132,000
132,000
PITTSBURG NH 03592-0275
|SPEC EXEMPTION
0
TAX MAP:
05-047.000
|
PROP DESC: .8 ACRE & CAMP
|
911 ADDR: 298 KERWIN HILL RD
|
PARCEL ID: 05-047.000 SPAN: 450-142-12123
|
HOUSESITE:
132,000
ACRES:
0.80 S1 NS
|GRAND LIST
1,320.00
1,320.00
-----------------------------------------------------------------------------------------------------------------------------------SIMPSON MICHAEL H.
HMSTD FILED |
MUNICIPAL
HOMESTEAD
NON-RESIDENTIAL
SIMPSON MARION
|LAND
122,400
48 BRIGHAM HILL RD
|BUILDING
315,000
|TOTAL REAL
437,400
437,400
NORWICH VT 05055
|SPEC EXEMPTION
0
TAX MAP:
10-053.000
|
PROP DESC: 2 ACRES & DWL
|
911 ADDR: 48 BRIGHAM HILL RD
|
PARCEL ID: 10-053.000 SPAN: 450-142-11705
|
HOUSESITE:
437,400
ACRES:
2.00 R1 T
|GRAND LIST
4,374.00
4,374.00
-----------------------------------------------------------------------------------------------------------------------------------SINGER BRIAH
HMSTD FILED |
MUNICIPAL
HOMESTEAD
NON-RESIDENTIAL
|LAND
0
59 STARLAKE LN
|BUILDING
106,400
|TOTAL REAL
106,400
106,400
NORWICH VT 05055-9300
|SPEC EXEMPTION
0
TAX MAP:
12-003.270
|
PROP DESC: DWELLING ONLY LOT 7
|
911 ADDR: 59 STARLAKE LN
|
PARCEL ID: 12-003.270 SPAN: 450-142-12694
|
HOUSESITE:
106,400
ACRES:
0.00 R1 T
|GRAND LIST
1,064.00
1,064.00
------------------------------------------------------------------------------------------------------------------------------------
06/12/2015
01:32 pm
Town of Norwich Grand List
Grand List Report (Detail)
By Name For All Parcels In All Districts
Page 260
jbynum
PARCEL INFORMATION
TAXABLE VALUATIONS / EXEMPTIONS / CONTRACTS
-----------------------------------------------------------------------------------------------------------------------------------SLATER MINNIE
HMSTD FILED |
MUNICIPAL
HOMESTEAD
NON-RESIDENTIAL
|LAND
0
1671 BEAVER MEADOW RD
|BUILDING
4,700
|TOTAL REAL
4,700
4,700
NORWICH VT 05055
|SPEC EXEMPTION
0
TAX MAP:
03-011.100
|
PROP DESC: UNLANDED MH
|
911 ADDR: 1671 BEAVER MEADOW RD
|
PARCEL ID: 03-011.100 SPAN: 450-142-13167
|
HOUSESITE:
4,700
ACRES:
0.00 MHU T
|GRAND LIST
47.00
47.00
-----------------------------------------------------------------------------------------------------------------------------------SMITH CHRISTOPHER
HMSTD FILED |
MUNICIPAL
HOMESTEAD
NON-RESIDENTIAL
|LAND
98,900
248 HOGBACK RD
|BUILDING
337,500
|TOTAL REAL
436,400
436,400
NORWICH VT 05055
|SPEC EXEMPTION
0
TAX MAP:
06-043.200
|
PROP DESC: 2.06 ACRES & DWL
|
911 ADDR: 248 HOGBACK RD
|
PARCEL ID: 06-043.200 SPAN: 450-142-12046
|
HOUSESITE:
436,100
ACRES:
2.06 R1 T
|GRAND LIST
4,364.00
4,364.00
-----------------------------------------------------------------------------------------------------------------------------------SMITH DAVID C
HMSTD FILED |
MUNICIPAL
HOMESTEAD
NON-RESIDENTIAL
SMITH PAULINE
|LAND
117,700
328 NORFORD LAKE RD
|BUILDING
172,900
|TOTAL REAL
290,600
290,600
NORWICH VT 05055
|SPEC EXEMPTION
0
TAX MAP:
05-028.000
|
PROP DESC: 5.25 ACRES & DWL
|
911 ADDR: 328 NORFORD LAKE RD
|
PARCEL ID: 05-028.000 SPAN: 450-142-12403
|
HOUSESITE:
276,300
ACRES:
5.25 R1 T
|GRAND LIST
2,906.00
2,906.00
-----------------------------------------------------------------------------------------------------------------------------------SMITH EARL
HMSTD FILED |
MUNICIPAL
HOMESTEAD
NON-RESIDENTIAL
|LAND
121,100
607 VT RTE 132
|BUILDING
166,900
|TOTAL REAL
288,000
288,000
NORWICH VT 05055
|SPEC EXEMPTION
0
TAX MAP:
05-066.000
|
PROP DESC: 1.5 ACRES & DWL
|
911 ADDR: 607 VT ROUTE 132
|
PARCEL ID: 05-066.000 SPAN: 450-142-12777
|
HOUSESITE:
288,000
ACRES:
1.50 R1 T
|GRAND LIST
2,880.00
2,880.00
-----------------------------------------------------------------------------------------------------------------------------------SMITH FREDERICK
HMSTD FILED |
MUNICIPAL
HOMESTEAD
NON-RESIDENTIAL
SMITH JANET
|LAND
144,800
287 BLOOD HILL RD
|BUILDING
148,200
|TOTAL REAL
293,000
293,000
NORWICH VT 05055
|SPEC EXEMPTION
0
TAX MAP:
11-137.000
|
PROP DESC: 15.22 ACRES & DWL
|
911 ADDR: 287 BLOOD HILL RD
|
PARCEL ID: 11-137.000 SPAN: 450-142-13021
|
HOUSESITE:
249,500
ACRES:
15.22 R2 T
|GRAND LIST
2,930.00
2,930.00
------------------------------------------------------------------------------------------------------------------------------------
06/12/2015
01:32 pm
Town of Norwich Grand List
Grand List Report (Detail)
By Name For All Parcels In All Districts
Page 261
jbynum
PARCEL INFORMATION
TAXABLE VALUATIONS / EXEMPTIONS / CONTRACTS
-----------------------------------------------------------------------------------------------------------------------------------SMITH KATHERINE M
HMSTD FILED |
MUNICIPAL
HOMESTEAD
NON-RESIDENTIAL
|LAND
192,600
150 KENDALL STATION RD
|BUILDING
217,900
|TOTAL REAL
410,500
410,500
NORWICH VT 05055
|SPEC EXEMPTION
0
TAX MAP:
12-030.000
|
PROP DESC: 1.17 ACRES & DWL
|
911 ADDR: 150 KENDALL STATION RD
|
PARCEL ID: 12-030.000 SPAN: 450-142-12626
|
HOUSESITE:
410,500
ACRES:
1.17 R1 T
|GRAND LIST
4,105.00
4,105.00
-----------------------------------------------------------------------------------------------------------------------------------SMITH MARTIA REED TRUST
HMSTD FILED |
MUNICIPAL
HOMESTEAD
NON-RESIDENTIAL
|LAND
165,700
PO BOX 189
|BUILDING
553,100
|TOTAL REAL
718,800
642,400
76,400
NORWICH VT 05055-0189
|SPEC EXEMPTION
0
0
TAX MAP:
20-140.000
|
PROP DESC: 4.49 ACRES & DWL
|
911 ADDR: 495 MAIN ST
|
PARCEL ID: 20-140.000 SPAN: 450-142-12448
|
HOUSESITE:
631,200
ACRES:
4.49 R1 T
|GRAND LIST
7,188.00
6,424.00
764.00
-----------------------------------------------------------------------------------------------------------------------------------SMITH SYBIL
HMSTD FILED |
MUNICIPAL
HOMESTEAD
NON-RESIDENTIAL
|LAND
155,300
96 KENDALL STATION RD
|BUILDING
137,700
|TOTAL REAL
293,000
293,000
NORWICH VT 05055
|SPEC EXEMPTION
0
TAX MAP:
12-031.000
|
PROP DESC: .43 ACRE & DWL
|
911 ADDR: 96 KENDALL STATION RD
|
PARCEL ID: 12-031.000 SPAN: 450-142-12622
|
HOUSESITE:
293,000
ACRES:
0.50 R1 T
|GRAND LIST
2,930.00
2,930.00
-----------------------------------------------------------------------------------------------------------------------------------SMITH SYDNEY E
|
MUNICIPAL
HOMESTEAD
NON-RESIDENTIAL
|LAND
89,500
256 DUTTON HILL
|BUILDING
0
|TOTAL REAL
89,500
89,500
NORWICH VT 05055
|SPEC EXEMPTION
0
TAX MAP:
09-051.000
|
PROP DESC: 10.2 ACRES
|
911 ADDR: TIGERTOWN RD
|
PARCEL ID: 09-051.000 SPAN: 450-142-12833
|
HOUSESITE:
0
ACRES:
10.20 M
T
|GRAND LIST
895.00
895.00
-----------------------------------------------------------------------------------------------------------------------------------SMITH TRUSTEE, BARRY D.
HMSTD FILED |
MUNICIPAL
HOMESTEAD
NON-RESIDENTIAL
|LAND
179,800
PO BOX 238
|BUILDING
570,900
|TOTAL REAL
750,700
750,700
NORWICH VT 05055
|SPEC EXEMPTION
0
TAX MAP:
11-200.000
|
PROP DESC: 13.1 ACRES & DWL
|
911 ADDR: 195 WILLEY HILL RD
|
PARCEL ID: 11-200.000 SPAN: 450-142-13163
|
HOUSESITE:
720,600
ACRES:
13.10 R2 T
|GRAND LIST
7,507.00
7,507.00
------------------------------------------------------------------------------------------------------------------------------------
06/12/2015
01:32 pm
Town of Norwich Grand List
Grand List Report (Detail)
By Name For All Parcels In All Districts
Page 262
jbynum
PARCEL INFORMATION
TAXABLE VALUATIONS / EXEMPTIONS / CONTRACTS
-----------------------------------------------------------------------------------------------------------------------------------SMITH WILFRED E
HMSTD FILED |
MUNICIPAL
HOMESTEAD
NON-RESIDENTIAL
SMITH PAMELA T
|LAND
88,700
1445 NEW BOSTON ROAD
|BUILDING
241,100
|TOTAL REAL
329,800
329,800
NORWICH VT 05055
|SPEC EXEMPTION
0
TAX MAP:
04-060.200
|
PROP DESC: 2.0 ACRES & DWL
|
911 ADDR: 1445 NEW BOSTON RD
|
PARCEL ID: 04-060.200 SPAN: 450-142-13200
|
HOUSESITE:
329,800
ACRES:
2.00 R1 T
|GRAND LIST
3,298.00
3,298.00
-----------------------------------------------------------------------------------------------------------------------------------SMITH WILLIAM G
|
MUNICIPAL
HOMESTEAD
NON-RESIDENTIAL
SMITH ANN MARIE CAPPIALI
|LAND
127,200
25 CARPENTER ST
|BUILDING
349,400
|TOTAL REAL
476,600
476,600
NORWICH VT 05055-9414
|SPEC EXEMPTION
0
TAX MAP:
20-216.000
|
PROP DESC: .22 ACRE & DWL
|
911 ADDR: 25 CARPENTER ST
|
PARCEL ID: 20-216.000 SPAN: 450-142-11784
|
HOUSESITE:
476,600
ACRES:
0.22 R1 T
|GRAND LIST
4,766.00
4,766.00
-----------------------------------------------------------------------------------------------------------------------------------SNYDER JENNIFER L
HMSTD FILED |
MUNICIPAL
HOMESTEAD
NON-RESIDENTIAL
|LAND
134,000
335 HOPSON RD
|BUILDING
183,100
|TOTAL REAL
317,100
317,100
NORWICH VT 05055
|SPEC EXEMPTION
0
TAX MAP:
15-054.000
|
PROP DESC: 3 ACRES & DWL
|
911 ADDR: 335 HOPSON RD
|
PARCEL ID: 15-054.000 SPAN: 450-142-12074
|
HOUSESITE:
312,600
ACRES:
3.00 R1 T
|GRAND LIST
3,171.00
3,171.00
-----------------------------------------------------------------------------------------------------------------------------------SNYDER ROBERT A
HMSTD FILED |
MUNICIPAL
HOMESTEAD
NON-RESIDENTIAL
|LAND
55,400
PO BOX 1357
|BUILDING
214,500
|TOTAL REAL
269,900
269,900
NORWICH VT 05055-1357
|SPEC EXEMPTION
0
TAX MAP:
09-055.000
|
PROP DESC: 1 ACRE & DWL
|
911 ADDR: 513 TIGERTOWN RD
|
PARCEL ID: 09-055.000 SPAN: 450-142-12837
|
HOUSESITE:
269,900
ACRES:
1.00 R1 T
|GRAND LIST
2,699.00
2,699.00
-----------------------------------------------------------------------------------------------------------------------------------SOBEL RONALD B TRUSTEE
|
MUNICIPAL
HOMESTEAD
NON-RESIDENTIAL
SOBEL JOANNE E TRUSTEE
|LAND
146,500
870 FIFTH AV APT 4H
|BUILDING
737,700
|TOTAL REAL
884,200
884,200
NEW YORK NY 10021
|SPEC EXEMPTION
0
TAX MAP:
10-200.000
|
PROP DESC: 2.99 ACRE & DWL
|
911 ADDR: 63 PARTRIDGE HILL
|
PARCEL ID: 10-200.000 SPAN: 450-142-12491
|
HOUSESITE:
879,700
ACRES:
2.99 R1 NS
|GRAND LIST
8,842.00
8,842.00
------------------------------------------------------------------------------------------------------------------------------------
06/12/2015
01:32 pm
Town of Norwich Grand List
Grand List Report (Detail)
By Name For All Parcels In All Districts
Page 263
jbynum
PARCEL INFORMATION
TAXABLE VALUATIONS / EXEMPTIONS / CONTRACTS
-----------------------------------------------------------------------------------------------------------------------------------SODHI LIVING TRUST DEVINDER SINGH
|
MUNICIPAL
HOMESTEAD
NON-RESIDENTIAL
SODHI LIVING TRUST SUKHBIR KAUR
|LAND
96,900
1412 US ROUTE 5 N
|BUILDING
150,400
|TOTAL REAL
247,300
247,300
NORWICH VT 05055
|SPEC EXEMPTION
0
TAX MAP:
12-019.000
|
PROP DESC: 4.1 ACRES & DWL
|
911 ADDR: 1412 US ROUTE 5 NORTH
|
PARCEL ID: 12-019.000 SPAN: 450-142-12717
|
HOUSESITE:
239,700
ACRES:
4.10 R1 T
|GRAND LIST
2,473.00
2,473.00
-----------------------------------------------------------------------------------------------------------------------------------SODHI LIVING TRUST DEVINDER SINGH
|
MUNICIPAL
HOMESTEAD
NON-RESIDENTIAL
SODHI LIVING TRUST SUKHBIR KAUR
|LAND
5,900
1412 US ROUTE 5 N
|BUILDING
0
|TOTAL REAL
5,900
5,900
NORWICH VT 05055
|SPEC EXEMPTION
0
TAX MAP:
12-021.000
|
PROP DESC: .13 ACRE
|
911 ADDR: US ROUTE 5 NORTH
|
PARCEL ID: 12-021.000 SPAN: 450-142-12715
|
HOUSESITE:
0
ACRES:
0.13 M
T
|GRAND LIST
59.00
59.00
-----------------------------------------------------------------------------------------------------------------------------------SOFRONAS DEMOSTHENES
HMSTD FILED |
MUNICIPAL
HOMESTEAD
NON-RESIDENTIAL
SOFRONAS GEORGIA
|LAND
130,600
P.O. BOX 405
|BUILDING
287,300
|TOTAL REAL
417,900
417,900
NORWICH VT 05055
|SPEC EXEMPTION
0
TAX MAP:
10-013.000
|
PROP DESC: 2.39 ACRES & DWL & ADDL LOT (NV)
|
911 ADDR: 82 GLEN RIDGE RD
|
PARCEL ID: 10-013.000 SPAN: 450-142-11983
|
HOUSESITE:
416,300
ACRES:
2.39 R1 T
|GRAND LIST
4,179.00
4,179.00
-----------------------------------------------------------------------------------------------------------------------------------SOLBERT-SHELDON ELIZABETH A.
|
MUNICIPAL
HOMESTEAD
NON-RESIDENTIAL
|LAND
255,600
PO BOX 71
|BUILDING
245,100
|TOTAL REAL
500,700
500,700
NORWICH VT 05055-0071
|SPEC EXEMPTION
0
TAX MAP:
10-175.000
|
PROP DESC: 26.1 ACRES & DWL INCL 1 ADD LOT
|
911 ADDR: 388 NEW BOSTON RD
|
PARCEL ID: 10-175.000 SPAN: 450-142-12284
|
HOUSESITE:
343,500
ACRES:
26.10 R2 T
|GRAND LIST
5,007.00
5,007.00
-----------------------------------------------------------------------------------------------------------------------------------SOMERSTEIN AMY
HMSTD FILED |
MUNICIPAL
HOMESTEAD
NON-RESIDENTIAL
|LAND
128,600
49 NORFORD LAKE RD
|BUILDING
324,800
|TOTAL REAL
453,400
453,400
NORWICH VT 05055
|SPEC EXEMPTION
0
TAX MAP:
05-021.000
|
PROP DESC: 9 ACRES & DWL
|
911 ADDR: 49 NORFORD LAKE RD
|
PARCEL ID: 05-021.000 SPAN: 450-142-12392
|
HOUSESITE:
427,500
ACRES:
9.00 R2 T
|GRAND LIST
4,534.00
4,534.00
------------------------------------------------------------------------------------------------------------------------------------
06/12/2015
01:32 pm
Town of Norwich Grand List
Grand List Report (Detail)
By Name For All Parcels In All Districts
Page 264
jbynum
PARCEL INFORMATION
TAXABLE VALUATIONS / EXEMPTIONS / CONTRACTS
-----------------------------------------------------------------------------------------------------------------------------------SOMERVILLE DALE W & MARLENE B.
|
MUNICIPAL
HOMESTEAD
NON-RESIDENTIAL
FOLEY ANNE E
|LAND
120,800
257 RIVER RD
|BUILDING
167,300
|TOTAL REAL
288,100
288,100
NORTH CONCORD VT 05858
|SPEC EXEMPTION
0
TAX MAP:
10-099.000
|
PROP DESC: 1.5 ACRES & DWL/APT
|
911 ADDR: 748 TURNPIKE RD
|
PARCEL ID: 10-099.000 SPAN: 450-142-12935
|
HOUSESITE:
288,100
ACRES:
1.50 R1 S
|GRAND LIST
2,881.00
2,881.00
-----------------------------------------------------------------------------------------------------------------------------------SPADEMAN SUSAN
|
MUNICIPAL
HOMESTEAD
NON-RESIDENTIAL
|LAND
121,000
71 PLEASANT VIEW TERRACE
|BUILDING
2,300
|TOTAL REAL
123,300
123,300
WHITE RIVER JUNCTION VT 05001
|SPEC EXEMPTION
0
TAX MAP:
10-077.100
|
PROP DESC: 2.9 ACRES & BARN
|
911 ADDR: TURNPIKE RD
|
PARCEL ID: 10-077.100 SPAN: 450-142-13363
|
HOUSESITE:
0
ACRES:
2.90 M
S
|GRAND LIST
1,233.00
1,233.00
-----------------------------------------------------------------------------------------------------------------------------------SPALDING MARIANNE M
|
MUNICIPAL
HOMESTEAD
NON-RESIDENTIAL
|LAND
452,900
2705 RIDGETOP ROAD
|BUILDING
1964,900
|TOTAL REAL
2417,800
2417,800
AMES IA 50014
|SPEC EXEMPTION
0
TAX MAP:
09-022.000
|
PROP DESC: 111 ACRES & DWL
|
911 ADDR: 297 TUCKER HILL RD
|
PARCEL ID: 09-022.000 SPAN: 450-142-13219
|
HOUSESITE:
2114,700
ACRES:
111.00 R2 NS
|GRAND LIST
24,178.00
24,178.00
-----------------------------------------------------------------------------------------------------------------------------------SPAULDING FRED
HMSTD FILED |
MUNICIPAL
HOMESTEAD
NON-RESIDENTIAL
SPAULDING DORA
|LAND
153,600
417 TURNPIKE RD
|BUILDING
204,800
|TOTAL REAL
358,400
358,400
NORWICH VT 05055
|SPEC EXEMPTION
0
TAX MAP:
10-071.000
|
PROP DESC: 8.65 ACRES & DWL
|
911 ADDR: 417 TURNPIKE RD
|
PARCEL ID: 10-071.000 SPAN: 450-142-12920
|
HOUSESITE:
333,500
ACRES:
8.65 R2 T
|GRAND LIST
3,584.00
3,584.00
-----------------------------------------------------------------------------------------------------------------------------------SPAULDING FRED
|
MUNICIPAL
HOMESTEAD
NON-RESIDENTIAL
SPAULDING DORA
|LAND
1,200
417 TURNPIKE RD
|BUILDING
0
|TOTAL REAL
1,200
1,200
NORWICH VT 05055
|SPEC EXEMPTION
0
TAX MAP:
10-071.100
|
PROP DESC: .65 ACRES
|
911 ADDR: TURNPIKE RD
|
PARCEL ID: 10-071.100 SPAN: 450-142-13346
|
HOUSESITE:
0
ACRES:
0.65 M
T
|GRAND LIST
12.00
12.00
------------------------------------------------------------------------------------------------------------------------------------
06/12/2015
01:32 pm
Town of Norwich Grand List
Grand List Report (Detail)
By Name For All Parcels In All Districts
Page 265
jbynum
PARCEL INFORMATION
TAXABLE VALUATIONS / EXEMPTIONS / CONTRACTS
-----------------------------------------------------------------------------------------------------------------------------------SPECHT LINDA A
|
MUNICIPAL
HOMESTEAD
NON-RESIDENTIAL
|LAND
174,100
6 TRINITY CT
|BUILDING
514,000
|TOTAL REAL
688,100
688,100
WELLESLEY MA 02481
|SPEC EXEMPTION
0
TAX MAP:
05-046.200
|
PROP DESC: 17 ACRES & DWL
|
911 ADDR: 429 KERWIN HILL RD
|
PARCEL ID: 05-046.200 SPAN: 450-142-12131
|
HOUSESITE:
639,700
ACRES:
17.00 R2 NS
|GRAND LIST
6,881.00
6,881.00
-----------------------------------------------------------------------------------------------------------------------------------SPENCER CATHERINE ELIZABETH
HMSTD FILED |
MUNICIPAL
HOMESTEAD
NON-RESIDENTIAL
|LAND
191,900
1141 BRAGG HILL RD
|BUILDING
312,900
|TOTAL REAL
504,800
504,800
NORWICH VT 05055
|SPEC EXEMPTION
0
TAX MAP:
09-022.220
|
PROP DESC: 10.39 ACRES & DWL
|
911 ADDR: 1141 BRAGG HILL RD
|
PARCEL ID: 09-022.220 SPAN: 450-142-13206
|
HOUSESITE:
474,900
ACRES:
10.39 R2 T
|GRAND LIST
5,048.00
5,048.00
-----------------------------------------------------------------------------------------------------------------------------------SPERRY DWIGHT
HMSTD FILED |
MUNICIPAL
HOMESTEAD
NON-RESIDENTIAL
SPERRY MARIEKE
|LAND
186,000
109 BRADLEY HILL RD
|BUILDING
517,300
|TOTAL REAL
703,300
703,300
NORWICH VT 05055-9617
|SPEC EXEMPTION
0
TAX MAP:
11-030.100
|
PROP DESC: 12.4 ACRES & DWL
|
911 ADDR: 109 BRADLEY HILL RD
|
PARCEL ID: 11-030.100 SPAN: 450-142-11634
|
HOUSESITE:
667,700
ACRES:
12.40 R2 T
|GRAND LIST
7,033.00
7,033.00
-----------------------------------------------------------------------------------------------------------------------------------SPOTTSWOOD ROBERT
HMSTD FILED |
MUNICIPAL
HOMESTEAD
NON-RESIDENTIAL
PULLIN DEBORAH
|LAND
96,100
82 HUNTLEY ST
|BUILDING
249,800
|TOTAL REAL
345,900
345,900
NORWICH VT 05055
|SPEC EXEMPTION
0
TAX MAP:
20-084.000
|
PROP DESC: .34 ACRE & DWL
|
911 ADDR: 82 HUNTLEY ST
|
PARCEL ID: 20-084.000 SPAN: 450-142-12096
|
HOUSESITE:
345,900
ACRES:
0.34 R1 T
|GRAND LIST
3,459.00
3,459.00
-----------------------------------------------------------------------------------------------------------------------------------STADLER DANIEL S
HMSTD FILED |
MUNICIPAL
HOMESTEAD
NON-RESIDENTIAL
STADLER CYNTHIA M
|LAND
146,200
27 BEAVER MEADOW RD
|BUILDING
468,600
|TOTAL REAL
614,800
614,800
NORWICH VT 05055
|SPEC EXEMPTION
0
TAX MAP:
20-259.000
|
PROP DESC: .53 ACRE & DWL
|
911 ADDR: 27 BEAVER MEADOW RD
|
PARCEL ID: 20-259.000 SPAN: 450-142-12229
|
HOUSESITE:
614,800
ACRES:
0.53 R1 T
|GRAND LIST
6,148.00
6,148.00
------------------------------------------------------------------------------------------------------------------------------------
06/12/2015
01:32 pm
Town of Norwich Grand List
Grand List Report (Detail)
By Name For All Parcels In All Districts
Page 266
jbynum
PARCEL INFORMATION
TAXABLE VALUATIONS / EXEMPTIONS / CONTRACTS
-----------------------------------------------------------------------------------------------------------------------------------STANLEY DEAN T
|
MUNICIPAL
HOMESTEAD
NON-RESIDENTIAL
STANLEY NANCY M
|LAND
127,000
15 CRANBERRY HILL RD
|BUILDING
146,500
|TOTAL REAL
273,500
273,500
EAST THETFORD VT 05043
|SPEC EXEMPTION
0
TAX MAP:
05-102.000
|
PROP DESC: 1.72 ACRES & DWL
|
911 ADDR: 154 PATTRELL RD
|
PARCEL ID: 05-102.000 SPAN: 450-142-12501
|
HOUSESITE:
273,500
ACRES:
1.72 R1 S
|GRAND LIST
2,735.00
2,735.00
-----------------------------------------------------------------------------------------------------------------------------------STANTON ANNE
HMSTD FILED |
MUNICIPAL
HOMESTEAD
NON-RESIDENTIAL
|LAND
115,900
22 LARY LN
|BUILDING
259,700
|TOTAL REAL
375,600
375,600
NORWICH VT 05055
|SPEC EXEMPTION
0
TAX MAP:
20-225.000
|
PROP DESC: .35 ACRE & DWL
|
911 ADDR: 22 LARY LN
|
PARCEL ID: 20-225.000 SPAN: 450-142-12159
|
HOUSESITE:
375,600
ACRES:
0.35 R1 T
|GRAND LIST
3,756.00
3,756.00
-----------------------------------------------------------------------------------------------------------------------------------STANZEL PETER
|
MUNICIPAL
HOMESTEAD
NON-RESIDENTIAL
HERRMANN CHERYL L
|LAND
106,700
PO BOX 321
|BUILDING
0
|TOTAL REAL
106,700
106,700
NORWICH VT 05055-0321
|SPEC EXEMPTION
0
TAX MAP:
06-072.010
|
PROP DESC: .65 ACRES
|
911 ADDR: KENDALL STATION RD
|
PARCEL ID: 06-072.010 SPAN: 450-142-13247
|
HOUSESITE:
0
ACRES:
0.65 M
T
|GRAND LIST
1,067.00
1,067.00
-----------------------------------------------------------------------------------------------------------------------------------STANZEL PETER E
|
MUNICIPAL
HOMESTEAD
NON-RESIDENTIAL
|LAND
174,100
PO BOX 599
|BUILDING
0
|TOTAL REAL
174,100
174,100
HANOVER NH 03755-0599
|SPEC EXEMPTION
0
TAX MAP:
03-043.200
|
PROP DESC: 68.3 ACRES
|
911 ADDR: CHAPEL HILL RD
|CURRENT USE
165,300
165,300
PARCEL ID: 03-043.200 SPAN: 450-142-11818
|
HOUSESITE:
0
ACRES:
68.30 M
T
|GRAND LIST
88.00
88.00
-----------------------------------------------------------------------------------------------------------------------------------STAROSTA JOHN
HMSTD FILED |
MUNICIPAL
HOMESTEAD
NON-RESIDENTIAL
STAROSTA LYDIA
|LAND
162,200
64 HICKORY RIDGE
|BUILDING
395,400
|TOTAL REAL
557,600
557,600
NORWICH VT 05055
|SPEC EXEMPTION
0
TAX MAP:
20-009.000
|
PROP DESC: 6.71 ACRES & DWL
|
911 ADDR: 64 HICKORY RIDGE
|
PARCEL ID: 20-009.000 SPAN: 450-142-12034
|
HOUSESITE:
540,100
ACRES:
6.90 R2 T
|GRAND LIST
5,576.00
5,576.00
------------------------------------------------------------------------------------------------------------------------------------
06/12/2015
01:32 pm
Town of Norwich Grand List
Grand List Report (Detail)
By Name For All Parcels In All Districts
Page 267
jbynum
PARCEL INFORMATION
TAXABLE VALUATIONS / EXEMPTIONS / CONTRACTS
-----------------------------------------------------------------------------------------------------------------------------------STARUNKO CAROL B
HMSTD FILED |
MUNICIPAL
HOMESTEAD
NON-RESIDENTIAL
|LAND
90,100
PO BOX 1386
|BUILDING
258,700
|TOTAL REAL
348,800
348,800
NORWICH VT 05055-1386
|SPEC EXEMPTION
0
TAX MAP:
11-089.000
|
PROP DESC: 2.5 ACRES & DWL
|
911 ADDR: 44 BULLOCK RD
|
PARCEL ID: 11-089.000 SPAN: 450-142-11731
|
HOUSESITE:
346,500
ACRES:
2.50 R1 T
|GRAND LIST
3,488.00
3,488.00
-----------------------------------------------------------------------------------------------------------------------------------STEARNS NATHAN
HMSTD FILED |
MUNICIPAL
HOMESTEAD
NON-RESIDENTIAL
STEARNS SHARON
|LAND
146,000
11 OLD FARM RD
|BUILDING
603,400
|TOTAL REAL
749,400
749,400
NORWICH VT 05055
|SPEC EXEMPTION
0
TAX MAP:
10-123.110
|
PROP DESC: 6.49 ACRES & DWL
|
911 ADDR: 11 OLD FARM RD
|
PARCEL ID: 10-123.110 SPAN: 450-142-11889
|
HOUSESITE:
734,700
ACRES:
6.49 R2 T
|GRAND LIST
7,494.00
7,494.00
-----------------------------------------------------------------------------------------------------------------------------------STEPHENS JOHN G
HMSTD FILED |
MUNICIPAL
HOMESTEAD
NON-RESIDENTIAL
STEPHENS MARGARET D.
|LAND
123,200
1110 TURNPIKE RD
|BUILDING
476,900
|TOTAL REAL
600,100
600,100
NORWICH VT 05055
|SPEC EXEMPTION
0
TAX MAP:
04-033.000
|
PROP DESC: 2.4 ACRES & DWELLING
|
911 ADDR: 1110 TURNPIKE RD
|
PARCEL ID: 04-033.000 SPAN: 450-142-12959
|
HOUSESITE:
598,500
ACRES:
2.40 R1 T
|GRAND LIST
6,001.00
6,001.00
-----------------------------------------------------------------------------------------------------------------------------------STEPHENSON JEREMY A
HMSTD FILED |
MUNICIPAL
HOMESTEAD
NON-RESIDENTIAL
KARAGAS MARGARET R
|LAND
665,600
18 TUCKER HILL RD
|BUILDING
174,000
|TOTAL REAL
839,600
839,600
NORWICH VT 05055
|SPEC EXEMPTION
0
TAX MAP:
09-034.000
|
PROP DESC: 74.12 ACRES & DWL IINCL 3 ADDL LOTS
|
911 ADDR: 18 TUCKER HILL RD
|CURRENT USE
527,500
527,500
PARCEL ID: 09-034.000 SPAN: 450-142-12875
|
HOUSESITE:
301,400
ACRES:
74.12 R2 T
|GRAND LIST
3,121.00
3,121.00
-----------------------------------------------------------------------------------------------------------------------------------STERN LYNN ET AL
|
MUNICIPAL
HOMESTEAD
NON-RESIDENTIAL
MACHARG KAREN
|LAND
479,300
313 AMITY ST
|BUILDING
421,200
|TOTAL REAL
900,500
900,500
AMHERST MA 01002
|SPEC EXEMPTION
0
TAX MAP:
06-003.100
|
PROP DESC: 170.22 ACRES & DWL
|
911 ADDR: 168 WATERMAN HILL RD
|CURRENT USE
351,000
351,000
PARCEL ID: 06-003.100 SPAN: 450-142-13138
|
HOUSESITE:
523,000
ACRES:
170.22 R2 T
|GRAND LIST
5,495.00
5,495.00
------------------------------------------------------------------------------------------------------------------------------------
06/12/2015
01:32 pm
Town of Norwich Grand List
Grand List Report (Detail)
By Name For All Parcels In All Districts
Page 268
jbynum
PARCEL INFORMATION
TAXABLE VALUATIONS / EXEMPTIONS / CONTRACTS
-----------------------------------------------------------------------------------------------------------------------------------STETSON JANE WATSON
HMSTD FILED |
MUNICIPAL
HOMESTEAD
NON-RESIDENTIAL
|LAND
202,100
139 ELM ST
|BUILDING
1468,900
|TOTAL REAL
1671,000
1671,000
NORWICH VT 05055
|SPEC EXEMPTION
0
TAX MAP:
20-310.000
|
PROP DESC: 13.5 ACRES & DWL
|
911 ADDR: 139 ELM ST
|
PARCEL ID: 20-310.000 SPAN: 450-142-11958
|
HOUSESITE:
1632,300
ACRES:
13.50 R2 T
|GRAND LIST
16,710.00
16,710.00
-----------------------------------------------------------------------------------------------------------------------------------STETSON MARTHA L
HMSTD FILED |
MUNICIPAL
HOMESTEAD
NON-RESIDENTIAL
|LAND
73,300
16 MITCHELL BROOK RD
|BUILDING
147,200
|TOTAL REAL
220,500
220,500
SHARON VT 05065
|SPEC EXEMPTION
0
TAX MAP:
03-022.000
|
PROP DESC: 2.7 ACRES & DWL
|
911 ADDR: 16 MITCHELL BROOK RD
|
PARCEL ID: 03-022.000 SPAN: 450-142-12256
|
HOUSESITE:
217,700
ACRES:
2.70 R1 T
|GRAND LIST
2,205.00
2,205.00
-----------------------------------------------------------------------------------------------------------------------------------STETTENHEIM JOEL
HMSTD FILED |
MUNICIPAL
HOMESTEAD
NON-RESIDENTIAL
TAYLOR SIGNE
|LAND
98,900
994 NEW BOSTON RD
|BUILDING
243,100
|TOTAL REAL
342,000
342,000
NORWICH VT 05055
|SPEC EXEMPTION
0
TAX MAP:
05-138.000
|
PROP DESC: 2.07 ACRES & DWL
|
911 ADDR: 994 NEW BOSTON RD
|
PARCEL ID: 05-138.000 SPAN: 450-142-12337
|
HOUSESITE:
341,700
ACRES:
2.07 R1 T
|GRAND LIST
3,420.00
3,420.00
-----------------------------------------------------------------------------------------------------------------------------------STEVENS ROBERT TRUSTEE
HMSTD FILED |
MUNICIPAL
HOMESTEAD
NON-RESIDENTIAL
ANDERSON ELIZABETH J TRUSTEE
|LAND
224,400
643 PATRELL RD
|BUILDING
640,600
|TOTAL REAL
865,000
865,000
NORWICH VT 05055
|SPEC EXEMPTION
0
TAX MAP:
05-095.200
|
PROP DESC: 23.6 ACRES & DWL
|
911 ADDR: 643 PATTRELL RD
|
PARCEL ID: 05-095.200 SPAN: 450-142-12512
|
HOUSESITE:
798,400
ACRES:
23.60 R2 T
|GRAND LIST
8,650.00
8,650.00
-----------------------------------------------------------------------------------------------------------------------------------STEVENS SUSAN P
HMSTD FILED |
MUNICIPAL
HOMESTEAD
NON-RESIDENTIAL
WATTS BRADLEY V
|LAND
175,900
39 ELM ST
|BUILDING
599,700
|TOTAL REAL
775,600
775,600
NORWICH VT 05055
|SPEC EXEMPTION
0
TAX MAP:
20-302.000
|
PROP DESC: 1.2 ACRES & DWL
|
911 ADDR: 39 ELM ST
|
PARCEL ID: 20-302.000 SPAN: 450-142-11945
|
HOUSESITE:
775,600
ACRES:
1.20 R1 T
|GRAND LIST
7,756.00
7,756.00
------------------------------------------------------------------------------------------------------------------------------------
06/12/2015
01:32 pm
Town of Norwich Grand List
Grand List Report (Detail)
By Name For All Parcels In All Districts
Page 269
jbynum
PARCEL INFORMATION
TAXABLE VALUATIONS / EXEMPTIONS / CONTRACTS
-----------------------------------------------------------------------------------------------------------------------------------STEWART DAVID W
HMSTD FILED |
MUNICIPAL
HOMESTEAD
NON-RESIDENTIAL
|LAND
135,200
76 ELM ST
|BUILDING
352,800
|TOTAL REAL
488,000
488,000
NORWICH VT 05055
|SPEC EXEMPTION
0
TAX MAP:
20-276.000
|
PROP DESC: .35 ACRE & DWL
|
911 ADDR: 76 ELM ST
|
PARCEL ID: 20-276.000 SPAN: 450-142-11951
|
HOUSESITE:
488,000
ACRES:
0.35 R1 T
|GRAND LIST
4,880.00
4,880.00
-----------------------------------------------------------------------------------------------------------------------------------STOFFLET SUZANNE D
HMSTD FILED |
MUNICIPAL
HOMESTEAD
NON-RESIDENTIAL
EMERSON AMELIA
|LAND
115,500
PO BOX 216
|BUILDING
231,900
|TOTAL REAL
347,400
347,400
NORWICH VT 05055-0216
|SPEC EXEMPTION
0
TAX MAP:
06-061.000
|
PROP DESC: 1.33 ACRE & DWL
|
911 ADDR: 1729 US ROUTE 5 NORTH
|
PARCEL ID: 06-061.000 SPAN: 450-142-12724
|
HOUSESITE:
347,400
ACRES:
1.33 R1 T
|GRAND LIST
3,474.00
3,474.00
-----------------------------------------------------------------------------------------------------------------------------------STONE DAVID
HMSTD FILED |
MUNICIPAL
HOMESTEAD
NON-RESIDENTIAL
|LAND
320,300
524 TURNPIKE RD
|BUILDING
399,000
|TOTAL REAL
719,300
714,400
4,900
NORWICH VT 05055
|SPEC EXEMPTION
0
0
TAX MAP:
10-103.000
|
PROP DESC: 19 AC & DWL & CAMP INCL 2 ADDNL LOTS
|
911 ADDR: 524 TURNPIKE RD
|
PARCEL ID: 10-103.000 SPAN: 450-142-12928
|
HOUSESITE:
523,500
ACRES:
19.00 R2 T
|GRAND LIST
7,193.00
7,144.00
49.00
-----------------------------------------------------------------------------------------------------------------------------------STONEBRIDGE FARM LLC
|
MUNICIPAL
HOMESTEAD
NON-RESIDENTIAL
|LAND
276,600
145 SOLANO PRADO
|BUILDING
683,500
|TOTAL REAL
960,100
960,100
CORAL GABLES FL 33156
|SPEC EXEMPTION
0
TAX MAP:
01-010.000
|
PROP DESC: 70 ACRES & DWL
|
911 ADDR: 1766 NEW BOSTON RD
|CURRENT USE
175,800
175,800
PARCEL ID: 01-010.000 SPAN: 450-142-12382
|
HOUSESITE:
774,500
ACRES:
70.00 R2 NS
|GRAND LIST
7,843.00
7,843.00
-----------------------------------------------------------------------------------------------------------------------------------STONIER JEREMY
HMSTD FILED |
MUNICIPAL
HOMESTEAD
NON-RESIDENTIAL
MACCULLOUGH JENNIFER
|LAND
156,800
49 PINE TREE RD
|BUILDING
646,900
|TOTAL REAL
803,700
803,700
NORWICH VT 05055
|SPEC EXEMPTION
0
TAX MAP:
20-025.000
|
PROP DESC: 2.51 ACRES & DWL
|
911 ADDR: 49 PINE TREE RD
|
PARCEL ID: 20-025.000 SPAN: 450-142-12587
|
HOUSESITE:
801,400
ACRES:
2.51 R1 T
|GRAND LIST
8,037.00
8,037.00
------------------------------------------------------------------------------------------------------------------------------------
06/12/2015
01:32 pm
Town of Norwich Grand List
Grand List Report (Detail)
By Name For All Parcels In All Districts
Page 270
jbynum
PARCEL INFORMATION
TAXABLE VALUATIONS / EXEMPTIONS / CONTRACTS
-----------------------------------------------------------------------------------------------------------------------------------STOREY TOY
HMSTD FILED |
MUNICIPAL
HOMESTEAD
NON-RESIDENTIAL
|LAND
101,000
105 ACADEMY ROAD
|BUILDING
194,300
|TOTAL REAL
295,300
295,300
NORWICH VT 05055
|SPEC EXEMPTION
0
TAX MAP:
05-059.000
|
PROP DESC: 1.23 ACRE & DWL - PART IN THETFORD
|
911 ADDR: 105 ACADEMY RD
|
PARCEL ID: 05-059.000 SPAN: 450-142-13079
|
HOUSESITE:
295,300
ACRES:
1.23 R1 T
|GRAND LIST
2,953.00
2,953.00
-----------------------------------------------------------------------------------------------------------------------------------STRECKER KAREN S
HMSTD FILED |
MUNICIPAL
HOMESTEAD
NON-RESIDENTIAL
|LAND
78,200
27 NORFORD LAKE RD
|BUILDING
150,400
|TOTAL REAL
228,600
228,600
NORWICH VT 05055-1328
|SPEC EXEMPTION
0
TAX MAP:
05-020.000
|
PROP DESC: .65 ACRE & DWL
|
911 ADDR: 27 NORFORD LAKE RD
|
PARCEL ID: 05-020.000 SPAN: 450-142-12390
|
HOUSESITE:
228,600
ACRES:
0.65 R1 T
|GRAND LIST
2,286.00
2,286.00
-----------------------------------------------------------------------------------------------------------------------------------STREETER JONATHAN S
HMSTD FILED |
MUNICIPAL
HOMESTEAD
NON-RESIDENTIAL
MCKINSTRY ELIZABETH J
|LAND
126,000
504 CHAPEL HILL
|BUILDING
441,000
|TOTAL REAL
567,000
390,600
176,400
NORWICH VT 05055
|SPEC EXEMPTION
0
0
TAX MAP:
03-036.100
|
PROP DESC: 18.85 ACRES & DWL/APT
|
911 ADDR: 504 CHAPEL HILL RD
|
PARCEL ID: 03-036.100 SPAN: 450-142-13270
|
HOUSESITE:
337,100
ACRES:
18.85 R2 T
|GRAND LIST
5,670.00
3,906.00
1,764.00
-----------------------------------------------------------------------------------------------------------------------------------STRICKLER MARGARET TRUSTEE
HMSTD FILED |
MUNICIPAL
HOMESTEAD
NON-RESIDENTIAL
STRICKLER JAMES TRUSTEE
|LAND
174,000
207 NEW BOSTON RD
|BUILDING
440,300
|TOTAL REAL
614,300
614,300
NORWICH VT 05055
|SPEC EXEMPTION
0
TAX MAP:
10-116.000
|
PROP DESC: 16 ACRES & DWL
|
911 ADDR: 207 NEW BOSTON RD
|
PARCEL ID: 10-116.000 SPAN: 450-142-12276
|
HOUSESITE:
568,600
ACRES:
16.00 R2 T
|GRAND LIST
6,143.00
6,143.00
-----------------------------------------------------------------------------------------------------------------------------------STRINGER AMY
HMSTD FILED |
MUNICIPAL
HOMESTEAD
NON-RESIDENTIAL
|LAND
145,300
95 UPPER PASTURE RD
|BUILDING
323,600
|TOTAL REAL
468,900
468,900
NORWICH VT 05055
|SPEC EXEMPTION
0
TAX MAP:
11-146.000
|
PROP DESC: 12.6 ACRES & DWL
|
911 ADDR: 95 UPPER PASTURE RD
|
PARCEL ID: 11-146.000 SPAN: 450-142-13098
|
HOUSESITE:
450,800
ACRES:
12.60 R2 T
|GRAND LIST
4,689.00
4,689.00
------------------------------------------------------------------------------------------------------------------------------------
06/12/2015
01:32 pm
Town of Norwich Grand List
Grand List Report (Detail)
By Name For All Parcels In All Districts
Page 271
jbynum
PARCEL INFORMATION
TAXABLE VALUATIONS / EXEMPTIONS / CONTRACTS
-----------------------------------------------------------------------------------------------------------------------------------STROHBEHN KRIS
HMSTD FILED |
MUNICIPAL
HOMESTEAD
NON-RESIDENTIAL
STROHBEHN JUDITH A
|LAND
152,300
96 ABIGAIL RD
|BUILDING
422,200
|TOTAL REAL
574,500
574,500
NORWICH VT 05055
|SPEC EXEMPTION
0
TAX MAP:
10-026.000
|
PROP DESC: 10.1 ACRES & DWL
|
911 ADDR: 96 ABIGAIL RD
|
PARCEL ID: 10-026.000 SPAN: 450-142-11934
|
HOUSESITE:
548,300
ACRES:
10.10 R2 T
|GRAND LIST
5,745.00
5,745.00
-----------------------------------------------------------------------------------------------------------------------------------STUCKER RICHARD
HMSTD FILED |
MUNICIPAL
HOMESTEAD
NON-RESIDENTIAL
STUCKER MELINDA
|LAND
159,800
PO BOX 201
|BUILDING
331,000
|TOTAL REAL
490,800
490,800
NORWICH VT 05055-0201
|SPEC EXEMPTION
0
TAX MAP:
11-067.400
|
PROP DESC: 12.6 ACRES & DWELLING
|
911 ADDR: 70 PATTRELL RD
|
PARCEL ID: 11-067.400 SPAN: 450-142-13047
|
HOUSESITE:
458,200
ACRES:
12.60 R2 T
|GRAND LIST
4,908.00
4,908.00
-----------------------------------------------------------------------------------------------------------------------------------SUBBIAH SWAMINATHAN
HMSTD FILED |
MUNICIPAL
HOMESTEAD
NON-RESIDENTIAL
ROBSON SARAH B
|LAND
203,600
227 ELM ST
|BUILDING
485,000
|TOTAL REAL
688,600
688,600
NORWICH VT 05055
|SPEC EXEMPTION
0
TAX MAP:
20-005.000
|
PROP DESC: 18.5 ACRES & DWL
|
911 ADDR: 227 ELM ST
|
PARCEL ID: 20-005.000 SPAN: 450-142-11965
|
HOUSESITE:
638,200
ACRES:
17.70 R2 T
|GRAND LIST
6,886.00
6,886.00
-----------------------------------------------------------------------------------------------------------------------------------SUBURBAN VT PROPERTY ACQ LLC
|
MUNICIPAL
HOMESTEAD
NON-RESIDENTIAL
|LAND
116,900
240 ROUTE 10
|BUILDING
0
|TOTAL REAL
116,900
116,900
WHIPPANY NJ 07981
|SPEC EXEMPTION
0
TAX MAP:
16-017.100
|
PROP DESC: .5 ACRES
|
911 ADDR: CHURCH ST
|
PARCEL ID: 16-017.100 SPAN: 450-142-13344
|
HOUSESITE:
0
ACRES:
0.50 M
C
|GRAND LIST
1,169.00
1,169.00
-----------------------------------------------------------------------------------------------------------------------------------SUCHETA ARTUR
|
MUNICIPAL
HOMESTEAD
NON-RESIDENTIAL
CONNELLY ROSEMARY
|LAND
85,600
65 TOWN FARM RD
|BUILDING
178,100
|TOTAL REAL
263,700
263,700
NORWICH VT 05055
|SPEC EXEMPTION
0
TAX MAP:
11-074.000
|
PROP DESC: 1.3 ACRE & DWL & MH
|
911 ADDR: 65 TOWN FARM RD
|
PARCEL ID: 11-074.000 SPAN: 450-142-12865
|
HOUSESITE:
246,800
ACRES:
1.30 MHL T
|GRAND LIST
2,637.00
2,637.00
------------------------------------------------------------------------------------------------------------------------------------
06/12/2015
01:32 pm
Town of Norwich Grand List
Grand List Report (Detail)
By Name For All Parcels In All Districts
Page 272
jbynum
PARCEL INFORMATION
TAXABLE VALUATIONS / EXEMPTIONS / CONTRACTS
-----------------------------------------------------------------------------------------------------------------------------------SUDLOW LIMITED PARTNERSHIP
|
MUNICIPAL
HOMESTEAD
NON-RESIDENTIAL
MCLAUGHRY, BRUCE AGENT
|LAND
176,500
PO BOX 1050
|BUILDING
427,500
|TOTAL REAL
604,000
604,000
NORWICH VT 05055-1050
|SPEC EXEMPTION
0
TAX MAP:
20-228.000
|
PROP DESC: .16 ACRE & COMM BLDG
|
911 ADDR: 320 MAIN ST
|
PARCEL ID: 20-228.000 SPAN: 450-142-12458
|
HOUSESITE:
0
ACRES:
0.16 C
C
|GRAND LIST
6,040.00
6,040.00
-----------------------------------------------------------------------------------------------------------------------------------SUDLOW LIMITED PARTNERSHIP
|
MUNICIPAL
HOMESTEAD
NON-RESIDENTIAL
MCLAUGHRY, BRUCE AGENT
|LAND
189,500
PO BOX 1050
|BUILDING
778,900
|TOTAL REAL
968,400
968,400
NORWICH VT 05055-1050
|SPEC EXEMPTION
0
TAX MAP:
20-229.000
|
PROP DESC: EMERSON HSE & EMERSON COURT CONDOS
|
911 ADDR: 316 MAIN ST
|
PARCEL ID: 20-229.000 SPAN: 450-142-12459
|
HOUSESITE:
0
ACRES:
0.85 C
C
|GRAND LIST
9,684.00
9,684.00
-----------------------------------------------------------------------------------------------------------------------------------SULLIVAN DENIS
|
MUNICIPAL
HOMESTEAD
NON-RESIDENTIAL
SULLIVAN MARGARET
|LAND
78,800
80 LYME ROAD APT 346
|BUILDING
0
|TOTAL REAL
78,800
78,800
HANOVER NNH 03755
|SPEC EXEMPTION
0
TAX MAP:
11-072.000
|
PROP DESC: 2.9 ACRES
|
911 ADDR: GOODRICH FOUR CORNERS RD
|
PARCEL ID: 11-072.000 SPAN: 450-142-12003
|
HOUSESITE:
0
ACRES:
2.90 M
NS
|GRAND LIST
788.00
788.00
-----------------------------------------------------------------------------------------------------------------------------------SULLIVAN MARGARET
|
MUNICIPAL
HOMESTEAD
NON-RESIDENTIAL
|LAND
264,700
80 LYME ROAD APT 346
|BUILDING
168,200
|TOTAL REAL
432,900
432,900
HANOVER NH 03755
|SPEC EXEMPTION
0
TAX MAP:
11-083.000
|
PROP DESC: 80 ACRES & DWL
|
911 ADDR: 22 TOWN FARM RD
|
PARCEL ID: 11-083.000 SPAN: 450-142-12864
|
HOUSESITE:
255,200
ACRES:
80.00 R2 NS
|GRAND LIST
4,329.00
4,329.00
-----------------------------------------------------------------------------------------------------------------------------------SULLIVAN MAUREEN TRUSTEE
|
MUNICIPAL
HOMESTEAD
NON-RESIDENTIAL
|LAND
111,600
144 PLEASANT VIEW TERRACE
|BUILDING
0
|TOTAL REAL
111,600
111,600
WHITE RIVER JUNCTION VT 05001
|SPEC EXEMPTION
0
TAX MAP:
03-047.000
|
PROP DESC: 38 ACRES
|
911 ADDR: CHAPEL HILL RD
|
PARCEL ID: 03-047.000 SPAN: 450-142-11810
|
HOUSESITE:
0
ACRES:
38.00 M
S
|GRAND LIST
1,116.00
1,116.00
------------------------------------------------------------------------------------------------------------------------------------
06/12/2015
01:32 pm
Town of Norwich Grand List
Grand List Report (Detail)
By Name For All Parcels In All Districts
Page 273
jbynum
PARCEL INFORMATION
TAXABLE VALUATIONS / EXEMPTIONS / CONTRACTS
-----------------------------------------------------------------------------------------------------------------------------------SULLIVAN MAUREEN TRUSTEE
|
MUNICIPAL
HOMESTEAD
NON-RESIDENTIAL
|LAND
280,200
144 PLEASANT VIEW TERRACE
|BUILDING
147,100
|TOTAL REAL
427,300
427,300
WHITE RIVER JUNCTION VT 05001
|SPEC EXEMPTION
0
TAX MAP:
03-054.100
|
PROP DESC: 41.34 ACRES & DWL INCL 1 ADDL LOT (#4)
|
911 ADDR: 8 STAGECOACH RD
|CURRENT USE
79,400
79,400
PARCEL ID: 03-054.100 SPAN: 450-142-11607
|
HOUSESITE:
248,000
ACRES:
41.34 R2 S
|GRAND LIST
3,479.00
3,479.00
-----------------------------------------------------------------------------------------------------------------------------------SVENSON BENJAMIN
|
MUNICIPAL
HOMESTEAD
NON-RESIDENTIAL
C/O BRODER PROPERTIES
|LAND
334,400
15 BROAD ST
|BUILDING
0
|TOTAL REAL
334,400
334,400
BOSTON MA 02109
|SPEC EXEMPTION
0
TAX MAP:
03-050.500
|
PROP DESC: INCL 1 ADDL LOT
|
911 ADDR: STAGECOACH RD
|CURRENT USE
236,500
236,500
PARCEL ID: 03-050.500 SPAN: 450-142-13395
|
HOUSESITE:
0
ACRES:
54.10 M
NS
|GRAND LIST
979.00
979.00
-----------------------------------------------------------------------------------------------------------------------------------SWETT MATTHEW R
HMSTD FILED |
MUNICIPAL
HOMESTEAD
NON-RESIDENTIAL
SWETT TANYA ALEXANDER
|LAND
535,200
34 OLD ORCHARD LN
|BUILDING
756,500
|TOTAL REAL
1291,700
1291,700
NORWICH VT 05055
|SPEC EXEMPTION
0
TAX MAP:
04-002.500
|
PROP DESC: 143.9 ACRES & DWL
|
911 ADDR: 34 OLD ORCHARD LN
|CURRENT USE
372,600
372,600
PARCEL ID: 04-002.500 SPAN: 450-142-12957
|
HOUSESITE:
900,200
ACRES:
143.90 R2 T
|GRAND LIST
9,191.00
9,191.00
-----------------------------------------------------------------------------------------------------------------------------------SWIFT JOSHUA
|
MUNICIPAL
HOMESTEAD
NON-RESIDENTIAL
SWIFT BARBARA
|LAND
104,200
PO BOX 291
|BUILDING
20,800
|TOTAL REAL
125,000
125,000
NORWICH VT 05055
|SPEC EXEMPTION
0
TAX MAP:
10-136.000
|
PROP DESC: 2.27 ACRES & MH
|
911 ADDR: 55 UPPER TURNPIKE RD
|
PARCEL ID: 10-136.000 SPAN: 450-142-13109
|
HOUSESITE:
123,900
ACRES:
2.27 MHL T
|GRAND LIST
1,250.00
1,250.00
-----------------------------------------------------------------------------------------------------------------------------------SYDNEY REALTY TRUST OF 2014
|
MUNICIPAL
HOMESTEAD
NON-RESIDENTIAL
|LAND
125,700
334 TURNPIKE RD
|BUILDING
293,000
|TOTAL REAL
418,700
418,700
NORWICH VT 05055
|SPEC EXEMPTION
0
TAX MAP:
10-111.200
|
PROP DESC: 1.54 ACRES & DWL
|
911 ADDR: 334 TURNPIKE RD
|
PARCEL ID: 10-111.200 SPAN: 450-142-12917
|
HOUSESITE:
416,300
ACRES:
2.54 R1 T
|GRAND LIST
4,187.00
4,187.00
------------------------------------------------------------------------------------------------------------------------------------
06/12/2015
01:32 pm
Town of Norwich Grand List
Grand List Report (Detail)
By Name For All Parcels In All Districts
Page 274
jbynum
PARCEL INFORMATION
TAXABLE VALUATIONS / EXEMPTIONS / CONTRACTS
-----------------------------------------------------------------------------------------------------------------------------------SYLVESTER RUTH E
|
MUNICIPAL
HOMESTEAD
NON-RESIDENTIAL
|LAND
106,900
692 STEVENS RD
|BUILDING
101,700
|TOTAL REAL
208,600
208,600
EAST THETFORD VT 05043
|SPEC EXEMPTION
0
TAX MAP:
05-006.000
|
PROP DESC: 4.3 ACRES & DWL
|
911 ADDR: 1003 NEW BOSTON RD
|
PARCEL ID: 05-006.000 SPAN: 450-142-12339
|
HOUSESITE:
200,300
ACRES:
4.30 R1 S
|GRAND LIST
2,086.00
2,086.00
-----------------------------------------------------------------------------------------------------------------------------------SYLVESTER RUTH E
|
MUNICIPAL
HOMESTEAD
NON-RESIDENTIAL
|LAND
130,400
692 STEVENS RD
|BUILDING
223,200
|TOTAL REAL
353,600
353,600
EAST THETFORD VT 05043
|SPEC EXEMPTION
0
TAX MAP:
10-208.000
|
PROP DESC: 2.2 ACRES & DWL
|
911 ADDR: 157 UNION VILLAGE RD
|
PARCEL ID: 10-208.000 SPAN: 450-142-13009
|
HOUSESITE:
352,700
ACRES:
2.20 R1 S
|GRAND LIST
3,536.00
3,536.00
-----------------------------------------------------------------------------------------------------------------------------------SYLVESTER RUTH E
|
MUNICIPAL
HOMESTEAD
NON-RESIDENTIAL
|LAND
269,900
692 STEVENS RD
|BUILDING
373,400
|TOTAL REAL
643,300
643,300
EAST THETFORD VT 05043
|SPEC EXEMPTION
0
TAX MAP:
10-208.100
|
PROP DESC: 51.4 ACRES & DWL
|
911 ADDR: 155 UNION VILLAGE RD
|CURRENT USE
132,800
132,800
PARCEL ID: 10-208.100 SPAN: 450-142-13010
|
HOUSESITE:
501,300
ACRES:
51.40 R2 S
|GRAND LIST
5,105.00
5,105.00
-----------------------------------------------------------------------------------------------------------------------------------SYLVESTER RUTH E
|
MUNICIPAL
HOMESTEAD
NON-RESIDENTIAL
FORBES EDITH L REV TRUST
|LAND
111,400
692 STEVENS ROAD
|BUILDING
0
|TOTAL REAL
111,400
111,400
E THETFORD VT 05043
|SPEC EXEMPTION
0
TAX MAP:
16-033.100
|
PROP DESC: 0.5 ACRES
|
911 ADDR: CLIFF ST
|
PARCEL ID: 16-033.100 SPAN: 450-142-13371
|
HOUSESITE:
0
ACRES:
0.50 M
S
|GRAND LIST
1,114.00
1,114.00
-----------------------------------------------------------------------------------------------------------------------------------SYLVESTER SUZANNE T
HMSTD FILED |
MUNICIPAL
HOMESTEAD
NON-RESIDENTIAL
|LAND
244,800
434 HAWK PINE RD
|BUILDING
124,800
|TOTAL REAL
369,600
369,600
NORWICH VT 05055
|SPEC EXEMPTION
0
TAX MAP:
16-143.000
|
PROP DESC: 3.9 ACRE & DWL INCL 1 ADDL LOT
|
911 ADDR: 434 HAWK PINE RD
|
PARCEL ID: 16-143.000 SPAN: 450-142-12568
|
HOUSESITE:
253,100
ACRES:
3.90 R1 T
|GRAND LIST
3,696.00
3,696.00
------------------------------------------------------------------------------------------------------------------------------------
06/12/2015
01:32 pm
Town of Norwich Grand List
Grand List Report (Detail)
By Name For All Parcels In All Districts
Page 275
jbynum
PARCEL INFORMATION
TAXABLE VALUATIONS / EXEMPTIONS / CONTRACTS
-----------------------------------------------------------------------------------------------------------------------------------TAKACS CARTER M
|
MUNICIPAL
HOMESTEAD
NON-RESIDENTIAL
NOWAK KRISTIN S
|LAND
78,300
119 ELM ST
|BUILDING
155,100
|TOTAL REAL
233,400
233,400
NEW HAVEN CT 06515-2119
|SPEC EXEMPTION
0
TAX MAP:
09-008.000
|
PROP DESC: 3 ACRES & DWL
|
911 ADDR: 156 MITCHELL BROOK RD
|
PARCEL ID: 09-008.000 SPAN: 450-142-12266
|
HOUSESITE:
228,900
ACRES:
3.00 R1 NS
|GRAND LIST
2,334.00
2,334.00
-----------------------------------------------------------------------------------------------------------------------------------TALBOT GEOFFREY
|
MUNICIPAL
HOMESTEAD
NON-RESIDENTIAL
TALBOT JEANNE
|LAND
148,600
179 LOCKSLEY RD
|BUILDING
0
|TOTAL REAL
148,600
148,600
LYNNFIELD MA 01940-1442
|SPEC EXEMPTION
0
TAX MAP:
03-028.000
|
PROP DESC: 36 ACRES
|
911 ADDR: SUGARHOUSE RD
|
PARCEL ID: 03-028.000 SPAN: 450-142-12254
|
HOUSESITE:
0
ACRES:
36.00 M
NS
|GRAND LIST
1,486.00
1,486.00
-----------------------------------------------------------------------------------------------------------------------------------TALMADGE LISA CLAIRE
HMSTD FILED |
MUNICIPAL
HOMESTEAD
NON-RESIDENTIAL
|LAND
0
43 STARLAKE LN
|BUILDING
103,800
|TOTAL REAL
103,800
103,800
NORWICH VT 05055
|SPEC EXEMPTION
0
TAX MAP:
12-003.240
|
PROP DESC: DWELLING ONLY LOT 4
|
911 ADDR: 43 STARLAKE LN
|
PARCEL ID: 12-003.240 SPAN: 450-142-12692
|
HOUSESITE:
103,800
ACRES:
0.00 R1 T
|GRAND LIST
1,038.00
1,038.00
-----------------------------------------------------------------------------------------------------------------------------------TARIOT JOHN A
HMSTD FILED |
MUNICIPAL
HOMESTEAD
NON-RESIDENTIAL
SHIELD ROBIN R
|LAND
151,900
P O BOX 411
|BUILDING
532,200
|TOTAL REAL
684,100
684,100
HANOVER NH 03755
|SPEC EXEMPTION
0
TAX MAP:
16-047.000
|
PROP DESC: 1.42 ACRES & DWL
|
911 ADDR: 66 CHURCH ST
|
PARCEL ID: 16-047.000 SPAN: 450-142-11853
|
HOUSESITE:
684,100
ACRES:
1.42 R1 T
|GRAND LIST
6,841.00
6,841.00
-----------------------------------------------------------------------------------------------------------------------------------TASSINARI SCOTT A
|
MUNICIPAL
HOMESTEAD
NON-RESIDENTIAL
TASSINARI TAMMY S
|LAND
321,500
274 NEW BOSTON RD
|BUILDING
703,800
|TOTAL REAL
1025,300
1025,300
NORWICH VT 05055
|SPEC EXEMPTION
0
TAX MAP:
10-178.000
|
PROP DESC: 100 ACRES & DWL
|
911 ADDR: 274 NEW BOSTON RD
|
PARCEL ID: 10-178.000 SPAN: 450-142-12283
|
HOUSESITE:
806,600
ACRES:
100.00 R2 T
|GRAND LIST
10,253.00
10,253.00
------------------------------------------------------------------------------------------------------------------------------------
06/12/2015
01:32 pm
Town of Norwich Grand List
Grand List Report (Detail)
By Name For All Parcels In All Districts
Page 276
jbynum
PARCEL INFORMATION
TAXABLE VALUATIONS / EXEMPTIONS / CONTRACTS
-----------------------------------------------------------------------------------------------------------------------------------TATE JOSEPHINE H
HMSTD FILED |
MUNICIPAL
HOMESTEAD
NON-RESIDENTIAL
|LAND
126,400
336 TURNPIKE RD
|BUILDING
445,200
|TOTAL REAL
571,600
571,600
NORWICH VT 05055
|SPEC EXEMPTION
0
TAX MAP:
10-111.100
|
PROP DESC: 2.89 ACRES & DWL
|
911 ADDR: 336 TURNPIKE RD
|
PARCEL ID: 10-111.100 SPAN: 450-142-12918
|
HOUSESITE:
568,000
ACRES:
2.89 R1 T
|GRAND LIST
5,716.00
5,716.00
-----------------------------------------------------------------------------------------------------------------------------------TAYLOR DANIELLE
HMSTD FILED |
MUNICIPAL
HOMESTEAD
NON-RESIDENTIAL
TAYLOR JOHN-MICHAEL
|LAND
88,500
536 CHAPEL HILL RD
|BUILDING
196,600
|TOTAL REAL
285,100
285,100
NORWICH VT 05055
|SPEC EXEMPTION
0
TAX MAP:
03-045.000
|
PROP DESC: 5.4 ACRES & DWL
|
911 ADDR: 536 CHAPEL HILL RD
|
PARCEL ID: 03-045.000 SPAN: 450-142-11814
|
HOUSESITE:
270,300
ACRES:
5.40 R1 T
|GRAND LIST
2,851.00
2,851.00
-----------------------------------------------------------------------------------------------------------------------------------TAYLOR EDWARD C
HMSTD FILED |
MUNICIPAL
HOMESTEAD
NON-RESIDENTIAL
TAYLOR PETRA
|LAND
130,700
23 WALLACE FARM RD
|BUILDING
265,100
|TOTAL REAL
395,800
395,800
NORWICH VT 05055
|SPEC EXEMPTION
0
TAX MAP:
03-015.000
|
PROP DESC: 10.1 ACRES & DWL
|
911 ADDR: 23 WALLACE FARM RD
|
PARCEL ID: 03-015.000 SPAN: 450-142-12264
|
HOUSESITE:
366,700
ACRES:
10.10 R2 T
|GRAND LIST
3,958.00
3,958.00
-----------------------------------------------------------------------------------------------------------------------------------TAYLOR JOHN F
HMSTD FILED |
MUNICIPAL
HOMESTEAD
NON-RESIDENTIAL
TAYLOR LUCY FARNSWORTH
|LAND
125,600
519 HAWK PINE RD
|BUILDING
314,300
|TOTAL REAL
439,900
439,900
NORWICH VT 05055
|SPEC EXEMPTION
0
TAX MAP:
16-150.000
|
PROP DESC: 1.5 ACRES & DWL
|
911 ADDR: 519 HAWK PINE RD
|
PARCEL ID: 16-150.000 SPAN: 450-142-12579
|
HOUSESITE:
439,900
ACRES:
1.50 R1 T
|GRAND LIST
4,399.00
4,399.00
-----------------------------------------------------------------------------------------------------------------------------------TAYLOR LOUISE NUNAN
HMSTD FILED |
MUNICIPAL
HOMESTEAD
NON-RESIDENTIAL
|LAND
2991,000
829 UPPER TURNPIKE RD
|BUILDING
817,000
|TOTAL REAL
3808,000
3286,100
521,900
NORWICH VT 05055
|SPEC EXEMPTION
0
0
TAX MAP:
04-042.000
|
PROP DESC: 1275.3 ACRES & 4 DWLS INC 12 ADDL LOTS
|
911 ADDR: 829 UPPER TURNPIKE RD
|CURRENT USE
2384,500
2384,500
PARCEL ID: 04-042.000 SPAN: 450-142-13126
|
HOUSESITE:
396,800
ACRES: 1275.31 R2 T
|GRAND LIST
14,235.00
9,016.00
5,219.00
------------------------------------------------------------------------------------------------------------------------------------
06/12/2015
01:32 pm
Town of Norwich Grand List
Grand List Report (Detail)
By Name For All Parcels In All Districts
Page 277
jbynum
PARCEL INFORMATION
TAXABLE VALUATIONS / EXEMPTIONS / CONTRACTS
-----------------------------------------------------------------------------------------------------------------------------------TAYLOR LOUISE NUNAN ET AL
|
MUNICIPAL
HOMESTEAD
NON-RESIDENTIAL
ROBINSON ANDREW M
|LAND
482,000
829 UPPER TURNPIKE
|BUILDING
0
|TOTAL REAL
482,000
482,000
NORWICH VT 05055
|SPEC EXEMPTION
0
TAX MAP:
01-008.000
|
PROP DESC: 185 ACRES
|
911 ADDR: NEW BOSTON RD
|CURRENT USE
456,000
456,000
PARCEL ID: 01-008.000 SPAN: 450-142-12385
|
HOUSESITE:
0
ACRES:
185.00 M
T
|GRAND LIST
260.00
260.00
-----------------------------------------------------------------------------------------------------------------------------------TAYLOR THOMAS
HMSTD FILED |
MUNICIPAL
HOMESTEAD
NON-RESIDENTIAL
TAYLOR MARIE
|LAND
184,500
187 HOPSON RD
|BUILDING
407,500
|TOTAL REAL
592,000
592,000
NORWICH VT 05055
|SPEC EXEMPTION
0
TAX MAP:
20-271.000
|
PROP DESC: 2 ACRES & DWL
|
911 ADDR: 187 HOPSON RD
|
PARCEL ID: 20-271.000 SPAN: 450-142-12062
|
HOUSESITE:
592,000
ACRES:
2.00 R1 T
|GRAND LIST
5,920.00
5,920.00
-----------------------------------------------------------------------------------------------------------------------------------TEACHOUT CABOT R
HMSTD FILED |
MUNICIPAL
HOMESTEAD
NON-RESIDENTIAL
TEACHOUT MEAGHAN H
|LAND
65,100
191 CHAPEL HILL RD
|BUILDING
34,000
|TOTAL REAL
99,100
99,100
NORWICH VT 05055
|SPEC EXEMPTION
0
TAX MAP:
03-007.000
|
PROP DESC: .95 ACRE & CAMP
|
911 ADDR: 191 CHAPEL HILL RD
|
PARCEL ID: 03-007.000 SPAN: 450-142-11823
|
HOUSESITE:
99,100
ACRES:
0.97 R1 T
|GRAND LIST
991.00
991.00
-----------------------------------------------------------------------------------------------------------------------------------TEACHOUT PETER R
HMSTD FILED |
MUNICIPAL
HOMESTEAD
NON-RESIDENTIAL
TEACHOUT MARY M
|LAND
187,800
PO BOX 159
|BUILDING
364,200
|TOTAL REAL
552,000
552,000
NORWICH VT 05055-0159
|SPEC EXEMPTION
0
TAX MAP:
14-028.000
|
PROP DESC: 24 ACRES & DWL
|
911 ADDR: 179 SUGARTOP RD
|
PARCEL ID: 14-028.000 SPAN: 450-142-12807
|
HOUSESITE:
491,100
ACRES:
24.00 R2 T
|GRAND LIST
5,520.00
5,520.00
-----------------------------------------------------------------------------------------------------------------------------------TEBBETTS LLOYD E
HMSTD FILED |
MUNICIPAL
HOMESTEAD
NON-RESIDENTIAL
TEBBETTS CYNTHIA G
|LAND
180,700
789 BRAGG HILL
|BUILDING
163,100
|TOTAL REAL
343,800
343,800
NORWICH VT 05055
|SPEC EXEMPTION
0
TAX MAP:
10-002.000
|
PROP DESC: 9.2 ACRES & DWL
|
911 ADDR: 789 BRAGG HILL RD
|
PARCEL ID: 10-002.000 SPAN: 450-142-11686
|
HOUSESITE:
317,300
ACRES:
9.20 R2 T
|GRAND LIST
3,438.00
3,438.00
------------------------------------------------------------------------------------------------------------------------------------
06/12/2015
01:32 pm
Town of Norwich Grand List
Grand List Report (Detail)
By Name For All Parcels In All Districts
Page 278
jbynum
PARCEL INFORMATION
TAXABLE VALUATIONS / EXEMPTIONS / CONTRACTS
-----------------------------------------------------------------------------------------------------------------------------------TEETER STANLEY
HMSTD FILED |
MUNICIPAL
HOMESTEAD
NON-RESIDENTIAL
|LAND
685,300
PO BOX 1654
|BUILDING
200,600
|TOTAL REAL
885,900
885,900
NORWICH VT 05055-1654
|SPEC EXEMPTION
0
TAX MAP:
04-017.000
|
PROP DESC: 277 ACRES & HOUSE
|
911 ADDR: 1802 TURNPIKE RD
|CURRENT USE
548,300
548,300
PARCEL ID: 04-017.000 SPAN: 450-142-12998
|
HOUSESITE:
288,300
ACRES:
277.00 R2 T
|GRAND LIST
3,376.00
3,376.00
-----------------------------------------------------------------------------------------------------------------------------------TELA NANCY H.
|
MUNICIPAL
HOMESTEAD
NON-RESIDENTIAL
|LAND
121,700
18 10TH ST
|BUILDING
259,900
|TOTAL REAL
381,600
381,600
NEW YORK NY 10003
|SPEC EXEMPTION
0
TAX MAP:
20-123.000
|
PROP DESC: .13 ACRE & DWLG AND APT
|
911 ADDR: 341 MAIN ST
|
PARCEL ID: 20-123.000 SPAN: 450-142-12413
|
HOUSESITE:
381,600
ACRES:
0.13 R1 NS
|GRAND LIST
3,816.00
3,816.00
-----------------------------------------------------------------------------------------------------------------------------------TELLER-ELSBERG JONATHAN
HMSTD FILED |
MUNICIPAL
HOMESTEAD
NON-RESIDENTIAL
TELLER-ELSBERG WENDY A
|LAND
142,700
60 CHURCH ST
|BUILDING
196,900
|TOTAL REAL
339,600
339,600
NORWICH VT 05055
|SPEC EXEMPTION
0
TAX MAP:
16-046.010
|
PROP DESC: 0.86 ACRE & DWL
|
911 ADDR: 60 CHURCH ST
|
PARCEL ID: 16-046.010 SPAN: 450-142-11851
|
HOUSESITE:
339,600
ACRES:
0.86 R1 T
|GRAND LIST
3,396.00
3,396.00
-----------------------------------------------------------------------------------------------------------------------------------TERINO GUARINO ET AL
|
MUNICIPAL
HOMESTEAD
NON-RESIDENTIAL
|LAND
417,900
C/O JERRY A TERINO
|BUILDING
18,200
PO BOX 936
|TOTAL REAL
436,100
436,100
WILDER VT 05088
|SPEC EXEMPTION
0
TAX MAP:
09-050.000
|
PROP DESC: 175 ACRES & CAMP
|
911 ADDR: 414 BURTON WOODS RD
|CURRENT USE
342,300
342,300
PARCEL ID: 09-050.000 SPAN: 450-142-12830
|
HOUSESITE:
55,300
ACRES:
175.00 S2 S
|GRAND LIST
938.00
938.00
-----------------------------------------------------------------------------------------------------------------------------------THADANI VIJAY
HMSTD FILED |
MUNICIPAL
HOMESTEAD
NON-RESIDENTIAL
CONNINGTON ONITA
|LAND
138,900
85 CARPENTER ST
|BUILDING
342,700
|TOTAL REAL
481,600
440,476
41,124
NORWICH VT 05055
|SPEC EXEMPTION
0
0
TAX MAP:
16-030.000
|
PROP DESC: .41 ACRE & DWL/APT
|
911 ADDR: 85 CARPENTER ST
|
PARCEL ID: 16-030.000 SPAN: 450-142-11799
|
HOUSESITE:
440,476
ACRES:
0.41 R1 T
|GRAND LIST
4,816.00
4,404.76
411.24
------------------------------------------------------------------------------------------------------------------------------------
06/12/2015
01:32 pm
Town of Norwich Grand List
Grand List Report (Detail)
By Name For All Parcels In All Districts
Page 279
jbynum
PARCEL INFORMATION
TAXABLE VALUATIONS / EXEMPTIONS / CONTRACTS
-----------------------------------------------------------------------------------------------------------------------------------THAYER WARREN G
HMSTD FILED |
MUNICIPAL
HOMESTEAD
NON-RESIDENTIAL
THAYER TONI APGAR
|LAND
155,900
PO BOX 1564
|BUILDING
486,100
|TOTAL REAL
642,000
515,614
126,386
NORWICH VT 05055
|SPEC EXEMPTION
0
0
TAX MAP:
20-014.100
|
PROP DESC: 2.31 ACRES & DWL
|
911 ADDR: 272 ELM ST
|
PARCEL ID: 20-014.100 SPAN: 450-142-11968
|
HOUSESITE:
514,214
ACRES:
2.31 R1 T
|GRAND LIST
6,420.00
5,156.14
1,263.86
-----------------------------------------------------------------------------------------------------------------------------------THAYER WARREN G
|
MUNICIPAL
HOMESTEAD
NON-RESIDENTIAL
THAYER TONI APGAR
|LAND
109,700
PO BOX 1564
|BUILDING
147,800
|TOTAL REAL
257,500
257,500
NORWICH VT 05055
|SPEC EXEMPTION
0
TAX MAP:
10-199.000
|
PROP DESC: .93 ACRE & DWL
|
911 ADDR: 66 TURNPIKE RD
|
PARCEL ID: 10-199.000 SPAN: 450-142-12897
|
HOUSESITE:
257,500
ACRES:
0.93 R1 T
|GRAND LIST
2,575.00
2,575.00
-----------------------------------------------------------------------------------------------------------------------------------THIBODEAU RICKEY L
HMSTD FILED |
MUNICIPAL
HOMESTEAD
NON-RESIDENTIAL
THIBODEAU TINA A
|LAND
160,300
859 TIGERTOWN RD
|BUILDING
128,100
|TOTAL REAL
288,400
232,700
55,700
WHITE RIVER JCT VT 05001-4798
|SPEC EXEMPTION
0
0
TAX MAP:
08-009.000
|
PROP DESC: 39.61 ACRES & DWL & MH
|
911 ADDR: 859 TIGERTOWN RD
|
PARCEL ID: 08-009.000 SPAN: 450-142-12851
|
HOUSESITE:
144,600
ACRES:
39.61 R2 T
|GRAND LIST
2,884.00
2,327.00
557.00
-----------------------------------------------------------------------------------------------------------------------------------THOMAE IRVING H.
HMSTD FILED |
MUNICIPAL
HOMESTEAD
NON-RESIDENTIAL
THOMAE HETTY L.
|LAND
113,600
PO BOX 281
|BUILDING
201,500
|TOTAL REAL
315,100
315,100
NORWICH VT 05055-0281
|SPEC EXEMPTION
0
TAX MAP:
10-169.000
|
PROP DESC: 4.7 ACRES & DWL
|
911 ADDR: 528 NEW BOSTON RD
|
PARCEL ID: 10-169.000 SPAN: 450-142-12295
|
HOUSESITE:
306,000
ACRES:
4.70 R1 T
|GRAND LIST
3,151.00
3,151.00
-----------------------------------------------------------------------------------------------------------------------------------THOMAS D RODMAN TRUSTEE
HMSTD FILED |
MUNICIPAL
HOMESTEAD
NON-RESIDENTIAL
THOMAS PATRICIA M TRUSTEE
|LAND
151,600
16 BIRCH HILL LN
|BUILDING
270,100
|TOTAL REAL
421,700
421,700
NORWICH VT 05055
|SPEC EXEMPTION
0
TAX MAP:
04-022.000
|
PROP DESC: 10 ACRES & DWL
|
911 ADDR: 16 BIRCH HILL LN
|
PARCEL ID: 04-022.000 SPAN: 450-142-12984
|
HOUSESITE:
395,800
ACRES:
10.00 R2 T
|GRAND LIST
4,217.00
4,217.00
------------------------------------------------------------------------------------------------------------------------------------
06/12/2015
01:32 pm
Town of Norwich Grand List
Grand List Report (Detail)
By Name For All Parcels In All Districts
Page 280
jbynum
PARCEL INFORMATION
TAXABLE VALUATIONS / EXEMPTIONS / CONTRACTS
-----------------------------------------------------------------------------------------------------------------------------------THOMAS GLORIA
HMSTD FILED |
MUNICIPAL
HOMESTEAD
NON-RESIDENTIAL
|LAND
0
29 STARLAKE LN
|BUILDING
105,200
|TOTAL REAL
105,200
105,200
NORWICH VT 05055-9300
|SPEC EXEMPTION
0
TAX MAP:
12-003.215
|
PROP DESC: DWELLING ONLY LOT 1
|
911 ADDR: 29 STARLAKE LN
|
PARCEL ID: 12-003.215 SPAN: 450-142-12689
|
HOUSESITE:
105,200
ACRES:
0.00 R1 T
|GRAND LIST
1,052.00
1,052.00
-----------------------------------------------------------------------------------------------------------------------------------THOMPSON BARBARA J LIFE ESTATE
HMSTD FILED |
MUNICIPAL
HOMESTEAD
NON-RESIDENTIAL
THOMPSON JAY & DARRELL
|LAND
156,500
66 TUCKER HILL RD
|BUILDING
141,500
|TOTAL REAL
298,000
298,000
NORWICH VT 05055
|SPEC EXEMPTION
0
TAX MAP:
09-032.000
|
PROP DESC: 10.1 ACRES & DWL
|
911 ADDR: 66 TUCKER HILL RD
|
PARCEL ID: 09-032.000 SPAN: 450-142-12879
|
HOUSESITE:
268,900
ACRES:
10.10 R2 T
|GRAND LIST
2,980.00
2,980.00
-----------------------------------------------------------------------------------------------------------------------------------THOMPSON DARRELL
HMSTD FILED |
MUNICIPAL
HOMESTEAD
NON-RESIDENTIAL
|LAND
345,600
1448 BEAVER MEADOW RD
|BUILDING
157,800
|TOTAL REAL
503,400
503,400
NORWICH VT 05055-9463
|SPEC EXEMPTION
0
TAX MAP:
03-059.000
|
PROP DESC: 114 ACRES & DWELLING
|
911 ADDR: 1448 BEAVER MEADOW RD
|CURRENT USE
234,600
234,600
PARCEL ID: 03-059.000 SPAN: 450-142-11599
|
HOUSESITE:
254,400
ACRES:
114.00 R2 T
|GRAND LIST
2,688.00
2,688.00
-----------------------------------------------------------------------------------------------------------------------------------THOMPSON EARL
|
MUNICIPAL
HOMESTEAD
NON-RESIDENTIAL
MITCHELL BARBARA T
|LAND
106,400
20 HARBOR MIST DRIVE
|BUILDING
127,800
|TOTAL REAL
234,200
234,200
FAIRHAVEN MA 02719
|SPEC EXEMPTION
0
TAX MAP:
20-198.000
|
PROP DESC: .17 ACRE & DWL
|
911 ADDR: 49 HAZEN ST
|
PARCEL ID: 20-198.000 SPAN: 450-142-12032
|
HOUSESITE:
234,200
ACRES:
0.17 R1 T
|GRAND LIST
2,342.00
2,342.00
-----------------------------------------------------------------------------------------------------------------------------------THOMPSON EVERETT
HMSTD FILED |
MUNICIPAL
HOMESTEAD
NON-RESIDENTIAL
|LAND
125,900
18 SARGENT ST
|BUILDING
177,400
|TOTAL REAL
303,300
303,300
NORWICH VT 05055
|SPEC EXEMPTION
0
TAX MAP:
20-094.000
|
PROP DESC: 1.2 ACRES & DWL
|
911 ADDR: 18 SARGENT ST
|
PARCEL ID: 20-094.000 SPAN: 450-142-12785
|
HOUSESITE:
303,300
ACRES:
1.20 R1 T
|GRAND LIST
3,033.00
3,033.00
------------------------------------------------------------------------------------------------------------------------------------
06/12/2015
01:32 pm
Town of Norwich Grand List
Grand List Report (Detail)
By Name For All Parcels In All Districts
Page 281
jbynum
PARCEL INFORMATION
TAXABLE VALUATIONS / EXEMPTIONS / CONTRACTS
-----------------------------------------------------------------------------------------------------------------------------------THOMPSON GWENDOLYN G.
HMSTD FILED |
MUNICIPAL
HOMESTEAD
NON-RESIDENTIAL
|LAND
166,400
377 MAIN ST
|BUILDING
407,900
|TOTAL REAL
574,300
411,300
163,000
NORWICH VT 05055
|SPEC EXEMPTION
0
0
TAX MAP:
20-131.000
|
PROP DESC: .86 ACRE & DWL/APT
|
911 ADDR: 377 MAIN ST
|
PARCEL ID: 20-131.000 SPAN: 450-142-12427
|
HOUSESITE:
411,300
ACRES:
0.86 R1 T
|GRAND LIST
5,743.00
4,113.00
1,630.00
-----------------------------------------------------------------------------------------------------------------------------------THOMPSON JAMES
HMSTD FILED |
MUNICIPAL
HOMESTEAD
NON-RESIDENTIAL
D`ANGONA ANNE MARIE
|LAND
102,600
212 WATERMAN HILL ROAD
|BUILDING
202,800
|TOTAL REAL
305,400
305,400
NORWICH VT 05055
|SPEC EXEMPTION
0
TAX MAP:
06-002.000
|
PROP DESC: 1.8 ACRES & DWL
|
911 ADDR: 212 WATERMAN HILL RD
|
PARCEL ID: 06-002.000 SPAN: 450-142-13142
|
HOUSESITE:
305,400
ACRES:
1.80 R1 T
|GRAND LIST
3,054.00
3,054.00
-----------------------------------------------------------------------------------------------------------------------------------THOMPSON KEVIN
HMSTD FILED |
MUNICIPAL
HOMESTEAD
NON-RESIDENTIAL
KELLY KATHRYN
|LAND
110,100
182 BEAVER MEADOW ROAD
|BUILDING
159,100
|TOTAL REAL
269,200
269,200
NORWICH VT 05055
|SPEC EXEMPTION
0
TAX MAP:
20-109.000
|
PROP DESC: .24 ACRE & DWL
|
911 ADDR: 182 BEAVER MEADOW RD
|
PARCEL ID: 20-109.000 SPAN: 450-142-12212
|
HOUSESITE:
269,200
ACRES:
0.24 R1 T
|GRAND LIST
2,692.00
2,692.00
-----------------------------------------------------------------------------------------------------------------------------------THOMPSON MARTHA G
HMSTD FILED |
MUNICIPAL
HOMESTEAD
NON-RESIDENTIAL
|LAND
143,000
PO BOX 740
|BUILDING
202,100
|TOTAL REAL
345,100
345,100
NORWICH VT 05055-0740
|SPEC EXEMPTION
0
TAX MAP:
11-028.000
|
PROP DESC: 5 ACRES & DWL
|
911 ADDR: 15 BRADLEY HILL RD
|
PARCEL ID: 11-028.000 SPAN: 450-142-11631
|
HOUSESITE:
331,600
ACRES:
5.00 R1 T
|GRAND LIST
3,451.00
3,451.00
-----------------------------------------------------------------------------------------------------------------------------------THOMPSON THEODORE
HMSTD FILED |
MUNICIPAL
HOMESTEAD
NON-RESIDENTIAL
DUSTIN LESLIE
|LAND
144,800
31 DUTTON HILL RD
|BUILDING
327,000
|TOTAL REAL
471,800
471,800
NORWICH VT 05055
|SPEC EXEMPTION
0
TAX MAP:
20-062.000
|
PROP DESC: 6 ACRES & DWL
|
911 ADDR: 31 DUTTON HILL
|
PARCEL ID: 20-062.000 SPAN: 450-142-11918
|
HOUSESITE:
455,000
ACRES:
6.00 R2 T
|GRAND LIST
4,718.00
4,718.00
------------------------------------------------------------------------------------------------------------------------------------
06/12/2015
01:32 pm
Town of Norwich Grand List
Grand List Report (Detail)
By Name For All Parcels In All Districts
Page 282
jbynum
PARCEL INFORMATION
TAXABLE VALUATIONS / EXEMPTIONS / CONTRACTS
-----------------------------------------------------------------------------------------------------------------------------------THORNE PHILIP G.
HMSTD FILED |
MUNICIPAL
HOMESTEAD
NON-RESIDENTIAL
LLEWELLYN-THOMAS HILARY A
|LAND
81,200
18 MELVIEW RIDGE
|BUILDING
132,400
|TOTAL REAL
213,600
213,600
NORWICH VT 05055-9420
|SPEC EXEMPTION
0
TAX MAP:
16-119.000
|
PROP DESC: 1.6 ACRES & DWL/APT
|
911 ADDR: 18 MELVIEW RIDGE
|
PARCEL ID: 16-119.000 SPAN: 450-142-12243
|
HOUSESITE:
213,600
ACRES:
1.60 R1 T
|GRAND LIST
2,136.00
2,136.00
-----------------------------------------------------------------------------------------------------------------------------------THORNGREN ALEXANDER J
HMSTD FILED |
MUNICIPAL
HOMESTEAD
NON-RESIDENTIAL
THORNGREN NAOMI L
|LAND
92,200
106 LADEAU RD
|BUILDING
311,700
|TOTAL REAL
403,900
403,900
NORWICH VT 05055
|SPEC EXEMPTION
0
TAX MAP:
05-124.100
|
PROP DESC: 13.1 ACRES & DWL
|
911 ADDR: 106 LADEAU RD
|
PARCEL ID: 05-124.100 SPAN: 450-142-12139
|
HOUSESITE:
373,800
ACRES:
13.10 R2 T
|GRAND LIST
4,039.00
4,039.00
-----------------------------------------------------------------------------------------------------------------------------------THUM CARL P
HMSTD FILED |
MUNICIPAL
HOMESTEAD
NON-RESIDENTIAL
THUM LISA R
|LAND
162,900
123 MYSTIC DR
|BUILDING
433,500
|TOTAL REAL
596,400
596,400
NORWICH VT 05055
|SPEC EXEMPTION
0
TAX MAP:
11-152.300
|
PROP DESC: 3.17 ACRES & DWL
|
911 ADDR: 123 MYSTIC DR
|
PARCEL ID: 11-152.300 SPAN: 450-142-11992
|
HOUSESITE:
591,100
ACRES:
3.17 R1 T
|GRAND LIST
5,964.00
5,964.00
-----------------------------------------------------------------------------------------------------------------------------------THURSTON JUDSON C
|
MUNICIPAL
HOMESTEAD
NON-RESIDENTIAL
THURSTON VERONICA L
|LAND
71,300
1490 BEAVER MEADOW
|BUILDING
174,700
|TOTAL REAL
246,000
246,000
NORWICH VT 05055-9412
|SPEC EXEMPTION
0
TAX MAP:
03-032.000
|
PROP DESC: 0.4 ACRE & 3 APT DWL
|
911 ADDR: 1646 BEAVER MEADOW RD
|
PARCEL ID: 03-032.000 SPAN: 450-142-11610
|
HOUSESITE:
246,000
ACRES:
0.40 R1 T
|GRAND LIST
2,460.00
2,460.00
-----------------------------------------------------------------------------------------------------------------------------------THURSTON JUDSON C
HMSTD FILED |
MUNICIPAL
HOMESTEAD
NON-RESIDENTIAL
THURSTON VERONICA L
|LAND
188,000
1490 BEAVER MEADOW
|BUILDING
1043,100
|TOTAL REAL
1231,100
1231,100
NORWICH VT 05055
|SPEC EXEMPTION
0
TAX MAP:
03-057.000
|
PROP DESC: 26.7 ACRES & DWL
|
911 ADDR: 1490 BEAVER MEADOW RD
|
PARCEL ID: 03-057.000 SPAN: 450-142-11603
|
HOUSESITE:
1171,100
ACRES:
26.70 R2 T
|GRAND LIST
12,311.00
12,311.00
------------------------------------------------------------------------------------------------------------------------------------
06/12/2015
01:32 pm
Town of Norwich Grand List
Grand List Report (Detail)
By Name For All Parcels In All Districts
Page 283
jbynum
PARCEL INFORMATION
TAXABLE VALUATIONS / EXEMPTIONS / CONTRACTS
-----------------------------------------------------------------------------------------------------------------------------------THURSTON JUDSON C
|
MUNICIPAL
HOMESTEAD
NON-RESIDENTIAL
THURSTON VERONICA L
|LAND
188,100
1490 BEAVER MEADOW
|BUILDING
345,300
|TOTAL REAL
533,400
533,400
NORWICH VT 05055-9412
|SPEC EXEMPTION
0
TAX MAP:
06-073.100
|
PROP DESC: 2.3 ACRES & DWL & APT
|
911 ADDR: 212 KENDALL STATION RD
|
PARCEL ID: 06-073.100 SPAN: 450-142-12631
|
HOUSESITE:
503,100
ACRES:
2.30 R1 T
|GRAND LIST
5,334.00
5,334.00
-----------------------------------------------------------------------------------------------------------------------------------TIBBITS CLAUDE
|
MUNICIPAL
HOMESTEAD
NON-RESIDENTIAL
TIBBITS SUSAN
|LAND
438,500
306 RUNNALS ROAD
|BUILDING
874,700
|TOTAL REAL
1313,200
1313,200
WHITE RIVER JUNCTION VT 05001
|SPEC EXEMPTION
0
TAX MAP:
09-052.000
|
PROP DESC: 167.7 ACRES AND DWL
|
911 ADDR: 495 TIGERTOWN RD
|CURRENT USE
343,900
343,900
PARCEL ID: 09-052.000 SPAN: 450-142-12834
|
HOUSESITE:
946,800
ACRES:
167.70 R2 S
|GRAND LIST
9,693.00
9,693.00
-----------------------------------------------------------------------------------------------------------------------------------TIDMAN LYNN W TRUSTEE
HMSTD FILED |
MUNICIPAL
HOMESTEAD
NON-RESIDENTIAL
|LAND
479,700
980 BRAGG HILL RD
|BUILDING
622,100
|TOTAL REAL
1101,800
1101,800
NORWICH VT 05055
|SPEC EXEMPTION
0
TAX MAP:
10-006.000
|
PROP DESC: 61.4 ACRES & DWL INCL 1 ADDL LOT
|
911 ADDR: 980 BRAGG HILL RD
|CURRENT USE
152,000
152,000
PARCEL ID: 10-006.000 SPAN: 450-142-11694
|
HOUSESITE:
783,400
ACRES:
61.40 R2 T
|GRAND LIST
9,498.00
9,498.00
-----------------------------------------------------------------------------------------------------------------------------------TIERNEY BARBARA J
|
MUNICIPAL
HOMESTEAD
NON-RESIDENTIAL
|LAND
184,100
6 ADMIRAL DR APT A471
|BUILDING
406,000
|TOTAL REAL
590,100
590,100
EMERYVILLE CA 94608-4911
|SPEC EXEMPTION
0
TAX MAP:
20-304.000
|
PROP DESC: 2.8 ACRES & DWL W/APT
|
911 ADDR: 89 ELM ST
|
PARCEL ID: 20-304.000 SPAN: 450-142-11954
|
HOUSESITE:
586,500
ACRES:
2.80 R1 NS
|GRAND LIST
5,901.00
5,901.00
-----------------------------------------------------------------------------------------------------------------------------------TIERNEY PAUL
|
MUNICIPAL
HOMESTEAD
NON-RESIDENTIAL
TIERNEY CAROL
|LAND
120,000
PO BOX 1192
|BUILDING
460,700
|TOTAL REAL
580,700
580,700
NORWICH VT 05055-1192
|SPEC EXEMPTION
0
TAX MAP:
10-138.000
|
PROP DESC: 6 ACRES & DWL
|
911 ADDR: 153 UPPER TURNPIKE RD
|
PARCEL ID: 10-138.000 SPAN: 450-142-13114
|
HOUSESITE:
563,900
ACRES:
6.00 R2 T
|GRAND LIST
5,807.00
5,807.00
------------------------------------------------------------------------------------------------------------------------------------
06/12/2015
01:32 pm
Town of Norwich Grand List
Grand List Report (Detail)
By Name For All Parcels In All Districts
Page 284
jbynum
PARCEL INFORMATION
TAXABLE VALUATIONS / EXEMPTIONS / CONTRACTS
-----------------------------------------------------------------------------------------------------------------------------------TIGERTOWN INC
|
MUNICIPAL
HOMESTEAD
NON-RESIDENTIAL
HENDERSON TIMOTHY
|LAND
30,900
PO BOX 998
|BUILDING
20,800
|TOTAL REAL
51,700
51,700
SOUTH ROYALTON VT 05068
|SPEC EXEMPTION
0
TAX MAP:
09-050.010
|
PROP DESC: 1 ACRE & CAMP
|
911 ADDR: 192 SUE SPAULDING RD
|
PARCEL ID: 09-050.010 SPAN: 450-142-12829
|
HOUSESITE:
51,700
ACRES:
1.00 R1 C
|GRAND LIST
517.00
517.00
-----------------------------------------------------------------------------------------------------------------------------------TINE WILLIAM
HMSTD FILED |
MUNICIPAL
HOMESTEAD
NON-RESIDENTIAL
TINE MICHELE
|LAND
119,500
53 BEAVER MEADOW RD
|BUILDING
228,700
|TOTAL REAL
348,200
348,200
NORWICH VT 05055
|SPEC EXEMPTION
0
TAX MAP:
20-040.000
|
PROP DESC: .42 ACRE & DWL
|
911 ADDR: 53 BEAVER MEADOW RD
|
PARCEL ID: 20-040.000 SPAN: 450-142-12198
|
HOUSESITE:
348,200
ACRES:
0.42 R1 T
|GRAND LIST
3,482.00
3,482.00
-----------------------------------------------------------------------------------------------------------------------------------TOBIN JAMES E JR
HMSTD FILED |
MUNICIPAL
HOMESTEAD
NON-RESIDENTIAL
TOBIN PATRICIA
|LAND
136,600
381 TURNPIKE RD
|BUILDING
138,100
|TOTAL REAL
274,700
274,700
NORWICH VT 05055
|SPEC EXEMPTION
0
TAX MAP:
10-070.000
|
PROP DESC: 3.76 ACRES & DWL
|
911 ADDR: 381 TURNPIKE RD
|
PARCEL ID: 10-070.000 SPAN: 450-142-12919
|
HOUSESITE:
267,600
ACRES:
3.76 R1 T
|GRAND LIST
2,747.00
2,747.00
-----------------------------------------------------------------------------------------------------------------------------------TOLLIDAY STEVE
|
MUNICIPAL
HOMESTEAD
NON-RESIDENTIAL
CRUZ HEIDI
|LAND
127,700
488 HAWK PINE RD
|BUILDING
294,400
|TOTAL REAL
422,100
422,100
NORWICH VT 05055
|SPEC EXEMPTION
0
TAX MAP:
16-139.000
|
PROP DESC: 1.86 ACRES & DWL
|
911 ADDR: 488 HAWK PINE RD
|
PARCEL ID: 16-139.000 SPAN: 450-142-12574
|
HOUSESITE:
422,100
ACRES:
1.86 R1 T
|GRAND LIST
4,221.00
4,221.00
-----------------------------------------------------------------------------------------------------------------------------------TOLMAN GERALD C
HMSTD FILED |
MUNICIPAL
HOMESTEAD
NON-RESIDENTIAL
TOLMAN BARBARA A
|LAND
107,900
17 PARTRIDGE HILL RD
|BUILDING
332,700
|TOTAL REAL
440,600
440,600
NORWICH VT 05055
|SPEC EXEMPTION
0
TAX MAP:
20-150.200
|
PROP DESC: 0.74 ACRES & DWL
|
911 ADDR: 17 PARTRIDGE HILL
|
PARCEL ID: 20-150.200 SPAN: 450-142-12890
|
HOUSESITE:
440,600
ACRES:
0.74 R1 T
|GRAND LIST
4,406.00
4,406.00
------------------------------------------------------------------------------------------------------------------------------------
06/12/2015
01:32 pm
Town of Norwich Grand List
Grand List Report (Detail)
By Name For All Parcels In All Districts
Page 285
jbynum
PARCEL INFORMATION
TAXABLE VALUATIONS / EXEMPTIONS / CONTRACTS
-----------------------------------------------------------------------------------------------------------------------------------TOMPKINS RODNEY P II
HMSTD FILED |
MUNICIPAL
HOMESTEAD
NON-RESIDENTIAL
TOMPKINS MEGAN E
|LAND
146,900
PO BOX 1073
|BUILDING
311,300
|TOTAL REAL
458,200
458,200
NORWICH VT 05055
|SPEC EXEMPTION
0
TAX MAP:
04-032.100
|
PROP DESC: 10.08 ACRES AND DWL
|
911 ADDR: 1238 TURNPIKE RD
|
PARCEL ID: 04-032.100 SPAN: 450-142-12966
|
HOUSESITE:
432,100
ACRES:
10.08 R2 T
|GRAND LIST
4,582.00
4,582.00
-----------------------------------------------------------------------------------------------------------------------------------TOPSAIL PROPERTIES LLC
|
MUNICIPAL
HOMESTEAD
NON-RESIDENTIAL
|LAND
141,900
17 DRESDEN RD
|BUILDING
118,400
|TOTAL REAL
260,300
260,300
HANOVER NH 03755
|SPEC EXEMPTION
0
TAX MAP:
16-039.000
|
PROP DESC: .46 ACRE & DWL
|
911 ADDR: 64 CARPENTER ST
|
PARCEL ID: 16-039.000 SPAN: 450-142-11795
|
HOUSESITE:
260,300
ACRES:
0.46 R1 NS
|GRAND LIST
2,603.00
2,603.00
-----------------------------------------------------------------------------------------------------------------------------------TORKELSON GAIL E TRUSTEE
HMSTD FILED |
MUNICIPAL
HOMESTEAD
NON-RESIDENTIAL
TORKELSON TRUST GAIL E.
|LAND
156,500
148 MAPLE HILL RD
|BUILDING
507,200
|TOTAL REAL
663,700
663,700
NORWICH VT 05055
|SPEC EXEMPTION
0
TAX MAP:
11-201.200
|
PROP DESC: 10.1 ACRES & DWL
|
911 ADDR: 148 MAPLE HILL RD
|
PARCEL ID: 11-201.200 SPAN: 450-142-12169
|
HOUSESITE:
634,600
ACRES:
10.10 R2 T
|GRAND LIST
6,637.00
6,637.00
-----------------------------------------------------------------------------------------------------------------------------------TORRESANI LORENZO
|
MUNICIPAL
HOMESTEAD
NON-RESIDENTIAL
FONDRIEST IRENE
|LAND
110,700
75 HAWK PINE ROAD
|BUILDING
306,200
|TOTAL REAL
416,900
416,900
NORWICH VT 05055
|SPEC EXEMPTION
0
TAX MAP:
11-191.000
|
PROP DESC: 1.4 ACRES & DWL
|
911 ADDR: 75 HAWK PINE RD
|
PARCEL ID: 11-191.000 SPAN: 450-142-12524
|
HOUSESITE:
416,900
ACRES:
1.40 R1 T
|GRAND LIST
4,169.00
4,169.00
-----------------------------------------------------------------------------------------------------------------------------------TOTZ ROBERT F
HMSTD FILED |
MUNICIPAL
HOMESTEAD
NON-RESIDENTIAL
TOTZ JILL DUFRESNE
|LAND
163,900
29 GODDARD RD
|BUILDING
56,400
|TOTAL REAL
220,300
220,300
NORWICH VT 05055-9449
|SPEC EXEMPTION
0
TAX MAP:
15-023.000
|
PROP DESC: 2.23 ACRES & DWL
|
911 ADDR: 29 GODDARD RD
|
PARCEL ID: 15-023.000 SPAN: 450-142-11672
|
HOUSESITE:
219,300
ACRES:
2.23 R1 T
|GRAND LIST
2,203.00
2,203.00
------------------------------------------------------------------------------------------------------------------------------------
06/12/2015
01:32 pm
Town of Norwich Grand List
Grand List Report (Detail)
By Name For All Parcels In All Districts
Page 286
jbynum
PARCEL INFORMATION
TAXABLE VALUATIONS / EXEMPTIONS / CONTRACTS
-----------------------------------------------------------------------------------------------------------------------------------TRACY CARL A
HMSTD FILED |
MUNICIPAL
HOMESTEAD
NON-RESIDENTIAL
MCDONALD MARLENE M
|LAND
119,400
44 GLEN RIDGE RD
|BUILDING
318,500
|TOTAL REAL
437,900
437,900
NORWICH VT 05055
|SPEC EXEMPTION
0
TAX MAP:
10-016.000
|
PROP DESC: 1.26 ACRES & DWL
|
911 ADDR: 44 GLEN RIDGE RD
|
PARCEL ID: 10-016.000 SPAN: 450-142-11980
|
HOUSESITE:
437,900
ACRES:
1.26 R1 T
|GRAND LIST
4,379.00
4,379.00
-----------------------------------------------------------------------------------------------------------------------------------TRAJMAN OMER
HMSTD FILED |
MUNICIPAL
HOMESTEAD
NON-RESIDENTIAL
TRAJMAN LILY
|LAND
207,800
236 MAIN STREET
|BUILDING
682,200
|TOTAL REAL
890,000
823,170
66,830
NORWICH VT 05055
|SPEC EXEMPTION
0
0
TAX MAP:
20-241.000
|
PROP DESC: 3.17 ACRES & DWL
|
911 ADDR: 236 MAIN ST
|
PARCEL ID: 20-241.000 SPAN: 450-142-12475
|
HOUSESITE:
818,970
ACRES:
3.17 R1 T
|GRAND LIST
8,900.00
8,231.70
668.30
-----------------------------------------------------------------------------------------------------------------------------------TRAMMELL MARY LOUISE TRUSTEE
|
MUNICIPAL
HOMESTEAD
NON-RESIDENTIAL
MARY LOUISE TRAMMELL FAMILY TR
|LAND
101,200
P.O. BOX 1237
|BUILDING
295,900
|TOTAL REAL
397,100
397,100
NORWICH VT 05055-9488
|SPEC EXEMPTION
0
TAX MAP:
06-005.000
|
PROP DESC: .74 ACRE & DWL
|
911 ADDR: 12 BOWEN RD
|
PARCEL ID: 06-005.000 SPAN: 450-142-12771
|
HOUSESITE:
397,100
ACRES:
0.74 R1 T
|GRAND LIST
3,971.00
3,971.00
-----------------------------------------------------------------------------------------------------------------------------------TRANSCANADA HYDRO NE INC
|
MUNICIPAL
HOMESTEAD
NON-RESIDENTIAL
MARK CLEVERDON PROPERTY TAX MANAGER
|LAND
0
110 TURNPIKE RD SUITE 300
|BUILDING
996,400
|TOTAL REAL
996,400
996,400
WESTBOROUGH MA 01581
|SPEC EXEMPTION
0
TAX MAP:
70-006.000
|
PROP DESC: FLOWAGE & RIVER RIGHTS
|
911 ADDR: CONNECTICUT RIVER
|
PARCEL ID: 70-006.000 SPAN: 450-142-11736
|
HOUSESITE:
0
ACRES:
0.00 UE C
|GRAND LIST
9,964.00
9,964.00
-----------------------------------------------------------------------------------------------------------------------------------TRAUTLEIN JOHN R
HMSTD FILED |
MUNICIPAL
HOMESTEAD
NON-RESIDENTIAL
TRAUTLEIN ANNE B
|LAND
158,100
366 KERWIN HILL RD
|BUILDING
412,500
|TOTAL REAL
570,600
570,600
NORWICH VT 05055
|SPEC EXEMPTION
0
TAX MAP:
05-114.160
|
PROP DESC: 11.9 ACRES & DWL
|
911 ADDR: 366 KERWIN HILL RD
|
PARCEL ID: 05-114.160 SPAN: 450-142-12132
|
HOUSESITE:
539,800
ACRES:
11.90 R2 T
|GRAND LIST
5,706.00
5,706.00
------------------------------------------------------------------------------------------------------------------------------------
06/12/2015
01:32 pm
Town of Norwich Grand List
Grand List Report (Detail)
By Name For All Parcels In All Districts
Page 287
jbynum
PARCEL INFORMATION
TAXABLE VALUATIONS / EXEMPTIONS / CONTRACTS
-----------------------------------------------------------------------------------------------------------------------------------TREMBLAY MATTHEW J
|
MUNICIPAL
HOMESTEAD
NON-RESIDENTIAL
|LAND
72,100
102 LAPLANTE ROAD
|BUILDING
0
|TOTAL REAL
72,100
72,100
LEBANON NH 03766
|SPEC EXEMPTION
0
TAX MAP:
11-088.000
|
PROP DESC: 12.2 ACRES
|
911 ADDR: BULLOCK RD
|
PARCEL ID: 11-088.000 SPAN: 450-142-11732
|
HOUSESITE:
0
ACRES:
12.20 M
NS
|GRAND LIST
721.00
721.00
-----------------------------------------------------------------------------------------------------------------------------------TROMBLEY HAROLD
|
MUNICIPAL
HOMESTEAD
NON-RESIDENTIAL
MAYETTE MARY & WENDALL
|LAND
47,700
50 TRUELL RD
|BUILDING
5,000
|TOTAL REAL
52,700
52,700
WHITE RIVER JUNCTION VT 05001
|SPEC EXEMPTION
0
TAX MAP:
09-061.000
|
PROP DESC: 3.98 ACRES & CAMP
|
911 ADDR: 1696 PODUNK RD
|
PARCEL ID: 09-061.000 SPAN: 450-142-12603
|
HOUSESITE:
43,800
ACRES:
3.98 S1 S
|GRAND LIST
527.00
527.00
-----------------------------------------------------------------------------------------------------------------------------------TRUMPOWER LYNNE AMELIA
HMSTD FILED |
MUNICIPAL
HOMESTEAD
NON-RESIDENTIAL
|LAND
122,000
21 BEAVER MEADOW RD
|BUILDING
233,700
|TOTAL REAL
355,700
355,700
NORWICH VT 05055
|SPEC EXEMPTION
0
TAX MAP:
20-258.000
|
PROP DESC: .24 ACRE & DWL
|
911 ADDR: 21 BEAVER MEADOW RD
|
PARCEL ID: 20-258.000 SPAN: 450-142-12227
|
HOUSESITE:
355,700
ACRES:
0.24 R1 T
|GRAND LIST
3,557.00
3,557.00
-----------------------------------------------------------------------------------------------------------------------------------TUCKER FREDERICK C JR
|
MUNICIPAL
HOMESTEAD
NON-RESIDENTIAL
TUCKER SUSAN R.
|LAND
124,100
306 CAROLINE ST
|BUILDING
143,800
|TOTAL REAL
267,900
267,900
FREDERICKSBURG VA 22401
|SPEC EXEMPTION
0
TAX MAP:
16-128.000
|
PROP DESC: 1.07 ACRE & DWL
|
911 ADDR: 302 HAWK PINE RD
|
PARCEL ID: 16-128.000 SPAN: 450-142-12551
|
HOUSESITE:
267,900
ACRES:
1.07 R1 NS
|GRAND LIST
2,679.00
2,679.00
-----------------------------------------------------------------------------------------------------------------------------------TUGGLE ELIZABETH W
HMSTD FILED |
MUNICIPAL
HOMESTEAD
NON-RESIDENTIAL
TUGGLE F FOLGER
|LAND
304,200
47 WATERMAN HILL
|BUILDING
742,000
|TOTAL REAL
1046,200
743,300
302,900
NORWICH VT 05055
|SPEC EXEMPTION
0
0
TAX MAP:
06-003.200
|
PROP DESC: LAND & 3 DWLGS
|
911 ADDR: 47 WATERMAN HILL RD
|CURRENT USE
155,300
155,300
PARCEL ID: 06-003.200 SPAN: 450-142-13139
|
HOUSESITE:
565,700
ACRES:
64.54 R2 T
|GRAND LIST
8,909.00
5,880.00
3,029.00
------------------------------------------------------------------------------------------------------------------------------------
06/12/2015
01:32 pm
Town of Norwich Grand List
Grand List Report (Detail)
By Name For All Parcels In All Districts
Page 288
jbynum
PARCEL INFORMATION
TAXABLE VALUATIONS / EXEMPTIONS / CONTRACTS
-----------------------------------------------------------------------------------------------------------------------------------TUHUS PAUL K
HMSTD FILED |
MUNICIPAL
HOMESTEAD
NON-RESIDENTIAL
|LAND
118,300
PO BOX 1301
|BUILDING
402,700
|TOTAL REAL
521,000
521,000
NORWICH VT 05055-1301
|SPEC EXEMPTION
0
TAX MAP:
05-051.000
|
PROP DESC: 1.3 ACRE & DWL
|
911 ADDR: 210 KERWIN HILL RD
|
PARCEL ID: 05-051.000 SPAN: 450-142-12119
|
HOUSESITE:
521,000
ACRES:
1.30 R1 T
|GRAND LIST
5,210.00
5,210.00
-----------------------------------------------------------------------------------------------------------------------------------TUNNICLIFFE ERIN R.
HMSTD FILED |
MUNICIPAL
HOMESTEAD
NON-RESIDENTIAL
|LAND
126,600
28 CARPENTER ST
|BUILDING
243,100
|TOTAL REAL
369,700
369,700
NORWICH VT 05055
|SPEC EXEMPTION
0
TAX MAP:
20-220.000
|
PROP DESC: 0.21 ACRE & DWL
|
911 ADDR: 28 CARPENTER ST
|
PARCEL ID: 20-220.000 SPAN: 450-142-11785
|
HOUSESITE:
369,700
ACRES:
0.21 R1 T
|GRAND LIST
3,697.00
3,697.00
-----------------------------------------------------------------------------------------------------------------------------------TURCO JOHN H
|
MUNICIPAL
HOMESTEAD
NON-RESIDENTIAL
TURCO MARY G
|LAND
153,100
PO BOX 827
|BUILDING
528,300
|TOTAL REAL
681,400
681,400
NORWICH VT 05055-0827
|SPEC EXEMPTION
0
TAX MAP:
20-237.000
|
PROP DESC: 1.7 ACRES & DWL
|
911 ADDR: 38 CHURCH ST
|
PARCEL ID: 20-237.000 SPAN: 450-142-11846
|
HOUSESITE:
681,400
ACRES:
1.70 R1 T
|GRAND LIST
6,814.00
6,814.00
-----------------------------------------------------------------------------------------------------------------------------------TURCOTTE SMAIL GARON C
HMSTD FILED |
MUNICIPAL
HOMESTEAD
NON-RESIDENTIAL
TURCOTTE SMAIL MICHELLE
|LAND
97,000
73 HUNTLEY ST
|BUILDING
256,800
|TOTAL REAL
353,800
353,800
NORWICH VT 05055
|SPEC EXEMPTION
0
TAX MAP:
20-104.000
|
PROP DESC: .36 ACRE & DWL
|
911 ADDR: 73 HUNTLEY ST
|
PARCEL ID: 20-104.000 SPAN: 450-142-12093
|
HOUSESITE:
353,800
ACRES:
0.36 R1 T
|GRAND LIST
3,538.00
3,538.00
-----------------------------------------------------------------------------------------------------------------------------------TURNER JOHN R
HMSTD FILED |
MUNICIPAL
HOMESTEAD
NON-RESIDENTIAL
TURNER DONNA M
|LAND
132,100
31 CARPENTER ST
|BUILDING
369,000
|TOTAL REAL
501,100
501,100
NORWICH VT 05055
|SPEC EXEMPTION
0
TAX MAP:
20-219.100
|
PROP DESC: .3 ACRES & DWELLING
|
911 ADDR: 31 CARPENTER ST
|
PARCEL ID: 20-219.100 SPAN: 450-142-11787
|
HOUSESITE:
501,100
ACRES:
0.30 R1 T
|GRAND LIST
5,011.00
5,011.00
------------------------------------------------------------------------------------------------------------------------------------
06/12/2015
01:32 pm
Town of Norwich Grand List
Grand List Report (Detail)
By Name For All Parcels In All Districts
Page 289
jbynum
PARCEL INFORMATION
TAXABLE VALUATIONS / EXEMPTIONS / CONTRACTS
-----------------------------------------------------------------------------------------------------------------------------------TWIN PINES HOUSING TRUST
|
MUNICIPAL
HOMESTEAD
NON-RESIDENTIAL
|LAND
280,300
240 SOUTH MAIN ST 4
|BUILDING
900
|TOTAL REAL
281,200
281,200
WHITE RIVER JUNCTION VT 05001
|SPEC EXEMPTION
0
TAX MAP:
12-003.200
|
PROP DESC: 14.9 ACRES LAND ONLY/ 14 HOMES ON LAND
|
911 ADDR: STARLAKE LN
|
PARCEL ID: 12-003.200 SPAN: 450-142-12688
|
HOUSESITE:
0
ACRES:
14.90 M
C
|GRAND LIST
2,812.00
2,812.00
-----------------------------------------------------------------------------------------------------------------------------------TYSINGER THOMAS
HMSTD FILED |
MUNICIPAL
HOMESTEAD
NON-RESIDENTIAL
TYSINGER STEPHANIE
|LAND
110,200
57 SUNDBACK LN
|BUILDING
479,300
|TOTAL REAL
589,500
589,500
NORWICH VT 05055
|SPEC EXEMPTION
0
TAX MAP:
10-168.220
|
PROP DESC: 3.72 ACRES & DWL
|
911 ADDR: 57 SUNDBACK LN
|
PARCEL ID: 10-168.220 SPAN: 450-142-13183
|
HOUSESITE:
581,800
ACRES:
3.72 R1 T
|GRAND LIST
5,895.00
5,895.00
-----------------------------------------------------------------------------------------------------------------------------------TYSON JUDITH TRUSTEE
HMSTD FILED |
MUNICIPAL
HOMESTEAD
NON-RESIDENTIAL
|LAND
149,300
44 ELM STREET
|BUILDING
216,600
|TOTAL REAL
365,900
365,900
NORWICH VT 05055
|SPEC EXEMPTION
0
TAX MAP:
20-280.000
|
PROP DESC: 0.58 ACRE & DWL
|
911 ADDR: 44 ELM ST
|
PARCEL ID: 20-280.000 SPAN: 450-142-11946
|
HOUSESITE:
365,900
ACRES:
0.58 R1 T
|GRAND LIST
3,659.00
3,659.00
-----------------------------------------------------------------------------------------------------------------------------------UFFORD SHELLEY C TRUSTEE
HMSTD FILED |
MUNICIPAL
HOMESTEAD
NON-RESIDENTIAL
|LAND
158,500
64 LOVELAND RD
|BUILDING
804,700
|TOTAL REAL
963,200
963,200
NORWICH VT 05055
|SPEC EXEMPTION
0
TAX MAP:
16-116.200
|
PROP DESC: 23.5 ACRES & DWL
|
911 ADDR: 64 LOVELAND RD
|
PARCEL ID: 16-116.200 SPAN: 450-142-12164
|
HOUSESITE:
896,900
ACRES:
23.50 R2 T
|GRAND LIST
9,632.00
9,632.00
-----------------------------------------------------------------------------------------------------------------------------------UPPER VALLEY COMM GRANGE #581
|
MUNICIPAL
HOMESTEAD
NON-RESIDENTIAL
|LAND
124,200
PO BOX 648
|BUILDING
179,900
|TOTAL REAL
304,100
304,100
HARTFORD VT 05047
|SPEC EXEMPTION
0
TAX MAP:
20-211.000
|
PROP DESC: .17 ACRE & GRANGE HALL - EXEMPT BY VOTE
|
911 ADDR: 344 MAIN ST
|
PARCEL ID: 20-211.000 SPAN: 450-142-12414
|CONTRACTS
304,100
304,100
HOUSESITE:
0
ACRES:
0.17 C
C
|GRAND LIST
0.00
0.00
------------------------------------------------------------------------------------------------------------------------------------
06/12/2015
01:32 pm
Town of Norwich Grand List
Grand List Report (Detail)
By Name For All Parcels In All Districts
Page 290
jbynum
PARCEL INFORMATION
TAXABLE VALUATIONS / EXEMPTIONS / CONTRACTS
-----------------------------------------------------------------------------------------------------------------------------------UPPER VALLEY EVENTS CENTER LLC
|
MUNICIPAL
HOMESTEAD
NON-RESIDENTIAL
|LAND
112,600
80 US RTE 5
|BUILDING
218,900
|TOTAL REAL
331,500
331,500
NORWICH VT 05055
|SPEC EXEMPTION
0
TAX MAP:
15-063.000
|
PROP DESC: 4.9 ACRES & DWLG
|
911 ADDR: 80 US ROUTE 5 SOUTH
|
PARCEL ID: 15-063.000 SPAN: 450-142-12730
|
HOUSESITE:
318,400
ACRES:
4.90 R1 C
|GRAND LIST
3,315.00
3,315.00
-----------------------------------------------------------------------------------------------------------------------------------UPPER VALLEY LAND TRUST INC
|
MUNICIPAL
HOMESTEAD
NON-RESIDENTIAL
|LAND
11,300
19 BUCK RD
|BUILDING
0
|TOTAL REAL
11,300
11,300
HANOVER NH 03755
|SPEC EXEMPTION
0
TAX MAP:
20-243.200
|
PROP DESC: 2.5 ACRES RESTRICTED USE
|
911 ADDR: 235 MAIN ST
|CURRENT USE
11,000
11,000
PARCEL ID: 20-243.200 SPAN: 450-142-13362
|
HOUSESITE:
0
ACRES:
2.50 M
NS
|GRAND LIST
3.00
3.00
-----------------------------------------------------------------------------------------------------------------------------------UPPER VALLEY ROWING
|
MUNICIPAL
HOMESTEAD
NON-RESIDENTIAL
|LAND
44,900
PO BOX 419
|BUILDING
0
|TOTAL REAL
44,900
44,900
HANOVER NH 03755-0419
|SPEC EXEMPTION
0
TAX MAP:
12-045.000
|
PROP DESC: 2.66 ACRES
|
911 ADDR: US ROUTE 5 NORTH
|
PARCEL ID: 12-045.000 SPAN: 450-142-12706
|
HOUSESITE:
0
ACRES:
2.66 M
C
|GRAND LIST
449.00
449.00
-----------------------------------------------------------------------------------------------------------------------------------USLE STEVEN A.
HMSTD FILED |
MUNICIPAL
HOMESTEAD
NON-RESIDENTIAL
USLE DIANE S.
|LAND
106,400
39 UPPER TURNPIKE RD
|BUILDING
116,800
|TOTAL REAL
223,200
223,200
NORWICH VT 05055
|SPEC EXEMPTION
0
TAX MAP:
10-135.000
|
PROP DESC: 2.82 ACRES & DWL
|
911 ADDR: 39 UPPER TURNPIKE RD
|
PARCEL ID: 10-135.000 SPAN: 450-142-13108
|
HOUSESITE:
219,900
ACRES:
2.82 R1 T
|GRAND LIST
2,232.00
2,232.00
-----------------------------------------------------------------------------------------------------------------------------------VALLEY STEPHEN D
|
MUNICIPAL
HOMESTEAD
NON-RESIDENTIAL
|LAND
177,000
16354 MELODY LANE
|BUILDING
0
|TOTAL REAL
177,000
177,000
GUERNEVILLE CA 95446
|SPEC EXEMPTION
0
TAX MAP:
15-007.000
|
PROP DESC: 33.9 ACRES
|
911 ADDR: NEWTON LN
|
PARCEL ID: 15-007.000 SPAN: 450-142-12799
|
HOUSESITE:
0
ACRES:
33.90 M
NS
|GRAND LIST
1,770.00
1,770.00
------------------------------------------------------------------------------------------------------------------------------------
06/12/2015
01:32 pm
Town of Norwich Grand List
Grand List Report (Detail)
By Name For All Parcels In All Districts
Page 291
jbynum
PARCEL INFORMATION
TAXABLE VALUATIONS / EXEMPTIONS / CONTRACTS
-----------------------------------------------------------------------------------------------------------------------------------VALLEY THOMAS M
|
MUNICIPAL
HOMESTEAD
NON-RESIDENTIAL
|LAND
206,900
136 SCHOOL ST
|BUILDING
0
|TOTAL REAL
206,900
206,900
LEBANON NH 03766
|SPEC EXEMPTION
0
TAX MAP:
15-007.100
|
PROP DESC: 63.7 ACRES INCL 1 ADDL LOT (NV)
|
911 ADDR: JOSHUA RD
|
PARCEL ID: 15-007.100 SPAN: 450-142-13347
|
HOUSESITE:
0
ACRES:
63.70 M
NS
|GRAND LIST
2,069.00
2,069.00
-----------------------------------------------------------------------------------------------------------------------------------VALLEY THOMAS M
|
MUNICIPAL
HOMESTEAD
NON-RESIDENTIAL
|LAND
303,100
136 SCHOOL ST
|BUILDING
0
|TOTAL REAL
303,100
303,100
LEBANON NH 03766
|SPEC EXEMPTION
0
TAX MAP:
15-034.000
|
PROP DESC: 96.5 ACRES
|
911 ADDR: NEWTON LN
|
PARCEL ID: 15-034.000 SPAN: 450-142-12794
|
HOUSESITE:
0
ACRES:
96.50 M
NS
|GRAND LIST
3,031.00
3,031.00
-----------------------------------------------------------------------------------------------------------------------------------VALTIN ALISON E
|
MUNICIPAL
HOMESTEAD
NON-RESIDENTIAL
ERWIN STEVEN C
|LAND
190,200
107 EAST WALNUT ST
|BUILDING
1,200
|TOTAL REAL
191,400
191,400
ALEXANDRIA VA 22301
|SPEC EXEMPTION
0
TAX MAP:
11-037.100
|
PROP DESC: 27 ACRES & SUGARHOUSE
|
911 ADDR: BRADLEY HILL RD
|CURRENT USE
186,700
186,700
PARCEL ID: 11-037.100 SPAN: 450-142-13232
|
HOUSESITE:
0
ACRES:
27.00 M
NS
|GRAND LIST
47.00
47.00
-----------------------------------------------------------------------------------------------------------------------------------VALTIN AND COX REVOCABLE TRUST
|
MUNICIPAL
HOMESTEAD
NON-RESIDENTIAL
|LAND
221,100
309 PROSPECT AV
|BUILDING
298,200
|TOTAL REAL
519,300
519,300
SAN FRANCISCO CA 94110
|SPEC EXEMPTION
0
TAX MAP:
11-037.000
|
PROP DESC: 27 ACRES & DWL
|
911 ADDR: 255 BRADLEY HILL RD
|CURRENT USE
72,600
72,600
PARCEL ID: 11-037.000 SPAN: 450-142-11646
|
HOUSESITE:
443,500
ACRES:
27.00 R2 NS
|GRAND LIST
4,467.00
4,467.00
-----------------------------------------------------------------------------------------------------------------------------------VAN AALST ROBERTUS T
HMSTD FILED |
MUNICIPAL
HOMESTEAD
NON-RESIDENTIAL
COHEN EMILY S
|LAND
121,300
P.O. BOX 1182
|BUILDING
274,200
|TOTAL REAL
395,500
395,500
NORWICH VT 05055-1182
|SPEC EXEMPTION
0
TAX MAP:
05-079.000
|
PROP DESC: 4 ACRES & DWL
|
911 ADDR: 18 MIDDLE RD
|
PARCEL ID: 05-079.000 SPAN: 450-142-12247
|
HOUSESITE:
386,500
ACRES:
4.00 R1 T
|GRAND LIST
3,955.00
3,955.00
------------------------------------------------------------------------------------------------------------------------------------
06/12/2015
01:32 pm
Town of Norwich Grand List
Grand List Report (Detail)
By Name For All Parcels In All Districts
Page 292
jbynum
PARCEL INFORMATION
TAXABLE VALUATIONS / EXEMPTIONS / CONTRACTS
-----------------------------------------------------------------------------------------------------------------------------------VAN ARMAN JAY
HMSTD FILED |
MUNICIPAL
HOMESTEAD
NON-RESIDENTIAL
VAN ARMAN DEBORAH
|LAND
398,000
128 UNION VILLAGE RD
|BUILDING
769,500
|TOTAL REAL
1167,500
871,000
296,500
NORWICH VT 05055
|SPEC EXEMPTION
0
0
TAX MAP:
10-211.000
|
PROP DESC: 116.20 ACRES & 2 DWLS & FARM BLDGS
|
911 ADDR: 128 UNION VILLAGE RD
|CURRENT USE
286,300
242,400
43,900
PARCEL ID: 10-211.000 SPAN: 450-142-13006
|
HOUSESITE:
600,800
ACRES:
116.20 F
T
|GRAND LIST
8,812.00
6,286.00
2,526.00
-----------------------------------------------------------------------------------------------------------------------------------VAN WINKLE KEITH
HMSTD FILED |
MUNICIPAL
HOMESTEAD
NON-RESIDENTIAL
|LAND
173,300
131 HAPPY HILL RD
|BUILDING
314,300
|TOTAL REAL
487,600
446,200
41,400
NORWICH VT 05055
|SPEC EXEMPTION
0
0
TAX MAP:
15-011.100
|
PROP DESC: 16.2 ACRES & DWL
|
911 ADDR: 131 HAPPY HILL RD
|
PARCEL ID: 15-011.100 SPAN: 450-142-12016
|
HOUSESITE:
400,000
ACRES:
16.20 R2 T
|GRAND LIST
4,876.00
4,462.00
414.00
-----------------------------------------------------------------------------------------------------------------------------------VANDOURIS CANDACE T
HMSTD FILED |
MUNICIPAL
HOMESTEAD
NON-RESIDENTIAL
|LAND
0
PO BOX 645
|BUILDING
105,400
|TOTAL REAL
105,400
105,400
NORWICH VT 05055-0645
|SPEC EXEMPTION
0
TAX MAP:
12-003.211
|
PROP DESC: DWELLING ONLY LOT 11
|
911 ADDR: 48 STARLAKE LN
|
PARCEL ID: 12-003.211 SPAN: 450-142-12698
|
HOUSESITE:
105,400
ACRES:
0.00 R1 T
|GRAND LIST
1,054.00
1,054.00
-----------------------------------------------------------------------------------------------------------------------------------VANHOOSER CARROLL T TRUSTEE
|
MUNICIPAL
HOMESTEAD
NON-RESIDENTIAL
VANHOOSER JOAN T TRUSTEE
|LAND
359,900
PO BOX 1003
|BUILDING
461,600
|TOTAL REAL
821,500
821,500
NORWICH VT 05055-1003
|SPEC EXEMPTION
0
TAX MAP:
10-045.000
|
PROP DESC: 38.3 ACRES & DWL INCL 1 ADDL LOT
|
911 ADDR: 140 TILDEN HILL RD
|
PARCEL ID: 10-045.000 SPAN: 450-142-12861
|
HOUSESITE:
618,200
ACRES:
38.30 R2 T
|GRAND LIST
8,215.00
8,215.00
-----------------------------------------------------------------------------------------------------------------------------------VASHEL THOMAS P
HMSTD FILED |
MUNICIPAL
HOMESTEAD
NON-RESIDENTIAL
VELLA SARAH L
|LAND
72,200
27 BULLOCK RD
|BUILDING
156,200
|TOTAL REAL
228,400
228,400
NORWICH VT 05055
|SPEC EXEMPTION
0
TAX MAP:
11-085.000
|
PROP DESC: 2 ACRES & DWL
|
911 ADDR: 27 BULLOCK RD
|
PARCEL ID: 11-085.000 SPAN: 450-142-11728
|
HOUSESITE:
228,400
ACRES:
2.00 R1 T
|GRAND LIST
2,284.00
2,284.00
------------------------------------------------------------------------------------------------------------------------------------
06/12/2015
01:32 pm
Town of Norwich Grand List
Grand List Report (Detail)
By Name For All Parcels In All Districts
Page 293
jbynum
PARCEL INFORMATION
TAXABLE VALUATIONS / EXEMPTIONS / CONTRACTS
-----------------------------------------------------------------------------------------------------------------------------------VERMONT TRANSCO LLC
|
MUNICIPAL
HOMESTEAD
NON-RESIDENTIAL
|LAND
0
366 PINNACLE RIDGE RD
|BUILDING
1086,200
|TOTAL REAL
1086,200
1086,200
RUTLAND VT 05701
|SPEC EXEMPTION
0
TAX MAP:
70-004.000
|
PROP DESC: ELEC. TRANS. LINES
|
911 ADDR: TOWNWIDE
|
PARCEL ID: 70-004.000 SPAN: 450-142-11735
|
HOUSESITE:
0
ACRES:
0.00 UE C
|GRAND LIST
10,862.00
10,862.00
-----------------------------------------------------------------------------------------------------------------------------------VILLARS THOMAS R
|
MUNICIPAL
HOMESTEAD
NON-RESIDENTIAL
READ KATHARINE H
|LAND
102,500
65 FOUR WHEEL DR
|BUILDING
289,100
|TOTAL REAL
391,600
391,600
NORWICH VT 05055-9416
|SPEC EXEMPTION
0
TAX MAP:
16-022.000
|
PROP DESC: 2 ACRES & DWL
|
911 ADDR: 65 FOUR WHEEL DR
|
PARCEL ID: 16-022.000 SPAN: 450-142-11974
|
HOUSESITE:
391,600
ACRES:
2.00 R1 T
|GRAND LIST
3,916.00
3,916.00
-----------------------------------------------------------------------------------------------------------------------------------VINCENT JONATHAN S TRUSTEE
HMSTD FILED |
MUNICIPAL
HOMESTEAD
NON-RESIDENTIAL
VINCENT PRISCILLA TRUSTEE
|LAND
176,900
PO BOX 220
|BUILDING
672,900
|TOTAL REAL
849,800
849,800
NORWICH VT 05055-0220
|SPEC EXEMPTION
0
TAX MAP:
20-246.000
|
PROP DESC: .67 ACRES & DWL
|
911 ADDR: 267 MAIN ST
|
PARCEL ID: 20-246.000 SPAN: 450-142-12468
|
HOUSESITE:
849,800
ACRES:
0.67 R1 T
|GRAND LIST
8,498.00
8,498.00
-----------------------------------------------------------------------------------------------------------------------------------VINIKOOR ROBERT
|
MUNICIPAL
HOMESTEAD
NON-RESIDENTIAL
VINIKOOR SHEILA
|LAND
134,700
297 BEAVER MEADOW RD
|BUILDING
338,400
|TOTAL REAL
473,100
473,100
NORWICH VT 05055
|SPEC EXEMPTION
0
TAX MAP:
10-018.000
|
PROP DESC: .709 ACRES & DWL/APT
|
911 ADDR: 297 BEAVER MEADOW RD
|
PARCEL ID: 10-018.000 SPAN: 450-142-11579
|
HOUSESITE:
473,100
ACRES:
0.71 R1 T
|GRAND LIST
4,731.00
4,731.00
-----------------------------------------------------------------------------------------------------------------------------------VIRGINIA ROSS ARTHUR
HMSTD FILED |
MUNICIPAL
HOMESTEAD
NON-RESIDENTIAL
VIRGINIA-CHASE SANDRA LEE
|LAND
184,100
180 PATTRELL RD
|BUILDING
285,200
|TOTAL REAL
469,300
469,300
NORWICH VT 05055
|SPEC EXEMPTION
0
TAX MAP:
05-101.000
|
PROP DESC: 20.2 ACRES & DWL
|
911 ADDR: 180 PATTRELL RD
|
PARCEL ID: 05-101.000 SPAN: 450-142-12505
|
HOUSESITE:
412,100
ACRES:
20.20 R2 T
|GRAND LIST
4,693.00
4,693.00
------------------------------------------------------------------------------------------------------------------------------------
06/12/2015
01:32 pm
Town of Norwich Grand List
Grand List Report (Detail)
By Name For All Parcels In All Districts
Page 294
jbynum
PARCEL INFORMATION
TAXABLE VALUATIONS / EXEMPTIONS / CONTRACTS
-----------------------------------------------------------------------------------------------------------------------------------VISION PROPERTIES VERMONT LLC
|
MUNICIPAL
HOMESTEAD
NON-RESIDENTIAL
|LAND
126,000
474 MAIN STREET
|BUILDING
0
|TOTAL REAL
126,000
126,000
NORWICH VT 05055
|SPEC EXEMPTION
0
TAX MAP:
20-079.100
|
PROP DESC: .8 ACRES
|
911 ADDR: BEAVER MEADOW RD
|
PARCEL ID: 20-079.100 SPAN: 450-142-13231
|
HOUSESITE:
0
ACRES:
0.81 M
C
|GRAND LIST
1,260.00
1,260.00
-----------------------------------------------------------------------------------------------------------------------------------VITT GEOFFREY J
HMSTD FILED |
MUNICIPAL
HOMESTEAD
NON-RESIDENTIAL
VITT NOELLE G
|LAND
189,700
PO BOX 345
|BUILDING
576,700
|TOTAL REAL
766,400
766,400
NORWICH VT 05055-0345
|SPEC EXEMPTION
0
TAX MAP:
10-046.100
|
PROP DESC: 9.05 ACRES & DWL
|
911 ADDR: 211 BRIGHAM HILL RD
|
PARCEL ID: 10-046.100 SPAN: 450-142-11715
|
HOUSESITE:
740,400
ACRES:
9.05 R2 T
|GRAND LIST
7,664.00
7,664.00
-----------------------------------------------------------------------------------------------------------------------------------VOAKE SUSAN H
HMSTD FILED |
MUNICIPAL
HOMESTEAD
NON-RESIDENTIAL
VOAKE RONALD L
|LAND
129,700
31 TILDEN HILL RD
|BUILDING
430,400
|TOTAL REAL
560,100
456,804
103,296
NORWICH VT 05055
|SPEC EXEMPTION
0
0
TAX MAP:
10-066.000
|
PROP DESC: 2.6 ACRES & DWL
|
911 ADDR: 31 TILDEN HILL RD
|
PARCEL ID: 10-066.000 SPAN: 450-142-12854
|
HOUSESITE:
454,104
ACRES:
2.60 R1 T
|GRAND LIST
5,601.00
4,568.04
1,032.96
-----------------------------------------------------------------------------------------------------------------------------------VOELKEL J.E. & P.J.M. REV TRUST
HMSTD FILED |
MUNICIPAL
HOMESTEAD
NON-RESIDENTIAL
|LAND
178,800
351 MAIN ST
|BUILDING
986,700
|TOTAL REAL
1165,500
1165,500
NORWICH VT 05055
|SPEC EXEMPTION
0
TAX MAP:
20-124.000
|
PROP DESC: 1.85 ACRES & DWL
|
911 ADDR: 351 MAIN ST
|
PARCEL ID: 20-124.000 SPAN: 450-142-12419
|
HOUSESITE:
1165,500
ACRES:
1.85 R1 T
|GRAND LIST
11,655.00
11,655.00
-----------------------------------------------------------------------------------------------------------------------------------VOGEL JOHN H JR
HMSTD FILED |
MUNICIPAL
HOMESTEAD
NON-RESIDENTIAL
MUSIC JUDITH A.
|LAND
150,900
111 CHURCH STREET
|BUILDING
392,900
|TOTAL REAL
543,800
543,800
NORWICH VT 05055
|SPEC EXEMPTION
0
TAX MAP:
16-026.000
|
PROP DESC: 1.2 ACRES & DWL
|
911 ADDR: 111 CHURCH ST
|
PARCEL ID: 16-026.000 SPAN: 450-142-11860
|
HOUSESITE:
543,800
ACRES:
1.20 R1 T
|GRAND LIST
5,438.00
5,438.00
------------------------------------------------------------------------------------------------------------------------------------
06/12/2015
01:32 pm
Town of Norwich Grand List
Grand List Report (Detail)
By Name For All Parcels In All Districts
Page 295
jbynum
PARCEL INFORMATION
TAXABLE VALUATIONS / EXEMPTIONS / CONTRACTS
-----------------------------------------------------------------------------------------------------------------------------------VOIGT STEVEN PAUL
HMSTD FILED |
MUNICIPAL
HOMESTEAD
NON-RESIDENTIAL
RICE ROBIN
|LAND
166,600
28 OWL CREEK LA
|BUILDING
335,700
|TOTAL REAL
502,300
502,300
NORWICH VT 05055
|SPEC EXEMPTION
0
TAX MAP:
10-039.200
|
PROP DESC: 4 ACRES & DWL
|
911 ADDR: 28 OWL CREEK LN
|
PARCEL ID: 10-039.200 SPAN: 450-142-11710
|
HOUSESITE:
493,300
ACRES:
4.00 R1 T
|GRAND LIST
5,023.00
5,023.00
-----------------------------------------------------------------------------------------------------------------------------------VON MOLTKE HELMUTH
|
MUNICIPAL
HOMESTEAD
NON-RESIDENTIAL
VON MOLTKE KERI
|LAND
80,700
249 HOPSON RD
|BUILDING
254,200
|TOTAL REAL
334,900
334,900
NORWICH VT 05055-0364
|SPEC EXEMPTION
0
TAX MAP:
20-314.100
|
PROP DESC: 50% INTERESTIN10.1 AC & CONDOMINIUM
|
911 ADDR: 249 HOPSON RD
|
PARCEL ID: 20-314.100 SPAN: 450-142-12065
|
HOUSESITE:
321,200
ACRES:
5.05 R1 T
|GRAND LIST
3,349.00
3,349.00
-----------------------------------------------------------------------------------------------------------------------------------VON MOLTKE HELMUTH
|
MUNICIPAL
HOMESTEAD
NON-RESIDENTIAL
VON MOLTKE KERI
|LAND
154,300
249 HOPSON RD
|BUILDING
0
|TOTAL REAL
154,300
154,300
NORWICH VT 05055-0364
|SPEC EXEMPTION
0
TAX MAP:
20-314.200
|
PROP DESC: 13.4 ACRES LAND
|
911 ADDR: HOPSON RD
|
PARCEL ID: 20-314.200 SPAN: 450-142-13271
|
HOUSESITE:
0
ACRES:
13.40 M
T
|GRAND LIST
1,543.00
1,543.00
-----------------------------------------------------------------------------------------------------------------------------------VON MOLTKE JOHANNES
|
MUNICIPAL
HOMESTEAD
NON-RESIDENTIAL
VON MOLTKE HELMUTH & KERI
|LAND
80,700
503 SOULE BLVD
|BUILDING
243,500
|TOTAL REAL
324,200
324,200
ANN ARBOR MI 48103
|SPEC EXEMPTION
0
TAX MAP:
20-314.300
|
PROP DESC: 50% INTERESTIN10.1 AC & CONDOMINIUM
|
911 ADDR: 239 HOPSON RD
|
PARCEL ID: 20-314.300 SPAN: 450-142-13272
|
HOUSESITE:
310,500
ACRES:
5.05 R1 NS
|GRAND LIST
3,242.00
3,242.00
-----------------------------------------------------------------------------------------------------------------------------------VUYOVICH BRETT
HMSTD FILED |
MUNICIPAL
HOMESTEAD
NON-RESIDENTIAL
VUYOVICH CARRIE
|LAND
100,600
91 ILLSLEY RD
|BUILDING
208,200
|TOTAL REAL
308,800
308,800
WHITE RIVER JUNCTION VT 05001
|SPEC EXEMPTION
0
TAX MAP:
14-007.000
|VETERAN
40,000
40,000
PROP DESC: 11 ACRES
|
911 ADDR: 91 ILLSLEY RD
|
PARCEL ID: 14-007.000 SPAN: 450-142-12605
|
HOUSESITE:
280,300
ACRES:
11.00 R2 T
|GRAND LIST
2,688.00
2,688.00
------------------------------------------------------------------------------------------------------------------------------------
06/12/2015
01:32 pm
Town of Norwich Grand List
Grand List Report (Detail)
By Name For All Parcels In All Districts
Page 296
jbynum
PARCEL INFORMATION
TAXABLE VALUATIONS / EXEMPTIONS / CONTRACTS
-----------------------------------------------------------------------------------------------------------------------------------WALDECKER BARBARA ET AL
|
MUNICIPAL
HOMESTEAD
NON-RESIDENTIAL
STYNE DEBORAH & RUBY, THOMAS
|LAND
199,600
70 MAPLE AV
|BUILDING
254,400
|TOTAL REAL
454,000
454,000
WESTBURY NY 11590
|SPEC EXEMPTION
0
TAX MAP:
04-036.100
|
PROP DESC: 25.87 ACRES & DWL
|
911 ADDR: 5 NEEDHAM RD
|
PARCEL ID: 04-036.100 SPAN: 450-142-13130
|
HOUSESITE:
381,200
ACRES:
25.87 R2 NS
|GRAND LIST
4,540.00
4,540.00
-----------------------------------------------------------------------------------------------------------------------------------WALKER ANNE S ET AL
|
MUNICIPAL
HOMESTEAD
NON-RESIDENTIAL
SIRKIN & CARL R SARGENT KAREN S
|LAND
122,000
10 WILDWOOD RD
|BUILDING
92,500
|TOTAL REAL
214,500
214,500
WAYLAND MA 01778
|SPEC EXEMPTION
0
TAX MAP:
06-028.000
|
PROP DESC: 2.21 ACRES & DWL
|
911 ADDR: 420 CAMPBELL FLATS RD
|
PARCEL ID: 06-028.000 SPAN: 450-142-11773
|
HOUSESITE:
213,700
ACRES:
2.21 R1 NS
|GRAND LIST
2,145.00
2,145.00
-----------------------------------------------------------------------------------------------------------------------------------WALLIS IAIN MERRIT
HMSTD FILED |
MUNICIPAL
HOMESTEAD
NON-RESIDENTIAL
WALLIS GRAHAM B
|LAND
153,300
PO BOX 218
|BUILDING
176,700
|TOTAL REAL
330,000
330,000
NORWICH VT 05055-1064
|SPEC EXEMPTION
0
TAX MAP:
11-129.100
|
PROP DESC: 2.07 ACS & DWL
|
911 ADDR: 132 BLOOD HILL RD
|
PARCEL ID: 11-129.100 SPAN: 450-142-11628
|
HOUSESITE:
329,700
ACRES:
2.07 R1 T
|GRAND LIST
3,300.00
3,300.00
-----------------------------------------------------------------------------------------------------------------------------------WALLIS JEREMY B
HMSTD FILED |
MUNICIPAL
HOMESTEAD
NON-RESIDENTIAL
WALLIS SHANNON MULLENS
|LAND
96,100
27 SARGENT ST
|BUILDING
251,300
|TOTAL REAL
347,400
347,400
NORWICH VT 05055
|SPEC EXEMPTION
0
TAX MAP:
20-089.000
|
PROP DESC: .34 ACRE & DWL
|
911 ADDR: 27 SARGENT ST
|
PARCEL ID: 20-089.000 SPAN: 450-142-12788
|
HOUSESITE:
347,400
ACRES:
0.34 R1 T
|GRAND LIST
3,474.00
3,474.00
-----------------------------------------------------------------------------------------------------------------------------------WALLIS SUZANNE H
HMSTD FILED |
MUNICIPAL
HOMESTEAD
NON-RESIDENTIAL
|LAND
169,900
154 BLOOD HILL
|BUILDING
376,000
|TOTAL REAL
545,900
545,900
NORWICH VT 05055
|SPEC EXEMPTION
0
TAX MAP:
11-129.000
|
PROP DESC: 6.13 ACRES & DWL
|
911 ADDR: 154 BLOOD HILL RD
|
PARCEL ID: 11-129.000 SPAN: 450-142-11627
|
HOUSESITE:
528,700
ACRES:
6.13 R2 T
|GRAND LIST
5,459.00
5,459.00
------------------------------------------------------------------------------------------------------------------------------------
06/12/2015
01:32 pm
Town of Norwich Grand List
Grand List Report (Detail)
By Name For All Parcels In All Districts
Page 297
jbynum
PARCEL INFORMATION
TAXABLE VALUATIONS / EXEMPTIONS / CONTRACTS
-----------------------------------------------------------------------------------------------------------------------------------WALSH DANIEL
HMSTD FILED |
MUNICIPAL
HOMESTEAD
NON-RESIDENTIAL
WALSH TERI
|LAND
152,100
1464 BEAVER MEADOW RD
|BUILDING
939,100
|TOTAL REAL
1091,200
1091,200
NORWICH VT 05055
|SPEC EXEMPTION
0
TAX MAP:
03-058.000
|
PROP DESC: 13 ACRES & DWL
|
911 ADDR: 1464 BEAVER MEADOW RD
|
PARCEL ID: 03-058.000 SPAN: 450-142-11602
|
HOUSESITE:
1061,300
ACRES:
13.00 R2 T
|GRAND LIST
10,912.00
10,912.00
-----------------------------------------------------------------------------------------------------------------------------------WALSH JAMES
HMSTD FILED |
MUNICIPAL
HOMESTEAD
NON-RESIDENTIAL
MUNAFO GIAVANNA
|LAND
149,600
240 DOUGLAS RD
|BUILDING
922,700
|TOTAL REAL
1072,300
1072,300
NORWICH VT 05055
|SPEC EXEMPTION
0
TAX MAP:
10-144.100
|
PROP DESC: 10.2 ACRES & DWL
|
911 ADDR: 240 DOUGLAS RD
|
PARCEL ID: 10-144.100 SPAN: 450-142-11916
|
HOUSESITE:
1048,800
ACRES:
10.20 R2 T
|GRAND LIST
10,723.00
10,723.00
-----------------------------------------------------------------------------------------------------------------------------------WALZ FRANCES C
HMSTD FILED |
MUNICIPAL
HOMESTEAD
NON-RESIDENTIAL
WALZ TERENCE M
|LAND
129,400
914 TURNPIKE RD
|BUILDING
55,300
|TOTAL REAL
184,700
171,443
13,257
NORWICH VT 05055
|SPEC EXEMPTION
0
0
TAX MAP:
10-095.000
|
PROP DESC: 2.4 ACRES & MANF HOME
|
911 ADDR: 914 TURNPIKE RD
|
PARCEL ID: 10-095.000 SPAN: 450-142-12948
|
HOUSESITE:
169,843
ACRES:
2.40 R1 T
|GRAND LIST
1,847.00
1,714.43
132.57
-----------------------------------------------------------------------------------------------------------------------------------WARD THOMAS NELSON
HMSTD FILED |
MUNICIPAL
HOMESTEAD
NON-RESIDENTIAL
WARD KAREN KROOK
|LAND
140,100
32 BRAMBLE LA
|BUILDING
395,500
|TOTAL REAL
535,600
535,600
NORWICH VT 05055
|SPEC EXEMPTION
0
TAX MAP:
04-027.000
|
PROP DESC: 5.5 ACRES & DWL
|
911 ADDR: 32 BRAMBLE LN
|
PARCEL ID: 04-027.000 SPAN: 450-142-12974
|
HOUSESITE:
521,900
ACRES:
5.50 R1 T
|GRAND LIST
5,356.00
5,356.00
-----------------------------------------------------------------------------------------------------------------------------------WARHOLD LANCE G
HMSTD FILED |
MUNICIPAL
HOMESTEAD
NON-RESIDENTIAL
GABANA THERESA M
|LAND
145,100
50 DOUGLAS RD
|BUILDING
434,000
|TOTAL REAL
579,100
579,100
NORWICH VT 05055
|SPEC EXEMPTION
0
TAX MAP:
10-155.000
|
PROP DESC: 5.7 ACRES & DWL
|
911 ADDR: 50 DOUGLAS RD
|
PARCEL ID: 10-155.000 SPAN: 450-142-11888
|
HOUSESITE:
563,300
ACRES:
5.70 R1 T
|GRAND LIST
5,791.00
5,791.00
------------------------------------------------------------------------------------------------------------------------------------
06/12/2015
01:32 pm
Town of Norwich Grand List
Grand List Report (Detail)
By Name For All Parcels In All Districts
Page 298
jbynum
PARCEL INFORMATION
TAXABLE VALUATIONS / EXEMPTIONS / CONTRACTS
-----------------------------------------------------------------------------------------------------------------------------------WARNER MEADOW ASSTS
|
MUNICIPAL
HOMESTEAD
NON-RESIDENTIAL
C/O R MOSENTHAL
|LAND
65,700
39 BROOKSIDE DR
|BUILDING
0
|TOTAL REAL
65,700
65,700
NORWICH VT 05055
|SPEC EXEMPTION
0
TAX MAP:
20-267.000
|
PROP DESC: 21 ACRES
|
911 ADDR: HOPSON RD
|
PARCEL ID: 20-267.000 SPAN: 450-142-12054
|
HOUSESITE:
0
ACRES:
21.00 M
C
|GRAND LIST
657.00
657.00
-----------------------------------------------------------------------------------------------------------------------------------WARNER SANDRA L LIFE EST
|
MUNICIPAL
HOMESTEAD
NON-RESIDENTIAL
PHILLIPS WHITEHAIR BETH E ETAL
|LAND
39,600
P O BOX 484
|BUILDING
0
|TOTAL REAL
39,600
39,600
NORWICH VT 05055
|SPEC EXEMPTION
0
TAX MAP:
05-031.000
|
PROP DESC: 15 ACRES
|
911 ADDR: STOWELL RD
|
PARCEL ID: 05-031.000 SPAN: 450-142-12410
|
HOUSESITE:
0
ACRES:
15.00 M
T
|GRAND LIST
396.00
396.00
-----------------------------------------------------------------------------------------------------------------------------------WARNER SUSAN J
HMSTD FILED |
MUNICIPAL
HOMESTEAD
NON-RESIDENTIAL
MEHLING JOSEPH
|LAND
112,100
476 HOGBACK RD
|BUILDING
327,900
|TOTAL REAL
440,000
440,000
NORWICH VT 05055-9489
|SPEC EXEMPTION
0
TAX MAP:
06-038.000
|
PROP DESC: 6.5 ACRES & DWL
|
911 ADDR: 476 HOGBACK RD
|
PARCEL ID: 06-038.000 SPAN: 450-142-12051
|
HOUSESITE:
425,300
ACRES:
6.50 R2 T
|GRAND LIST
4,400.00
4,400.00
-----------------------------------------------------------------------------------------------------------------------------------WARSHELL ELAINE R
|
MUNICIPAL
HOMESTEAD
NON-RESIDENTIAL
GROSSMAN RICHARD W
|LAND
180,800
112 WYMAN TRAIL
|BUILDING
0
|TOTAL REAL
180,800
180,800
MOULTONBOROUGH NH 03254
|SPEC EXEMPTION
0
TAX MAP:
15-027.100
|
PROP DESC: 12.1 ACRES LAND
|
911 ADDR: BRAGG HILL RD
|
PARCEL ID: 15-027.100 SPAN: 450-142-13398
|
HOUSESITE:
0
ACRES:
12.10 M
NS
|GRAND LIST
1,808.00
1,808.00
-----------------------------------------------------------------------------------------------------------------------------------WATANABE JOHN M
HMSTD FILED |
MUNICIPAL
HOMESTEAD
NON-RESIDENTIAL
NICHOLS DEBORAH L
|LAND
119,500
256 HAWK PINE RD
|BUILDING
385,300
|TOTAL REAL
504,800
504,800
NORWICH VT 05055
|SPEC EXEMPTION
0
TAX MAP:
11-172.000
|
PROP DESC: 1.52 ACRES & DWL
|
911 ADDR: 256 HAWK PINE RD
|
PARCEL ID: 11-172.000 SPAN: 450-142-12546
|
HOUSESITE:
504,800
ACRES:
1.52 R1 T
|GRAND LIST
5,048.00
5,048.00
------------------------------------------------------------------------------------------------------------------------------------
06/12/2015
01:32 pm
Town of Norwich Grand List
Grand List Report (Detail)
By Name For All Parcels In All Districts
Page 299
jbynum
PARCEL INFORMATION
TAXABLE VALUATIONS / EXEMPTIONS / CONTRACTS
-----------------------------------------------------------------------------------------------------------------------------------WATERMAN ELAINE
HMSTD FILED |
MUNICIPAL
HOMESTEAD
NON-RESIDENTIAL
|LAND
118,000
PO BOX 85
|BUILDING
365,700
|TOTAL REAL
483,700
301,050
182,650
NORWICH VT 05055-0085
|SPEC EXEMPTION
0
0
TAX MAP:
16-043.000
|
PROP DESC: .39 ACRE & DWL/APT
|
911 ADDR: 63 CHURCH ST
|
PARCEL ID: 16-043.000 SPAN: 450-142-11852
|
HOUSESITE:
301,050
ACRES:
0.39 R1 T
|GRAND LIST
4,837.00
3,010.50
1,826.50
-----------------------------------------------------------------------------------------------------------------------------------WEBSTER GRAHAM T
HMSTD FILED |
MUNICIPAL
HOMESTEAD
NON-RESIDENTIAL
LEMASURIER JANE S
|LAND
140,100
37 GOODRICH FOUR CORNERS RD
|BUILDING
308,900
|TOTAL REAL
449,000
395,700
53,300
NORWICH VT 05055
|SPEC EXEMPTION
0
0
TAX MAP:
11-093.200
|
PROP DESC: 16.3 ACRES & DWL
|
911 ADDR: 37 GOODRICH FOUR CORNERS RD
|
PARCEL ID: 11-093.200 SPAN: 450-142-11996
|
HOUSESITE:
358,500
ACRES:
16.30 R2 T
|GRAND LIST
4,490.00
3,957.00
533.00
-----------------------------------------------------------------------------------------------------------------------------------WEBSTER HEIDI P
HMSTD FILED |
MUNICIPAL
HOMESTEAD
NON-RESIDENTIAL
|LAND
128,000
94 MYSTIC DRIVE
|BUILDING
251,000
|TOTAL REAL
379,000
379,000
NORWICH VT 05055
|SPEC EXEMPTION
0
TAX MAP:
11-152.600
|
PROP DESC: 5.27 ACRES & DWL
|
911 ADDR: 94 MYSTIC DR
|
PARCEL ID: 11-152.600 SPAN: 450-142-11995
|
HOUSESITE:
371,800
ACRES:
5.27 R1 T
|GRAND LIST
3,790.00
3,790.00
-----------------------------------------------------------------------------------------------------------------------------------WEINGARTEN JACK
|
MUNICIPAL
HOMESTEAD
NON-RESIDENTIAL
|LAND
182,700
3711 SAN FELIPE ST
|BUILDING
550,200
|TOTAL REAL
732,900
732,900
HOUSTON TX 77027-4040
|SPEC EXEMPTION
0
TAX MAP:
11-073.000
|
PROP DESC: 32.1 ACRES & DWL
|
911 ADDR: 5 TOWN FARM RD
|
PARCEL ID: 11-073.000 SPAN: 450-142-12863
|
HOUSESITE:
652,200
ACRES:
32.10 R2 NS
|GRAND LIST
7,329.00
7,329.00
-----------------------------------------------------------------------------------------------------------------------------------WEINSTEIN ADAM
HMSTD FILED |
MUNICIPAL
HOMESTEAD
NON-RESIDENTIAL
SALON HEATHER
|LAND
167,200
369 BRAGG HILL RD
|BUILDING
500,400
|TOTAL REAL
667,600
667,600
NORWICH VT 05055
|SPEC EXEMPTION
0
TAX MAP:
15-025.000
|
PROP DESC: 5 ACRES & DWL
|
911 ADDR: 369 BRAGG HILL RD
|
PARCEL ID: 15-025.000 SPAN: 450-142-11667
|
HOUSESITE:
655,400
ACRES:
5.00 R1 T
|GRAND LIST
6,676.00
6,676.00
------------------------------------------------------------------------------------------------------------------------------------
06/12/2015
01:32 pm
Town of Norwich Grand List
Grand List Report (Detail)
By Name For All Parcels In All Districts
Page 300
jbynum
PARCEL INFORMATION
TAXABLE VALUATIONS / EXEMPTIONS / CONTRACTS
-----------------------------------------------------------------------------------------------------------------------------------WEISENFELD EDWARD A.
|
MUNICIPAL
HOMESTEAD
NON-RESIDENTIAL
WEISENFELD BETTY
|LAND
153,100
82 CHADWICK PL
|BUILDING
363,500
|TOTAL REAL
516,600
516,600
GLEN ROCK NJ 07457
|SPEC EXEMPTION
0
TAX MAP:
20-015.000
|
PROP DESC: 1.7 ACRES & DWL
|
911 ADDR: 218 ELM ST
|
PARCEL ID: 20-015.000 SPAN: 450-142-11964
|
HOUSESITE:
516,600
ACRES:
1.70 R1 NS
|GRAND LIST
5,166.00
5,166.00
-----------------------------------------------------------------------------------------------------------------------------------WELCH CHARLES J
HMSTD FILED |
MUNICIPAL
HOMESTEAD
NON-RESIDENTIAL
WELCH LAUREEN
|LAND
70,300
47 CHAPEL HILL RD
|BUILDING
267,000
|TOTAL REAL
337,300
337,300
NORWICH VT 05055
|SPEC EXEMPTION
0
TAX MAP:
09-009.000
|
PROP DESC: 2 ACRES & DWL
|
911 ADDR: 47 CHAPEL HILL RD
|
PARCEL ID: 09-009.000 SPAN: 450-142-11838
|
HOUSESITE:
337,300
ACRES:
2.00 R1 T
|GRAND LIST
3,373.00
3,373.00
-----------------------------------------------------------------------------------------------------------------------------------WELCH WILLIAM
HMSTD FILED |
MUNICIPAL
HOMESTEAD
NON-RESIDENTIAL
WELCH SHIRLEY
|LAND
109,800
PO BOX 138
|BUILDING
66,900
|TOTAL REAL
176,700
176,700
NORWICH VT 05055-0138
|SPEC EXEMPTION
0
TAX MAP:
06-019.000
|
PROP DESC: 4 ACRES & DWL
|
911 ADDR: 355 CAMPBELL FLATS RD
|
PARCEL ID: 06-019.000 SPAN: 450-142-11769
|
HOUSESITE:
169,500
ACRES:
4.00 R1 T
|GRAND LIST
1,767.00
1,767.00
-----------------------------------------------------------------------------------------------------------------------------------WELDER FRANKLIN
HMSTD FILED |
MUNICIPAL
HOMESTEAD
NON-RESIDENTIAL
WELDER CATHERINE
|LAND
120,500
34 GLEN RIDGE RD
|BUILDING
242,700
|TOTAL REAL
363,200
363,200
NORWICH VT 05055
|SPEC EXEMPTION
0
TAX MAP:
10-017.000
|
PROP DESC: 1.46 ACRES & DWL
|
911 ADDR: 34 GLEN RIDGE RD
|
PARCEL ID: 10-017.000 SPAN: 450-142-11978
|
HOUSESITE:
363,200
ACRES:
1.46 R1 T
|GRAND LIST
3,632.00
3,632.00
-----------------------------------------------------------------------------------------------------------------------------------WELLING CURTIS R
|
MUNICIPAL
HOMESTEAD
NON-RESIDENTIAL
WELLING KATHARINE H
|LAND
193,700
239 MILLSTONE ROAD
|BUILDING
829,800
|TOTAL REAL
1023,500
1023,500
WILTON CT 06897
|SPEC EXEMPTION
0
TAX MAP:
11-156.000
|
PROP DESC: 12.4 ACRES & DWL
|
911 ADDR: 18 UPPER PASTURE RD
|
PARCEL ID: 11-156.000 SPAN: 450-142-13094
|
HOUSESITE:
987,900
ACRES:
12.40 R2 NS
|GRAND LIST
10,235.00
10,235.00
------------------------------------------------------------------------------------------------------------------------------------
06/12/2015
01:32 pm
Town of Norwich Grand List
Grand List Report (Detail)
By Name For All Parcels In All Districts
Page 301
jbynum
PARCEL INFORMATION
TAXABLE VALUATIONS / EXEMPTIONS / CONTRACTS
-----------------------------------------------------------------------------------------------------------------------------------WELSH SUSAN M
HMSTD FILED |
MUNICIPAL
HOMESTEAD
NON-RESIDENTIAL
|LAND
133,500
1419 NEW BOSTON RD
|BUILDING
60,200
|TOTAL REAL
193,700
193,700
NORWICH VT 05055-9693
|SPEC EXEMPTION
0
TAX MAP:
04-059.200
|
PROP DESC: 18.18 ACRES & DWL
|
911 ADDR: 1419 NEW BOSTON RD
|
PARCEL ID: 04-059.200 SPAN: 450-142-12370
|
HOUSESITE:
147,600
ACRES:
18.18 R2 T
|GRAND LIST
1,937.00
1,937.00
-----------------------------------------------------------------------------------------------------------------------------------WESTLING CRAIG R
HMSTD FILED |
MUNICIPAL
HOMESTEAD
NON-RESIDENTIAL
WESTLING HOLLOWAY R
|LAND
133,000
40 SUNDBACK RD
|BUILDING
414,900
|TOTAL REAL
547,900
547,900
NORWICH VT 05055
|SPEC EXEMPTION
0
TAX MAP:
10-168.300
|
PROP DESC: 13.8 ACRES & DWL
|
911 ADDR: 40 SUNDBACK LN
|
PARCEL ID: 10-168.300 SPAN: 450-142-12304
|
HOUSESITE:
516,300
ACRES:
13.80 R2 T
|GRAND LIST
5,479.00
5,479.00
-----------------------------------------------------------------------------------------------------------------------------------WESTRICH JAMES L II
HMSTD FILED |
MUNICIPAL
HOMESTEAD
NON-RESIDENTIAL
SPELLMAN PATRICIA A
|LAND
123,200
1091 UNION VILLAGE RD
|BUILDING
298,300
|TOTAL REAL
421,500
421,500
NORWICH VT 05055-9661
|SPEC EXEMPTION
0
TAX MAP:
11-067.100
|
PROP DESC: 10.18 ACRES & DWL
|
911 ADDR: 1091 UNION VILLAGE RD
|
PARCEL ID: 11-067.100 SPAN: 450-142-13049
|
HOUSESITE:
392,200
ACRES:
10.18 R2 T
|GRAND LIST
4,215.00
4,215.00
-----------------------------------------------------------------------------------------------------------------------------------WETTEMANN LORRAINE E
HMSTD FILED |
MUNICIPAL
HOMESTEAD
NON-RESIDENTIAL
|LAND
72,100
22 TIGERTOWN RD
|BUILDING
94,800
|TOTAL REAL
166,900
166,900
NORWICH VT 05055
|SPEC EXEMPTION
0
TAX MAP:
09-002.000
|
PROP DESC: 3.7 ACRES & DWL
|
911 ADDR: 22 TIGERTOWN RD
|
PARCEL ID: 09-002.000 SPAN: 450-142-12820
|
HOUSESITE:
160,800
ACRES:
3.70 R1 T
|GRAND LIST
1,669.00
1,669.00
-----------------------------------------------------------------------------------------------------------------------------------WETZEL BROOKE
HMSTD FILED |
MUNICIPAL
HOMESTEAD
NON-RESIDENTIAL
|LAND
77,700
3 LOVELAND RD
|BUILDING
277,700
|TOTAL REAL
355,400
355,400
NORWICH VT 05055
|SPEC EXEMPTION
0
TAX MAP:
16-114.000
|
PROP DESC: 0.48 ACRES & DWL
|
911 ADDR: 3 LOVELAND RD
|
PARCEL ID: 16-114.000 SPAN: 450-142-12663
|
HOUSESITE:
355,400
ACRES:
0.48 R1 T
|GRAND LIST
3,554.00
3,554.00
------------------------------------------------------------------------------------------------------------------------------------
06/12/2015
01:32 pm
Town of Norwich Grand List
Grand List Report (Detail)
By Name For All Parcels In All Districts
Page 302
jbynum
PARCEL INFORMATION
TAXABLE VALUATIONS / EXEMPTIONS / CONTRACTS
-----------------------------------------------------------------------------------------------------------------------------------WHEATING JUSTIN P
|
MUNICIPAL
HOMESTEAD
NON-RESIDENTIAL
WHEATING BETSY P
|LAND
118,800
1225 HARVEY FARM RD
|BUILDING
352,600
|TOTAL REAL
471,400
471,400
WATERBURY CENTER VT 05677
|SPEC EXEMPTION
0
TAX MAP:
16-156.000
|
PROP DESC: 1.30 ACRES & DWL
|
911 ADDR: 339 HAWK PINE RD
|
PARCEL ID: 16-156.000 SPAN: 450-142-12556
|
HOUSESITE:
471,400
ACRES:
1.30 R1 S
|GRAND LIST
4,714.00
4,714.00
-----------------------------------------------------------------------------------------------------------------------------------WHITE C STUART JR
HMSTD FILED |
MUNICIPAL
HOMESTEAD
NON-RESIDENTIAL
WHITE MATILDA R
|LAND
171,900
P O BOX 40
|BUILDING
331,400
|TOTAL REAL
503,300
503,300
NORWICH VT 05055
|SPEC EXEMPTION
0
TAX MAP:
15-015.000
|
PROP DESC: 15.7 ACRES & DWL
|
911 ADDR: 92 HAPPY HILL RD
|
PARCEL ID: 15-015.000 SPAN: 450-142-12015
|
HOUSESITE:
458,500
ACRES:
15.70 R2 T
|GRAND LIST
5,033.00
5,033.00
-----------------------------------------------------------------------------------------------------------------------------------WHITE CHARLES H JR
|
MUNICIPAL
HOMESTEAD
NON-RESIDENTIAL
WHITE MARIE
|LAND
96,100
1200 BRITANIA LN
|BUILDING
203,000
|TOTAL REAL
299,100
299,100
ANNAPOLIS MD 21403-4353
|SPEC EXEMPTION
0
TAX MAP:
20-097.000
|
PROP DESC: 0.34 ACRE & DWL
|
911 ADDR: 44 HUNTLEY ST
|
PARCEL ID: 20-097.000 SPAN: 450-142-12088
|
HOUSESITE:
299,100
ACRES:
0.34 R1 NS
|GRAND LIST
2,991.00
2,991.00
-----------------------------------------------------------------------------------------------------------------------------------WHITE PETER CRAIG W TRUSTEE
HMSTD FILED |
MUNICIPAL
HOMESTEAD
NON-RESIDENTIAL
PETER CRAIG W WHITE TRUST
|LAND
124,600
PO BOX 1205
|BUILDING
308,900
|TOTAL REAL
433,500
433,500
NORWICH VT 05055
|SPEC EXEMPTION
0
TAX MAP:
15-006.000
|
PROP DESC: 12.19 ACRES & DWL
|
911 ADDR: 850 NEWTON LN
|
PARCEL ID: 15-006.000 SPAN: 450-142-12798
|
HOUSESITE:
411,500
ACRES:
10.19 R2 T
|GRAND LIST
4,335.00
4,335.00
-----------------------------------------------------------------------------------------------------------------------------------WHITE RICHARD C
|
MUNICIPAL
HOMESTEAD
NON-RESIDENTIAL
WHITE LINDA L
|LAND
340,200
PO BOX 245
|BUILDING
0
|TOTAL REAL
340,200
340,200
NORWICH VT 05055-0245
|SPEC EXEMPTION
0
TAX MAP:
03-050.100
|
PROP DESC: 22.9 ACRES; 2 ADDL LOTS
|
911 ADDR: STAGECOACH RD
|
PARCEL ID: 03-050.100 SPAN: 450-142-13173
|
HOUSESITE:
0
ACRES:
22.90 M
T
|GRAND LIST
3,402.00
3,402.00
------------------------------------------------------------------------------------------------------------------------------------
06/12/2015
01:32 pm
Town of Norwich Grand List
Grand List Report (Detail)
By Name For All Parcels In All Districts
Page 303
jbynum
PARCEL INFORMATION
TAXABLE VALUATIONS / EXEMPTIONS / CONTRACTS
-----------------------------------------------------------------------------------------------------------------------------------WHITE ROBERT
|
MUNICIPAL
HOMESTEAD
NON-RESIDENTIAL
WHITE BARBARA
|LAND
112,100
1290 SUN MEADOW LANE
|BUILDING
128,700
|TOTAL REAL
240,800
240,800
GRAND ISLAND FL 32735-9711
|SPEC EXEMPTION
0
TAX MAP:
10-081.000
|
PROP DESC: 6.5 ACRES & 3 APT DWL
|
911 ADDR: 37 BOB WHITE LN
|
PARCEL ID: 10-081.000 SPAN: 450-142-12937
|
HOUSESITE:
225,900
ACRES:
6.50 R2 NS
|GRAND LIST
2,408.00
2,408.00
-----------------------------------------------------------------------------------------------------------------------------------WHITE ROBERT A
HMSTD FILED |
MUNICIPAL
HOMESTEAD
NON-RESIDENTIAL
PIOTROWSKI PATRICIA M
|LAND
116,400
39 CLIFF ST
|BUILDING
155,600
|TOTAL REAL
272,000
272,000
NORWICH VT 05055
|SPEC EXEMPTION
0
TAX MAP:
20-178.000
|
PROP DESC: 0.36 ACRE & DWL
|
911 ADDR: 39 CLIFF ST
|
PARCEL ID: 20-178.000 SPAN: 450-142-11882
|
HOUSESITE:
272,000
ACRES:
0.36 R1 T
|GRAND LIST
2,720.00
2,720.00
-----------------------------------------------------------------------------------------------------------------------------------WHITE RONALD E TRUSTEE
HMSTD FILED |
MUNICIPAL
HOMESTEAD
NON-RESIDENTIAL
MCCLEARY SUSAN TRUSTEE
|LAND
202,800
27 RIVER EDGE LN
|BUILDING
147,800
|TOTAL REAL
350,600
344,700
5,900
NORWICH VT 05055-9315
|SPEC EXEMPTION
0
0
TAX MAP:
12-037.000
|
PROP DESC: 1.2 ACRES & DWL & CAMP
|
911 ADDR: 27 RIVER EDGE LN
|
PARCEL ID: 12-037.000 SPAN: 450-142-12615
|
HOUSESITE:
344,700
ACRES:
1.20 R1 T
|GRAND LIST
3,506.00
3,447.00
59.00
-----------------------------------------------------------------------------------------------------------------------------------WHITE STUART
|
MUNICIPAL
HOMESTEAD
NON-RESIDENTIAL
WHITE MATILDA B R
|LAND
104,900
PO BOX 40
|BUILDING
150,500
|TOTAL REAL
255,400
255,400
NORWICH VT 05055
|SPEC EXEMPTION
0
TAX MAP:
20-224.000
|
PROP DESC: .14 ACRE & DUPLEX
|
911 ADDR: 15 LARY LN
|
PARCEL ID: 20-224.000 SPAN: 450-142-12157
|
HOUSESITE:
255,400
ACRES:
0.14 R1 T
|GRAND LIST
2,554.00
2,554.00
-----------------------------------------------------------------------------------------------------------------------------------WHITFIELD DONNAMARIE C
|
MUNICIPAL
HOMESTEAD
NON-RESIDENTIAL
|LAND
97,100
127 TIGERTOWN ROAD
|BUILDING
254,000
|TOTAL REAL
351,100
351,100
NORWICH VT 05055
|SPEC EXEMPTION
0
TAX MAP:
09-018.000
|
PROP DESC: 10.5 ACRES & DWL
|
911 ADDR: 127 TIGERTOWN RD
|
PARCEL ID: 09-018.000 SPAN: 450-142-12824
|
HOUSESITE:
326,900
ACRES:
10.50 R2 T
|GRAND LIST
3,511.00
3,511.00
------------------------------------------------------------------------------------------------------------------------------------
06/12/2015
01:32 pm
Town of Norwich Grand List
Grand List Report (Detail)
By Name For All Parcels In All Districts
Page 304
jbynum
PARCEL INFORMATION
TAXABLE VALUATIONS / EXEMPTIONS / CONTRACTS
-----------------------------------------------------------------------------------------------------------------------------------WICKNER WILLIAM TRUSTEE
HMSTD FILED |
MUNICIPAL
HOMESTEAD
NON-RESIDENTIAL
WICKNER HALI TRUSTEE
|LAND
387,700
1260 PODUNK RD
|BUILDING
521,800
|TOTAL REAL
909,500
909,500
WHITE RIVER JUNCTION VT 05001
|SPEC EXEMPTION
0
TAX MAP:
14-001.000
|
PROP DESC: 146 ACRES & DWL
|
911 ADDR: 1260 PODUNK RD
|
PARCEL ID: 14-001.000 SPAN: 450-142-12598
|
HOUSESITE:
611,200
ACRES:
146.00 R2 T
|GRAND LIST
9,095.00
9,095.00
-----------------------------------------------------------------------------------------------------------------------------------WIELAND GARY R
HMSTD FILED |
MUNICIPAL
HOMESTEAD
NON-RESIDENTIAL
WIELAND MARY A
|LAND
195,100
101 HICKORY RIDGE
|BUILDING
478,400
|TOTAL REAL
673,500
673,500
NORWICH VT 05055
|SPEC EXEMPTION
0
TAX MAP:
20-006.000
|
PROP DESC: 6.15 ACRES & DWL
|
911 ADDR: 101 HICKORY RIDGE
|
PARCEL ID: 20-006.000 SPAN: 450-142-12036
|
HOUSESITE:
660,700
ACRES:
6.15 R2 T
|GRAND LIST
6,735.00
6,735.00
-----------------------------------------------------------------------------------------------------------------------------------WIGGIN JOHN P JR TRUSTEE
HMSTD FILED |
MUNICIPAL
HOMESTEAD
NON-RESIDENTIAL
WIGGIN JUDITH TRUSTEE
|LAND
374,000
592 SUGARTOP RD
|BUILDING
251,800
|TOTAL REAL
625,800
625,800
WHITE RIVER JUNCTION VT 05001
|SPEC EXEMPTION
0
TAX MAP:
14-025.000
|
PROP DESC: 90.4 ACRES & DWL
|
911 ADDR: 592 SUGARTOP RD
|CURRENT USE
235,300
235,300
PARCEL ID: 14-025.000 SPAN: 450-142-12810
|
HOUSESITE:
378,400
ACRES:
90.40 R2 T
|GRAND LIST
3,905.00
3,905.00
-----------------------------------------------------------------------------------------------------------------------------------WILBERDING EDWARD DOUGLAS
|
MUNICIPAL
HOMESTEAD
NON-RESIDENTIAL
WILLIAMS JESSICA
|LAND
7,900
4101 ALBEMARLE STREET NW
|BUILDING
0
APT 634
|TOTAL REAL
7,900
7,900
WASHINGTON DC 20016
|SPEC EXEMPTION
0
TAX MAP:
04-005.000
|
PROP DESC: 2.6 ACRES
|
911 ADDR: TURNPIKE RD
|
PARCEL ID: 04-005.000 SPAN: 450-142-12972
|
HOUSESITE:
0
ACRES:
2.60 M
NS
|GRAND LIST
79.00
79.00
-----------------------------------------------------------------------------------------------------------------------------------WILKINSON HOLLY J
HMSTD FILED |
MUNICIPAL
HOMESTEAD
NON-RESIDENTIAL
WILKINSON JON J
|LAND
223,700
391 BRAGG HILL RD
|BUILDING
301,100
|TOTAL REAL
524,800
524,800
NORWICH VT 05055
|SPEC EXEMPTION
0
TAX MAP:
15-027.000
|
PROP DESC: 24.88 ACRES AND DWELLING
|
911 ADDR: 391 BRAGG HILL RD
|
PARCEL ID: 15-027.000 SPAN: 450-142-11669
|
HOUSESITE:
454,700
ACRES:
24.88 R2 T
|GRAND LIST
5,248.00
5,248.00
------------------------------------------------------------------------------------------------------------------------------------
06/12/2015
01:32 pm
Town of Norwich Grand List
Grand List Report (Detail)
By Name For All Parcels In All Districts
Page 305
jbynum
PARCEL INFORMATION
TAXABLE VALUATIONS / EXEMPTIONS / CONTRACTS
-----------------------------------------------------------------------------------------------------------------------------------WILKINSON JON
|
MUNICIPAL
HOMESTEAD
NON-RESIDENTIAL
WILKINSON HOLLY
|LAND
122,100
391 BRAGG HILL ROAD
|BUILDING
124,500
|TOTAL REAL
246,600
246,600
NORWICH VT 05055
|SPEC EXEMPTION
0
TAX MAP:
11-053.200
|
PROP DESC: 2.12 ACRES & DWL
|
911 ADDR: 39 PATTRELL RD
|
PARCEL ID: 11-053.200 SPAN: 450-142-12494
|
HOUSESITE:
246,100
ACRES:
2.12 R1 T
|GRAND LIST
2,466.00
2,466.00
-----------------------------------------------------------------------------------------------------------------------------------WILLIAMS ALICE H REV TRUST
HMSTD FILED |
MUNICIPAL
HOMESTEAD
NON-RESIDENTIAL
WILLIAMS BRADFORD C REV TRUST
|LAND
196,900
600 GOODRICH FOUR CORNERS RD
|BUILDING
845,500
|TOTAL REAL
1042,400
1042,400
NORWICH VT 05055
|SPEC EXEMPTION
0
TAX MAP:
11-070.000
|
PROP DESC: 27.27 ACRES & DWL
|
911 ADDR: 600 GOODRICH FOUR CORNERS RD
|
PARCEL ID: 11-070.000 SPAN: 450-142-12007
|
HOUSESITE:
973,500
ACRES:
27.27 R2 T
|GRAND LIST
10,424.00
10,424.00
-----------------------------------------------------------------------------------------------------------------------------------WILLIAMS ALLEN B
HMSTD FILED |
MUNICIPAL
HOMESTEAD
NON-RESIDENTIAL
WILLIAMS MARCIA D
|LAND
131,000
302 NORFORD LAKE RD
|BUILDING
131,300
|TOTAL REAL
262,300
262,300
NORWICH VT 05055
|SPEC EXEMPTION
0
TAX MAP:
05-029.000
|
PROP DESC: 18.1 ACRES & DWL
|
911 ADDR: 302 NORFORD LAKE RD
|
PARCEL ID: 05-029.000 SPAN: 450-142-12402
|
HOUSESITE:
233,500
ACRES:
18.10 R2 T
|GRAND LIST
2,623.00
2,623.00
-----------------------------------------------------------------------------------------------------------------------------------WILLIAMS ANDREW W
HMSTD FILED |
MUNICIPAL
HOMESTEAD
NON-RESIDENTIAL
WILLIAMS DEBORAH M
|LAND
138,900
PO BOX 1031
|BUILDING
226,800
|TOTAL REAL
365,700
365,700
NORWICH VT 05055-1031
|SPEC EXEMPTION
0
TAX MAP:
20-134.000
|
PROP DESC: .41 ACRE & DWL
|
911 ADDR: 409 MAIN ST
|
PARCEL ID: 20-134.000 SPAN: 450-142-12434
|
HOUSESITE:
365,700
ACRES:
0.41 R1 T
|GRAND LIST
3,657.00
3,657.00
-----------------------------------------------------------------------------------------------------------------------------------WILLIAMS J MCDONALD
|
MUNICIPAL
HOMESTEAD
NON-RESIDENTIAL
|LAND
185,500
5646 MILTON STREET--STE 407
|BUILDING
730,700
|TOTAL REAL
916,200
916,200
DALLAS TX 75206
|SPEC EXEMPTION
0
TAX MAP:
11-150.000
|
PROP DESC: 10.0 ACRES & DWL
|
911 ADDR: 185 UPPER PASTURE RD
|
PARCEL ID: 11-150.000 SPAN: 450-142-13105
|
HOUSESITE:
887,400
ACRES:
10.00 R2 NS
|GRAND LIST
9,162.00
9,162.00
------------------------------------------------------------------------------------------------------------------------------------
06/12/2015
01:32 pm
Town of Norwich Grand List
Grand List Report (Detail)
By Name For All Parcels In All Districts
Page 306
jbynum
PARCEL INFORMATION
TAXABLE VALUATIONS / EXEMPTIONS / CONTRACTS
-----------------------------------------------------------------------------------------------------------------------------------WILLIAMS JANIS
|
MUNICIPAL
HOMESTEAD
NON-RESIDENTIAL
WILLIAMS GREGORY
|LAND
221,800
5 OLD NUGENT FARM
|BUILDING
0
|TOTAL REAL
221,800
221,800
GLOUCESTER MA 01930
|SPEC EXEMPTION
0
TAX MAP:
09-021.200
|
PROP DESC: 71.5 ACRES
|
911 ADDR: TIGERTOWN RD
|
PARCEL ID: 09-021.200 SPAN: 450-142-12827
|
HOUSESITE:
0
ACRES:
71.50 M
NS
|GRAND LIST
2,218.00
2,218.00
-----------------------------------------------------------------------------------------------------------------------------------WILLIAMS REEVE
HMSTD FILED |
MUNICIPAL
HOMESTEAD
NON-RESIDENTIAL
ANDERSON K SANDRA
|LAND
168,300
65 KATE WALLACE RD
|BUILDING
393,300
|TOTAL REAL
561,600
561,600
NORWICH VT 05055
|SPEC EXEMPTION
0
TAX MAP:
09-030.000
|
PROP DESC: 24.6 ACRES & DWL
|
911 ADDR: 65 KATE WALLACE RD
|
PARCEL ID: 09-030.000 SPAN: 450-142-12115
|
HOUSESITE:
494,300
ACRES:
26.60 R2 T
|GRAND LIST
5,616.00
5,616.00
-----------------------------------------------------------------------------------------------------------------------------------WILLIAMS STANTON N
HMSTD FILED |
MUNICIPAL
HOMESTEAD
NON-RESIDENTIAL
WILLIAMS JENNIFER A.
|LAND
365,700
256 TUCKER HILL RD
|BUILDING
1074,700
|TOTAL REAL
1440,400
1135,300
305,100
NORWICH VT 05055
|SPEC EXEMPTION
0
0
TAX MAP:
09-026.000
|
PROP DESC: 87.3 ACRES & TWO DWLS
|
911 ADDR: 256 TUCKER HILL RD
|CURRENT USE
210,500
210,500
PARCEL ID: 09-026.000 SPAN: 450-142-12884
|
HOUSESITE:
896,200
ACRES:
87.30 R2 T
|GRAND LIST
12,299.00
9,248.00
3,051.00
-----------------------------------------------------------------------------------------------------------------------------------WILLIAMS STANTON N TRUSTEE
|
MUNICIPAL
HOMESTEAD
NON-RESIDENTIAL
WILLIAMS JENNIFER A TRUSTEE
|LAND
232,000
256 TUCKER HILL RD
|BUILDING
0
|TOTAL REAL
232,000
232,000
NORWICH VT 05055
|SPEC EXEMPTION
0
TAX MAP:
09-025.200
|
PROP DESC: 44.5 ACRES
|
911 ADDR: TUCKER HILL RD
|CURRENT USE
226,300
226,300
PARCEL ID: 09-025.200 SPAN: 450-142-13339
|
HOUSESITE:
0
ACRES:
44.50 M
T
|GRAND LIST
57.00
57.00
-----------------------------------------------------------------------------------------------------------------------------------WILLIAMSON RICHARD
HMSTD FILED |
MUNICIPAL
HOMESTEAD
NON-RESIDENTIAL
|LAND
166,600
66 ELM ST
|BUILDING
256,100
|TOTAL REAL
422,700
422,700
NORWICH VT 05055
|SPEC EXEMPTION
0
TAX MAP:
20-277.000
|
PROP DESC: 1.08 ACRES & DWL
|
911 ADDR: 66 ELM ST
|
PARCEL ID: 20-277.000 SPAN: 450-142-11950
|
HOUSESITE:
422,700
ACRES:
1.08 R1 T
|GRAND LIST
4,227.00
4,227.00
------------------------------------------------------------------------------------------------------------------------------------
06/12/2015
01:32 pm
Town of Norwich Grand List
Grand List Report (Detail)
By Name For All Parcels In All Districts
Page 307
jbynum
PARCEL INFORMATION
TAXABLE VALUATIONS / EXEMPTIONS / CONTRACTS
-----------------------------------------------------------------------------------------------------------------------------------WILMOT LAWRENCE E
HMSTD FILED |
MUNICIPAL
HOMESTEAD
NON-RESIDENTIAL
BLAISDELL KYM S
|LAND
80,800
217 TOWN FARM ROAD
|BUILDING
304,400
|TOTAL REAL
385,200
361,900
23,300
NORWICH VT 05055
|SPEC EXEMPTION
0
0
TAX MAP:
11-080.100
|
PROP DESC: 4.33 ACRES & DWL
|
911 ADDR: 217 TOWN FARM RD
|
PARCEL ID: 11-080.100 SPAN: 450-142-12870
|
HOUSESITE:
351,400
ACRES:
4.33 R1 T
|GRAND LIST
3,852.00
3,619.00
233.00
-----------------------------------------------------------------------------------------------------------------------------------WILSON ALICE E TRUSTEE U/A
|
MUNICIPAL
HOMESTEAD
NON-RESIDENTIAL
WILSON ALICE E
|LAND
111,900
C/O MARK WILSON
|BUILDING
198,500
34 EDGEWATER DRIVE
|TOTAL REAL
310,400
310,400
BARRINGTON NH 03825
|SPEC EXEMPTION
0
TAX MAP:
20-098.000
|
PROP DESC: 0.7 ACRE & DWL
|
911 ADDR: 38 HUNTLEY ST
|
PARCEL ID: 20-098.000 SPAN: 450-142-12087
|
HOUSESITE:
310,400
ACRES:
0.70 R1 NS
|GRAND LIST
3,104.00
3,104.00
-----------------------------------------------------------------------------------------------------------------------------------WILSON DAWSON W
HMSTD FILED |
MUNICIPAL
HOMESTEAD
NON-RESIDENTIAL
WILSON MEGHAN L
|LAND
100,400
149 LADEAU ROAD
|BUILDING
26,800
|TOTAL REAL
127,200
127,200
NORWICH VT 05055
|SPEC EXEMPTION
0
TAX MAP:
05-045.000
|
PROP DESC: 34 ACRES & DWL
|
911 ADDR: 149 LADEAU RD
|
PARCEL ID: 05-045.000 SPAN: 450-142-12138
|
HOUSESITE:
79,800
ACRES:
34.00 R2 T
|GRAND LIST
1,272.00
1,272.00
-----------------------------------------------------------------------------------------------------------------------------------WILSON MICHAEL
HMSTD FILED |
MUNICIPAL
HOMESTEAD
NON-RESIDENTIAL
WILSON ROSALIE
|LAND
156,500
PO BOX 575
|BUILDING
366,600
|TOTAL REAL
523,100
523,100
NORWICH VT 05055
|SPEC EXEMPTION
0
TAX MAP:
05-148.000
|
PROP DESC: 10.6 ACRES & DWL
|
911 ADDR: 34 BARBARA LEE LN
|
PARCEL ID: 05-148.000 SPAN: 450-142-12316
|
HOUSESITE:
458,400
ACRES:
10.60 R2 T
|GRAND LIST
5,231.00
5,231.00
-----------------------------------------------------------------------------------------------------------------------------------WILSON RICHARD E
HMSTD FILED |
MUNICIPAL
HOMESTEAD
NON-RESIDENTIAL
WILSON KAREN T
|LAND
110,800
436 HOGBACK RD
|BUILDING
278,300
|TOTAL REAL
389,100
389,100
NORWICH VT 05055
|SPEC EXEMPTION
0
TAX MAP:
06-039.200
|
PROP DESC: 4.03 ACRES & DWL
|
911 ADDR: 436 HOGBACK RD
|
PARCEL ID: 06-039.200 SPAN: 450-142-12049
|
HOUSESITE:
381,800
ACRES:
4.03 R1 T
|GRAND LIST
3,891.00
3,891.00
------------------------------------------------------------------------------------------------------------------------------------
06/12/2015
01:32 pm
Town of Norwich Grand List
Grand List Report (Detail)
By Name For All Parcels In All Districts
Page 308
jbynum
PARCEL INFORMATION
TAXABLE VALUATIONS / EXEMPTIONS / CONTRACTS
-----------------------------------------------------------------------------------------------------------------------------------WILSON STEVEN L
HMSTD FILED |
MUNICIPAL
HOMESTEAD
NON-RESIDENTIAL
|LAND
105,900
PO BOX 136
|BUILDING
103,200
|TOTAL REAL
209,100
209,100
NORWICH VT 05055-0136
|SPEC EXEMPTION
0
TAX MAP:
10-163.000
|
PROP DESC: 2.3 ACRES & DWL
|
911 ADDR: 571 NEW BOSTON RD
|
PARCEL ID: 10-163.000 SPAN: 450-142-12298
|
HOUSESITE:
207,700
ACRES:
2.30 R1 T
|GRAND LIST
2,091.00
2,091.00
-----------------------------------------------------------------------------------------------------------------------------------WINSLOW ANN & MARGRETHE TRS
|
MUNICIPAL
HOMESTEAD
NON-RESIDENTIAL
C/O KISH CONSULTING
|LAND
129,700
8 CURRIER PLACE
|BUILDING
353,300
|TOTAL REAL
483,000
483,000
HANOVER NH 03755
|SPEC EXEMPTION
0
TAX MAP:
20-125.000
|
PROP DESC: .26 ACRE & DUPLEX
|
911 ADDR: 355 MAIN ST
|
PARCEL ID: 20-125.000 SPAN: 450-142-12422
|
HOUSESITE:
483,000
ACRES:
0.26 R1 NS
|GRAND LIST
4,830.00
4,830.00
-----------------------------------------------------------------------------------------------------------------------------------WINSLOW LEE
HMSTD FILED |
MUNICIPAL
HOMESTEAD
NON-RESIDENTIAL
WINSLOW JANICE M
|LAND
131,600
80 WILLEY HILL RD
|BUILDING
342,200
|TOTAL REAL
473,800
473,800
NORWICH VT 05055
|SPEC EXEMPTION
0
TAX MAP:
11-196.000
|
PROP DESC: 2.47 ACRES & DWL
|
911 ADDR: 80 WILLEY HILL RD
|
PARCEL ID: 11-196.000 SPAN: 450-142-13156
|
HOUSESITE:
471,700
ACRES:
2.47 R1 T
|GRAND LIST
4,738.00
4,738.00
-----------------------------------------------------------------------------------------------------------------------------------WINSLOW LEE
|
MUNICIPAL
HOMESTEAD
NON-RESIDENTIAL
WINSLOW JANICE M
|LAND
59,600
80 WILLEY HILL
|BUILDING
223,400
|TOTAL REAL
283,000
283,000
NORWICH VT 05055
|SPEC EXEMPTION
0
TAX MAP:
16-010.000
|
PROP DESC: 1.12 ACRES & DWL & DUPLEX
|
911 ADDR: 107 UPPER LOVELAND RD
|
PARCEL ID: 16-010.000 SPAN: 450-142-13085
|
HOUSESITE:
199,000
ACRES:
1.12 R1 T
|GRAND LIST
2,830.00
2,830.00
-----------------------------------------------------------------------------------------------------------------------------------WINTHROP COTTAGE TRUST
|
MUNICIPAL
HOMESTEAD
NON-RESIDENTIAL
ROBY DAVID & BARBARA, TTEES
|LAND
138,300
7 BLISS LN
|BUILDING
445,000
|TOTAL REAL
583,300
583,300
LYME NH 03768
|SPEC EXEMPTION
0
TAX MAP:
20-203.000
|
PROP DESC: .40 ACRE & DWL
|
911 ADDR: 380 MAIN ST
|
PARCEL ID: 20-203.000 SPAN: 450-142-12428
|
HOUSESITE:
583,300
ACRES:
0.40 R1 NS
|GRAND LIST
5,833.00
5,833.00
------------------------------------------------------------------------------------------------------------------------------------
06/12/2015
01:32 pm
Town of Norwich Grand List
Grand List Report (Detail)
By Name For All Parcels In All Districts
Page 309
jbynum
PARCEL INFORMATION
TAXABLE VALUATIONS / EXEMPTIONS / CONTRACTS
-----------------------------------------------------------------------------------------------------------------------------------WITHINGTON TRUST JO ANNE L
HMSTD FILED |
MUNICIPAL
HOMESTEAD
NON-RESIDENTIAL
|LAND
121,100
PO BOX 1183
|BUILDING
429,800
|TOTAL REAL
550,900
550,900
NORWICH VT 05055
|SPEC EXEMPTION
0
TAX MAP:
20-151.000
|
PROP DESC: .45 ACRE & DWL
|
911 ADDR: 22 TURNPIKE RD
|
PARCEL ID: 20-151.000 SPAN: 450-142-12887
|
HOUSESITE:
550,900
ACRES:
0.45 R1 T
|GRAND LIST
5,509.00
5,509.00
-----------------------------------------------------------------------------------------------------------------------------------WITKOWSKI VIKTOR L
HMSTD FILED |
MUNICIPAL
HOMESTEAD
NON-RESIDENTIAL
HORNSTEIN KATHERINE S
|LAND
120,900
275 HAWK PINE RD
|BUILDING
130,400
|TOTAL REAL
251,300
251,300
NORWICH VT 05055
|SPEC EXEMPTION
0
TAX MAP:
16-152.000
|
PROP DESC: 1.92 ACRES & DWL
|
911 ADDR: 275 HAWK PINE RD
|
PARCEL ID: 16-152.000 SPAN: 450-142-12548
|
HOUSESITE:
251,300
ACRES:
1.92 R1 T
|GRAND LIST
2,513.00
2,513.00
-----------------------------------------------------------------------------------------------------------------------------------WOLOSHIN STEVEN E
HMSTD FILED |
MUNICIPAL
HOMESTEAD
NON-RESIDENTIAL
SCHWARTZ LISA M
|LAND
167,800
18 OLD ORCHARD RD
|BUILDING
487,600
|TOTAL REAL
655,400
655,400
NORWICH VT 05055
|SPEC EXEMPTION
0
TAX MAP:
04-002.400
|
PROP DESC: 10.2 ACRES & DWL
|
911 ADDR: 18 OLD ORCHARD LN
|
PARCEL ID: 04-002.400 SPAN: 450-142-12955
|
HOUSESITE:
626,000
ACRES:
10.20 R2 T
|GRAND LIST
6,554.00
6,554.00
-----------------------------------------------------------------------------------------------------------------------------------WOODS EDMUND G III
|
MUNICIPAL
HOMESTEAD
NON-RESIDENTIAL
WOODS KAREN B
|LAND
151,400
33 BRIGHAM HILL ROAD
|BUILDING
485,600
|TOTAL REAL
637,000
637,000
NORWICH VT 05055
|SPEC EXEMPTION
0
TAX MAP:
10-037.000
|
PROP DESC: 2.9 ACRES & DWL
|
911 ADDR: 33 BRIGHAM HILL RD
|
PARCEL ID: 10-037.000 SPAN: 450-142-11704
|
HOUSESITE:
527,700
ACRES:
2.90 R1 T
|GRAND LIST
6,370.00
6,370.00
-----------------------------------------------------------------------------------------------------------------------------------WOODS SUSAN J
HMSTD FILED |
MUNICIPAL
HOMESTEAD
NON-RESIDENTIAL
|LAND
130,100
1705 BEAVER MEADOW RD
|BUILDING
382,000
|TOTAL REAL
512,100
455,265
56,835
NORWICH VT 05055
|SPEC EXEMPTION
0
0
TAX MAP:
03-012.000
|
PROP DESC: 12.26 ACRES & DWL/APT
|
911 ADDR: 1705 BEAVER MEADOW RD
|
PARCEL ID: 03-012.000 SPAN: 450-142-11616
|
HOUSESITE:
423,565
ACRES:
12.26 R2 T
|GRAND LIST
5,121.00
4,552.65
568.35
------------------------------------------------------------------------------------------------------------------------------------
06/12/2015
01:32 pm
Town of Norwich Grand List
Grand List Report (Detail)
By Name For All Parcels In All Districts
Page 310
jbynum
PARCEL INFORMATION
TAXABLE VALUATIONS / EXEMPTIONS / CONTRACTS
-----------------------------------------------------------------------------------------------------------------------------------WOODWARD MARK J
HMSTD FILED |
MUNICIPAL
HOMESTEAD
NON-RESIDENTIAL
WOODWARD KAREN KUNTNE
|LAND
117,500
893 UNION VILLAGE RD
|BUILDING
225,000
|TOTAL REAL
342,500
342,500
NORWICH VT 05055
|SPEC EXEMPTION
0
TAX MAP:
11-051.000
|
PROP DESC: 6.5 ACRES & DWL
|
911 ADDR: 893 UNION VILLAGE RD
|
PARCEL ID: 11-051.000 SPAN: 450-142-13038
|
HOUSESITE:
324,100
ACRES:
6.50 R2 T
|GRAND LIST
3,425.00
3,425.00
-----------------------------------------------------------------------------------------------------------------------------------WORTH ALICE THOMASON
HMSTD FILED |
MUNICIPAL
HOMESTEAD
NON-RESIDENTIAL
|LAND
74,500
65 MCKENNA RD
|BUILDING
292,600
|TOTAL REAL
367,100
367,100
NORWICH VT 05055
|SPEC EXEMPTION
0
TAX MAP:
16-086.000
|
PROP DESC: .5 ACRES & DWL
|
911 ADDR: 65 MCKENNA RD
|
PARCEL ID: 16-086.000 SPAN: 450-142-12185
|
HOUSESITE:
367,100
ACRES:
0.50 R1 T
|GRAND LIST
3,671.00
3,671.00
-----------------------------------------------------------------------------------------------------------------------------------WRIGHT PENELOPE FRIZZELL
HMSTD FILED |
MUNICIPAL
HOMESTEAD
NON-RESIDENTIAL
|LAND
161,800
P.O. BOX 298
|BUILDING
571,500
|TOTAL REAL
733,300
733,300
NORWICH VT 05055
|SPEC EXEMPTION
0
TAX MAP:
20-064.300
|
PROP DESC: 12 ACRES & DWL
|
911 ADDR: 166 DUTTON HILL
|
PARCEL ID: 20-064.300 SPAN: 450-142-11926
|
HOUSESITE:
698,800
ACRES:
12.00 R2 T
|GRAND LIST
7,333.00
7,333.00
-----------------------------------------------------------------------------------------------------------------------------------YEHLE JASON S
HMSTD FILED |
MUNICIPAL
HOMESTEAD
NON-RESIDENTIAL
PIFFATH CRYSTAL
|LAND
123,000
56 HAZEN ST
|BUILDING
425,800
|TOTAL REAL
548,800
548,800
NORWICH VT 05055
|SPEC EXEMPTION
0
TAX MAP:
20-173.000
|
PROP DESC: 2.9 ACRES
|
911 ADDR: 56 HAZEN ST
|
PARCEL ID: 20-173.000 SPAN: 450-142-12033
|
HOUSESITE:
546,800
ACRES:
2.90 R1 T
|GRAND LIST
5,488.00
5,488.00
-----------------------------------------------------------------------------------------------------------------------------------YOUNG MARIE ELISE
|
MUNICIPAL
HOMESTEAD
NON-RESIDENTIAL
|LAND
155,900
319 BEAVER MEADOW RD
|BUILDING
542,300
|TOTAL REAL
698,200
698,200
NORWICH VT 05055
|SPEC EXEMPTION
0
TAX MAP:
10-020.100
|
PROP DESC: 2.3 ACRES & DWL
|
911 ADDR: 319 BEAVER MEADOW RD
|
PARCEL ID: 10-020.100 SPAN: 450-142-11582
|
HOUSESITE:
672,400
ACRES:
2.30 R1 T
|GRAND LIST
6,982.00
6,982.00
------------------------------------------------------------------------------------------------------------------------------------
06/12/2015
01:32 pm
Town of Norwich Grand List
Grand List Report (Detail)
By Name For All Parcels In All Districts
Page 311
jbynum
PARCEL INFORMATION
TAXABLE VALUATIONS / EXEMPTIONS / CONTRACTS
-----------------------------------------------------------------------------------------------------------------------------------YOUNG MARK
|
MUNICIPAL
HOMESTEAD
NON-RESIDENTIAL
YOUNG ELIZABETH
|LAND
182,400
PO BOX 338
|BUILDING
524,200
|TOTAL REAL
706,600
706,600
NORWICH VT 05055-0338
|SPEC EXEMPTION
0
TAX MAP:
15-023.400
|
PROP DESC: 7.02 ACRES & DWELLING
|
911 ADDR: 327 DUTTON HILL CENTER
|
PARCEL ID: 15-023.400 SPAN: 450-142-11936
|
HOUSESITE:
686,600
ACRES:
7.02 R2 T
|GRAND LIST
7,066.00
7,066.00
-----------------------------------------------------------------------------------------------------------------------------------ZEA PHILIP M
HMSTD FILED |
MUNICIPAL
HOMESTEAD
NON-RESIDENTIAL
|LAND
259,500
65 MAPLE HILL RD
|BUILDING
501,200
|TOTAL REAL
760,700
760,700
NORWICH VT 05055
|SPEC EXEMPTION
0
TAX MAP:
11-141.000
|
PROP DESC: 41.16 ACRES & DWL
|
911 ADDR: 65 MAPLE HILL RD
|
PARCEL ID: 11-141.000 SPAN: 450-142-12173
|
HOUSESITE:
646,400
ACRES:
41.16 R2 T
|GRAND LIST
7,607.00
7,607.00
-----------------------------------------------------------------------------------------------------------------------------------ZEBO RECECCA M
HMSTD FILED |
MUNICIPAL
HOMESTEAD
NON-RESIDENTIAL
CONNOLLY ANDREW C
|LAND
96,100
961 NEW BOSTON ROAD
|BUILDING
160,200
|TOTAL REAL
256,300
256,300
NORWICH VT 05055
|SPEC EXEMPTION
0
TAX MAP:
05-005.000
|
PROP DESC: 1.3 ACRES & DWL
|
911 ADDR: 961 NEW BOSTON RD
|
PARCEL ID: 05-005.000 SPAN: 450-142-12330
|
HOUSESITE:
256,300
ACRES:
1.30 R1 T
|GRAND LIST
2,563.00
2,563.00
-----------------------------------------------------------------------------------------------------------------------------------ZEIGER MELISSA
HMSTD FILED |
MUNICIPAL
HOMESTEAD
NON-RESIDENTIAL
|LAND
77,000
15 LEWISTON HILL
|BUILDING
231,600
|TOTAL REAL
308,600
308,600
NORWICH VT 05055
|SPEC EXEMPTION
0
TAX MAP:
16-070.000
|
PROP DESC: .46 ACRE & DWL
|
911 ADDR: 15 LEWISTON HILL RD
|
PARCEL ID: 16-070.000 SPAN: 450-142-12177
|
HOUSESITE:
308,600
ACRES:
0.46 R1 T
|GRAND LIST
3,086.00
3,086.00
-----------------------------------------------------------------------------------------------------------------------------------ZENTMAIER KURT A.
|
MUNICIPAL
HOMESTEAD
NON-RESIDENTIAL
ZENTMAIER LAURA M.
|LAND
258,400
21 MULHERRIN FARM ROAD
|BUILDING
522,300
|TOTAL REAL
780,700
780,700
HANOVER NH 03755
|SPEC EXEMPTION
0
TAX MAP:
11-093.000
|
PROP DESC: 23.32 ACRES & DWL INCL 1 ADDL LOT
|
911 ADDR: 251 US ROUTE 5 NORTH
|
PARCEL ID: 11-093.000 SPAN: 450-142-12666
|
HOUSESITE:
624,800
ACRES:
23.32 R2 NS
|GRAND LIST
7,807.00
7,807.00
------------------------------------------------------------------------------------------------------------------------------------
06/12/2015
01:32 pm
Town of Norwich Grand List
Grand List Report (Detail)
By Name For All Parcels In All Districts
Page 312
jbynum
PARCEL INFORMATION
TAXABLE VALUATIONS / EXEMPTIONS / CONTRACTS
-----------------------------------------------------------------------------------------------------------------------------------ZIEGLER KATHLEEN
HMSTD FILED |
MUNICIPAL
HOMESTEAD
NON-RESIDENTIAL
ZIEGLER GEORGE
|LAND
74,200
122 CHAPEL HILL RD
|BUILDING
237,300
|TOTAL REAL
311,500
275,905
35,595
NORWICH VT 05055
|SPEC EXEMPTION
0
0
TAX MAP:
09-031.000
|
PROP DESC: 2.09 ACRES & DWL
|
911 ADDR: 122 CHAPEL HILL RD
|
PARCEL ID: 09-031.000 SPAN: 450-142-11828
|
HOUSESITE:
275,505
ACRES:
2.09 R1 T
|GRAND LIST
3,115.00
2,759.05
355.95
-----------------------------------------------------------------------------------------------------------------------------------ZUCKERMAN RICHARD
HMSTD FILED |
MUNICIPAL
HOMESTEAD
NON-RESIDENTIAL
ZUCKERMAN TRACY
|LAND
127,000
64 HAST CHARM WAY
|BUILDING
462,300
|TOTAL REAL
589,300
589,300
NORWICH VT 05055-9581
|SPEC EXEMPTION
0
TAX MAP:
20-166.000
|
PROP DESC: 2.0 ACRES & DWL
|
911 ADDR: 64 HAST CHARM WY
|
PARCEL ID: 20-166.000 SPAN: 450-142-12150
|
HOUSESITE:
589,300
ACRES:
2.00 R1 T
|GRAND LIST
5,893.00
5,893.00
------------------------------------------------------------------------------------------------------------------------------------
06/12/2015
01:32 pm
Town of Norwich Grand List
Grand List Report (Detail)
*** GRAND TOTALS ***
Page 313
jbynum
MUNICIPAL
HOMESTEAD
NON-RESI
-------------------------------------------------------------------------------TOTAL # OF PARCELS
1,557
# OF HOMESTEADS DECLARED
998
ACRES
24,999.81
LAND
BUILDING
REAL
244,993,900
487,933,700
732,927,600
460,329,763
272,597,837
35,900
0
2,050,700
0
Add
(+) NON-APPROVED CONTRACTS
(+) NON-APPROVED FARM CONTRACTS
(+)INVENTORY
0
(+)EQUIPMENT
1,264,600
1,264,600
Subtract
(-)VETERAN
280,000
280,000
0
(-)FARM STAB
0
0
0
(-)CURRENT USE
35,174,613
13,792,200
21,382,413
(-)CONTRACTS
3,475,600
35,900
2,175,100
(-)SPECIAL EXEMP.
0
0
-------------------------------------------------------------------------------GRAND LIST
6,952,619.87
4,462,575.63
2,523,556.24
HOMESTEAD
642,542,180
HOUSESITE
589,498,080
LEASE
06/12/2015
02:23 pm
Town of Norwich Grand List
Non-Taxable Parcel Report (Detail)
By Name For All Parcels In All Districts
Page 1
jbynum
PARCEL INFORMATION
TAXABLE VALUATIONS / EXEMPTIONS / CONTRACTS
-----------------------------------------------------------------------------------------------------------------------------------AMERICAN LEGION POST 8
|
MUNICIPAL
HOMESTEAD
NON-RESIDENTIAL
|LAND
150,000 Real Value Source: Assessment
PO BOX 324
|BUILDING
113,700 NT Statute: 3) 32 VSA § 3802(2)
|TOTAL REAL
263,700
263,700
NORWICH VT 05055
|SPEC EXEMPTION
0
TAX MAP:
20-081.000
|
PROP DESC: 1 ACRE & LODGE HOUSE
|
911 ADDR: 228 BEAVER MEADOW RD
|
PARCEL ID: 20-081.000 SPAN: 450-142-12217
|
HOUSESITE:
0
ACRES:
1.00 C
T
|GRAND LIST
0.00
0.00
-----------------------------------------------------------------------------------------------------------------------------------BEAVER MEADOW CHAPEL ASSOC
|
MUNICIPAL
HOMESTEAD
NON-RESIDENTIAL
C/O R ROYCE
|LAND
65,400 Real Value Source: Assessment
71 CHAPEL HILL RD
|BUILDING
84,700 NT Statute: 9) 32 VSA § 3802(4);3832(2)
|TOTAL REAL
150,100
150,100
NORWICH VT 05055
|SPEC EXEMPTION
0
TAX MAP:
03-031.000
|
PROP DESC: 0.11 ACRE & CHAPEL
|
911 ADDR: 1672 BEAVER MEADOW RD
|
PARCEL ID: 03-031.000 SPAN: 450-142-11612
|
HOUSESITE:
0
ACRES:
0.11 C
T
|GRAND LIST
0.00
0.00
-----------------------------------------------------------------------------------------------------------------------------------CHILD CARE CENTER INC
|
MUNICIPAL
HOMESTEAD
NON-RESIDENTIAL
|LAND
115,300 Real Value Source: Assessment
PO BOX 69
|BUILDING
411,100 NT Statute: 10) 32 VSA § 3802(4); 22 § 1
|TOTAL REAL
526,400
526,400
NORWICH VT 05055-0069
|SPEC EXEMPTION
0
TAX MAP:
15-081.000
|
PROP DESC: 4.4 ACRES & COMM BLDG
|
911 ADDR: 75 MONTSHIRE RD
|
PARCEL ID: 15-081.000 SPAN: 450-142-12478
|
HOUSESITE:
0
ACRES:
4.40 C
T
|GRAND LIST
0.00
0.00
-----------------------------------------------------------------------------------------------------------------------------------CONGREGATIONAL CHURCH
|
MUNICIPAL
HOMESTEAD
NON-RESIDENTIAL
|LAND
159,700 Real Value Source: Assessment
PO BOX 236
|BUILDING
1254,800 NT Statute: 9) 32 VSA § 3802(4);3832(2)
|TOTAL REAL
1414,500
1414,500
NORWICH VT 05055-0236
|SPEC EXEMPTION
0
TAX MAP:
20-230.200
|
PROP DESC: .75 ACRE & CHURCH
|
911 ADDR: 15 CHURCH ST
|
PARCEL ID: 20-230.200 SPAN: 450-142-11840
|
HOUSESITE:
0
ACRES:
0.75 C
T
|GRAND LIST
0.00
0.00
-----------------------------------------------------------------------------------------------------------------------------------DRESDEN SCHOOL DISTRICT
|
MUNICIPAL
HOMESTEAD
NON-RESIDENTIAL
|LAND
1421,800 Real Value Source: Assessment
45 LYME RD
|BUILDING
10,400 NT Statute: 10) 32 VSA § 3802(4); 22 § 1
|TOTAL REAL
1432,200
1432,200
HANOVER NH 03755
|SPEC EXEMPTION
0
TAX MAP:
15-072.000
|
PROP DESC: 70.78 AC; SCHOOL FIELDS & 2 ADDL LOTS (N
|
911 ADDR: 223 US ROUTE 5 SOUTH
|
PARCEL ID: 15-072.000 SPAN: 450-142-12740
|
HOUSESITE:
0
ACRES:
70.78 C
NS
|GRAND LIST
0.00
0.00
------------------------------------------------------------------------------------------------------------------------------------
06/12/2015
02:23 pm
Town of Norwich Grand List
Non-Taxable Parcel Report (Detail)
By Name For All Parcels In All Districts
Page 2
jbynum
PARCEL INFORMATION
TAXABLE VALUATIONS / EXEMPTIONS / CONTRACTS
-----------------------------------------------------------------------------------------------------------------------------------FAMILY PLACE THE
|
MUNICIPAL
HOMESTEAD
NON-RESIDENTIAL
|LAND
125,000 Real Value Source: Assessment
319 RT 5 S
|BUILDING
611,700 NT Statute: 10) 32 VSA § 3802(4); 22 § 1
|TOTAL REAL
736,700
736,700
NORWICH VT 05055
|SPEC EXEMPTION
0
TAX MAP:
15-078.000
|
PROP DESC: 1 ACRE & 2 BLDGS
|
911 ADDR: 319 US ROUTE 5 SOUTH
|
PARCEL ID: 15-078.000 SPAN: 450-142-12761
|
HOUSESITE:
0
ACRES:
1.00 C
T
|GRAND LIST
0.00
0.00
-----------------------------------------------------------------------------------------------------------------------------------METHODIST CHURCH
|
MUNICIPAL
HOMESTEAD
NON-RESIDENTIAL
|LAND
88,100 Real Value Source: Assessment
PO BOX 115
|BUILDING
498,900 NT Statute: 9) 32 VSA § 3802(4);3832(2)
|TOTAL REAL
587,000
587,000
NORWICH VT 05055-0115
|SPEC EXEMPTION
0
TAX MAP:
05-058.000
|
PROP DESC: .66 ACRES CHURCH & COMM HOUSE
|
911 ADDR: 91 ACADEMY RD
|
PARCEL ID: 05-058.000 SPAN: 450-142-13077
|
HOUSESITE:
0
ACRES:
0.66 C
T
|GRAND LIST
0.00
0.00
-----------------------------------------------------------------------------------------------------------------------------------MONTSHIRE MUSEUM OF SCIENCE
|
MUNICIPAL
HOMESTEAD
NON-RESIDENTIAL
|LAND
401,900 Real Value Source: Assessment
ONE MONTSHIRE RD
|BUILDING
6304,600 NT Statute: 10) 32 VSA § 3802(4); 22 § 1
|TOTAL REAL
6706,500
6706,500
NORWICH VT 05055
|SPEC EXEMPTION
0
TAX MAP:
16-090.000
|
PROP DESC: 109.5 ACRES & MUSEUM BLDG
|
911 ADDR: 35 MONTSHIRE RD
|
PARCEL ID: 16-090.000 SPAN: 450-142-12477
|
HOUSESITE:
0
ACRES:
109.50 C
T
|GRAND LIST
0.00
0.00
-----------------------------------------------------------------------------------------------------------------------------------NORWICH FIRE DISTRICT
|
MUNICIPAL
HOMESTEAD
NON-RESIDENTIAL
|LAND
344,300 Real Value Source: Assessment
PO BOX 777
|BUILDING
0 NT Statute: 8) 32 VSA § 3802(4);5401(10)
|TOTAL REAL
344,300
344,300
NORWICH VT 05055-0777
|SPEC EXEMPTION
0
TAX MAP:
09-029.000
|
PROP DESC: 79.37 ACRES (TOWN OWNS DEVELOP RIGHTS)
|
911 ADDR: TUCKER HILL RD
|
PARCEL ID: 09-029.000 SPAN: 450-142-12882
|
HOUSESITE:
0
ACRES:
79.37 M
T
|GRAND LIST
0.00
0.00
-----------------------------------------------------------------------------------------------------------------------------------NORWICH FIRE DISTRICT
|
MUNICIPAL
HOMESTEAD
NON-RESIDENTIAL
|LAND
1031,600 Real Value Source: Assessment
PO BOX 777
|BUILDING
6,000 NT Statute: 8) 32 VSA § 3802(4);5401(10)
|TOTAL REAL
1037,600
1037,600
NORWICH VT 05055-0777
|SPEC EXEMPTION
0
TAX MAP:
09-036.000
|
PROP DESC: 836.3 ACRES TOWN OWNS DEVELOP RIGHT
|
911 ADDR: 1266 BEAVER MEADOW RD
|
PARCEL ID: 09-036.000 SPAN: 450-142-11592
|
HOUSESITE:
0
ACRES:
836.30 M
T
|GRAND LIST
0.00
0.00
------------------------------------------------------------------------------------------------------------------------------------
06/12/2015
02:23 pm
Town of Norwich Grand List
Non-Taxable Parcel Report (Detail)
By Name For All Parcels In All Districts
Page 3
jbynum
PARCEL INFORMATION
TAXABLE VALUATIONS / EXEMPTIONS / CONTRACTS
-----------------------------------------------------------------------------------------------------------------------------------NORWICH FIRE DISTRICT
|
MUNICIPAL
HOMESTEAD
NON-RESIDENTIAL
|LAND
96,900 Real Value Source: Assessment
PO BOX 777
|BUILDING
12,000 NT Statute: 30) 24 VSA § 3352
|TOTAL REAL
108,900
108,900
NORWICH VT 05055-0777
|SPEC EXEMPTION
0
TAX MAP:
10-024.000
|
PROP DESC: .91 ACRE & CHLORINATION SHED
|
911 ADDR: 417 BEAVER MEADOW RD
|
PARCEL ID: 10-024.000 SPAN: 450-142-11588
|
HOUSESITE:
0
ACRES:
0.91 C
T
|GRAND LIST
0.00
0.00
-----------------------------------------------------------------------------------------------------------------------------------NORWICH HISTORICAL SOCIETY
|
MUNICIPAL
HOMESTEAD
NON-RESIDENTIAL
|LAND
194,400 Real Value Source: Assessment
PO BOX 1680
|BUILDING
252,100 NT Statute: 10) 32 VSA § 3802(4); 22 § 1
|TOTAL REAL
446,500
446,500
NORWICH VT 05055-1680
|SPEC EXEMPTION
0
TAX MAP:
20-247.000
|
PROP DESC: .92 ACRE & DWL
|
911 ADDR: 277 MAIN ST
|
PARCEL ID: 20-247.000 SPAN: 450-142-12467
|
HOUSESITE:
0
ACRES:
0.92 C
T
|GRAND LIST
0.00
0.00
-----------------------------------------------------------------------------------------------------------------------------------NORWICH NURSERY SCHOOL INC
|
MUNICIPAL
HOMESTEAD
NON-RESIDENTIAL
|LAND
0 Real Value Source: Assessment
PO BOX 126
|BUILDING
196,400 NT Statute: 10) 32 VSA § 3802(4); 22 § 1
|TOTAL REAL
196,400
196,400
NORWICH VT 05055-0126
|SPEC EXEMPTION
0
TAX MAP:
20-229.100
|
PROP DESC: EMERSON COURT UNITS 3 & 4
|
911 ADDR: 312 MAIN ST
|
PARCEL ID: 20-229.100 SPAN: 450-142-12460
|
HOUSESITE:
0
ACRES:
0.00 C
T
|GRAND LIST
0.00
0.00
-----------------------------------------------------------------------------------------------------------------------------------NORWICH PUBLIC LIBRARY ASSOC
|
MUNICIPAL
HOMESTEAD
NON-RESIDENTIAL
|LAND
150,500 Real Value Source: Assessment
PO BOX 290
|BUILDING
1413,300 NT Statute: 10) 32 VSA § 3802(4); 22 § 1
|TOTAL REAL
1563,800
1563,800
NORWICH VT 05055-0290
|SPEC EXEMPTION
0
TAX MAP:
20-192.000
|
PROP DESC: .6 ACRE & LIBRARY
|
911 ADDR: 368 MAIN ST
|
PARCEL ID: 20-192.000 SPAN: 450-142-12424
|
HOUSESITE:
0
ACRES:
0.60 C
T
|GRAND LIST
0.00
0.00
-----------------------------------------------------------------------------------------------------------------------------------NORWICH RECREATIONAL COUNCIL
|
MUNICIPAL
HOMESTEAD
NON-RESIDENTIAL
|LAND
316,800 Real Value Source: Assessment
PO BOX 376
|BUILDING
3,000 NT Statute: 8) 32 VSA § 3802(4);5401(10)
|TOTAL REAL
319,800
319,800
NORWICH VT 05055-0376
|SPEC EXEMPTION
0
TAX MAP:
10-021.000
|
PROP DESC: 6 ACRES & TOWN SWIMMING POOL
|
911 ADDR: 335 BEAVER MEADOW RD
|
PARCEL ID: 10-021.000 SPAN: 450-142-11585
|
HOUSESITE:
0
ACRES:
6.00 C
T
|GRAND LIST
0.00
0.00
------------------------------------------------------------------------------------------------------------------------------------
06/12/2015
02:23 pm
Town of Norwich Grand List
Non-Taxable Parcel Report (Detail)
By Name For All Parcels In All Districts
Page 4
jbynum
PARCEL INFORMATION
TAXABLE VALUATIONS / EXEMPTIONS / CONTRACTS
-----------------------------------------------------------------------------------------------------------------------------------NORWICH SCHOOL DISTRICT
|
MUNICIPAL
HOMESTEAD
NON-RESIDENTIAL
|LAND
812,100 Real Value Source: Assessment
PO BOX 376
|BUILDING
6224,300 NT Statute: 10) 32 VSA § 3802(4); 22 § 1
|TOTAL REAL
7036,400
7036,400
NORWICH VT 05055-0376
|SPEC EXEMPTION
0
TAX MAP:
20-238.000
|
PROP DESC: 7.03 ACRES & SCHOOL
|
911 ADDR: 22 CHURCH ST
|
PARCEL ID: 20-238.000 SPAN: 450-142-11841
|
HOUSESITE:
0
ACRES:
7.03 C
T
|GRAND LIST
0.00
0.00
-----------------------------------------------------------------------------------------------------------------------------------NORWICH TOWN OF
|
MUNICIPAL
HOMESTEAD
NON-RESIDENTIAL
|LAND
73,700 Real Value Source: Assessment
PO BOX 376
|BUILDING
0 NT Statute: 14) 32 VSA § 3802(7); 18 § 5
|TOTAL REAL
73,700
73,700
NORWICH VT 05055-0376
|SPEC EXEMPTION
0
TAX MAP:
03-030.000
|
PROP DESC: 0.88 ACRE & BEAVER MEADOW CEMETERY
|
911 ADDR: BEAVER MEADOW RD
|
PARCEL ID: 03-030.000 SPAN: 450-142-11614
|
HOUSESITE:
0
ACRES:
0.88 M
T
|GRAND LIST
0.00
0.00
-----------------------------------------------------------------------------------------------------------------------------------NORWICH TOWN OF
|
MUNICIPAL
HOMESTEAD
NON-RESIDENTIAL
|LAND
217,700 Real Value Source: Assessment
PO BOX 376
|BUILDING
0 NT Statute: 8) 32 VSA § 3802(4);5401(10)
|TOTAL REAL
217,700
217,700
NORWICH VT 05055-0376
|SPEC EXEMPTION
0
TAX MAP:
04-010.000
|
PROP DESC: 52 ACRES (STONE LOT)
|
911 ADDR: TURNPIKE RD
|
PARCEL ID: 04-010.000 SPAN: 450-142-12983
|
HOUSESITE:
0
ACRES:
52.00 M
T
|GRAND LIST
0.00
0.00
-----------------------------------------------------------------------------------------------------------------------------------NORWICH TOWN OF
|
MUNICIPAL
HOMESTEAD
NON-RESIDENTIAL
|LAND
113,800 Real Value Source: Assessment
PO BOX 376
|BUILDING
0 NT Statute: 8) 32 VSA § 3802(4);5401(10)
|TOTAL REAL
113,800
113,800
NORWICH VT 05055-0376
|SPEC EXEMPTION
0
TAX MAP:
04-014.000
|
PROP DESC: 7.3 ACRES
|
911 ADDR: TURNPIKE RD
|
PARCEL ID: 04-014.000 SPAN: 450-142-12996
|
HOUSESITE:
0
ACRES:
7.30 M
T
|GRAND LIST
0.00
0.00
-----------------------------------------------------------------------------------------------------------------------------------NORWICH TOWN OF
|
MUNICIPAL
HOMESTEAD
NON-RESIDENTIAL
|LAND
117,500 Real Value Source: Assessment
PO BOX 376
|BUILDING
0 NT Statute: 8) 32 VSA § 3802(4);5401(10)
|TOTAL REAL
117,500
117,500
NORWICH VT 05055-0376
|SPEC EXEMPTION
0
TAX MAP:
04-015.000
|
PROP DESC: 45 ACRES SIGNAL HILL LOT
|
911 ADDR: 1711 TURNPIKE RD
|
PARCEL ID: 04-015.000 SPAN: 450-142-12997
|
HOUSESITE:
0
ACRES:
45.00 M
T
|GRAND LIST
0.00
0.00
------------------------------------------------------------------------------------------------------------------------------------
06/12/2015
02:23 pm
Town of Norwich Grand List
Non-Taxable Parcel Report (Detail)
By Name For All Parcels In All Districts
Page 5
jbynum
PARCEL INFORMATION
TAXABLE VALUATIONS / EXEMPTIONS / CONTRACTS
-----------------------------------------------------------------------------------------------------------------------------------NORWICH TOWN OF
|
MUNICIPAL
HOMESTEAD
NON-RESIDENTIAL
|LAND
7,400 Real Value Source: Assessment
PO BOX 376
|BUILDING
0 NT Statute: 14) 32 VSA § 3802(7); 18 § 5
|TOTAL REAL
7,400
7,400
NORWICH VT 05055-0376
|SPEC EXEMPTION
0
TAX MAP:
04-031.010
|
PROP DESC: .01 ACRE & TURNPIKE CEMETERY
|
911 ADDR: TURNPIKE RD
|
PARCEL ID: 04-031.010 SPAN: 450-142-12967
|
HOUSESITE:
0
ACRES:
0.01 M
T
|GRAND LIST
0.00
0.00
-----------------------------------------------------------------------------------------------------------------------------------NORWICH TOWN OF
|
MUNICIPAL
HOMESTEAD
NON-RESIDENTIAL
|LAND
73,700 Real Value Source: Assessment
PO BOX 376
|BUILDING
0 NT Statute: 14) 32 VSA § 3802(7); 18 § 5
|TOTAL REAL
73,700
73,700
NORWICH VT 05055-0376
|SPEC EXEMPTION
0
TAX MAP:
05-019.000
|
PROP DESC: .77 ACRE & NEW BOSTON CEMETERY
|
911 ADDR: NORFORD LAKE RD
|
PARCEL ID: 05-019.000 SPAN: 450-142-12389
|
HOUSESITE:
0
ACRES:
0.77 M
T
|GRAND LIST
0.00
0.00
-----------------------------------------------------------------------------------------------------------------------------------NORWICH TOWN OF
|
MUNICIPAL
HOMESTEAD
NON-RESIDENTIAL
|LAND
100,300 Real Value Source: Assessment
PO BOX 376
|BUILDING
0 NT Statute: 14) 32 VSA § 3802(7); 18 § 5
|TOTAL REAL
100,300
100,300
NORWICH VT 05055-0376
|SPEC EXEMPTION
0
TAX MAP:
05-057.000
|
PROP DESC: 3.28 ACRES & UNION VILLAGE CEMETERY
|
911 ADDR: ACADEMY RD
|
PARCEL ID: 05-057.000 SPAN: 450-142-13076
|
HOUSESITE:
0
ACRES:
3.28 M
T
|GRAND LIST
0.00
0.00
-----------------------------------------------------------------------------------------------------------------------------------NORWICH TOWN OF
|
MUNICIPAL
HOMESTEAD
NON-RESIDENTIAL
|LAND
10,100 Real Value Source: Assessment
PO BOX 376
|BUILDING
0 NT Statute: 8) 32 VSA § 3802(4);5401(10)
|TOTAL REAL
10,100
10,100
NORWICH VT 05055-0376
|SPEC EXEMPTION
0
TAX MAP:
05-065.000
|
PROP DESC: .46 ACRES
|
911 ADDR: VT ROUTE 132
|
PARCEL ID: 05-065.000 SPAN: 450-142-12778
|
HOUSESITE:
0
ACRES:
0.46 M
T
|GRAND LIST
0.00
0.00
-----------------------------------------------------------------------------------------------------------------------------------NORWICH TOWN OF
|
MUNICIPAL
HOMESTEAD
NON-RESIDENTIAL
|LAND
17,000 Real Value Source: Assessment
PO BOX 376
|BUILDING
0 NT Statute: 14) 32 VSA § 3802(7); 18 § 5
|TOTAL REAL
17,000
17,000
NORWICH VT 05055-0376
|SPEC EXEMPTION
0
TAX MAP:
06-029.010
|
PROP DESC: 0.1 ACRE & POMPY CEMETERY
|
911 ADDR: WRIGHT CEMETARY RD
|
PARCEL ID: 06-029.010 SPAN: 450-142-12044
|
HOUSESITE:
0
ACRES:
0.10 M
T
|GRAND LIST
0.00
0.00
------------------------------------------------------------------------------------------------------------------------------------
06/12/2015
02:23 pm
Town of Norwich Grand List
Non-Taxable Parcel Report (Detail)
By Name For All Parcels In All Districts
Page 6
jbynum
PARCEL INFORMATION
TAXABLE VALUATIONS / EXEMPTIONS / CONTRACTS
-----------------------------------------------------------------------------------------------------------------------------------NORWICH TOWN OF
|
MUNICIPAL
HOMESTEAD
NON-RESIDENTIAL
|LAND
1,100 Real Value Source: Assessment
PO BOX 376
|BUILDING
0 NT Statute: 14) 32 VSA § 3802(7); 18 § 5
|TOTAL REAL
1,100
1,100
NORWICH VT 05055-0376
|SPEC EXEMPTION
0
TAX MAP:
09-000.001
|
PROP DESC: .03 ACRES & PARKHURST CEMETERY
|
911 ADDR: BURTON WOODS RD
|
PARCEL ID: 09-000.001 SPAN: 450-142-12818
|
HOUSESITE:
0
ACRES:
0.03 M
T
|GRAND LIST
0.00
0.00
-----------------------------------------------------------------------------------------------------------------------------------NORWICH TOWN OF
|
MUNICIPAL
HOMESTEAD
NON-RESIDENTIAL
|LAND
277,100 Real Value Source: Assessment
PO BOX 376
|BUILDING
486,900 NT Statute: 8) 32 VSA § 3802(4);5401(10)
|TOTAL REAL
764,000
764,000
NORWICH VT 05055-0376
|SPEC EXEMPTION
0
TAX MAP:
10-190.100
|
PROP DESC: 24.48 AC & DPW & TRANS STATION & ADDL LO
|
911 ADDR: 24 NEW BOSTON RD
|
PARCEL ID: 10-190.100 SPAN: 450-142-12272
|
HOUSESITE:
0
ACRES:
28.48 C
T
|GRAND LIST
0.00
0.00
-----------------------------------------------------------------------------------------------------------------------------------NORWICH TOWN OF
|
MUNICIPAL
HOMESTEAD
NON-RESIDENTIAL
|LAND
113,400 Real Value Source: Assessment
PO BOX 376
|BUILDING
0 NT Statute: 14) 32 VSA § 3802(7); 18 § 5
|TOTAL REAL
113,400
113,400
NORWICH VT 05055-0376
|SPEC EXEMPTION
0
TAX MAP:
11-011.000
|
PROP DESC: 1.2 ACRES & CEMETERY
|
911 ADDR: OLCOTT RD
|
PARCEL ID: 11-011.000 SPAN: 450-142-13014
|
HOUSESITE:
0
ACRES:
1.20 M
T
|GRAND LIST
0.00
0.00
-----------------------------------------------------------------------------------------------------------------------------------NORWICH TOWN OF
|
MUNICIPAL
HOMESTEAD
NON-RESIDENTIAL
|LAND
82,400 Real Value Source: Assessment
PO BOX 376
|BUILDING
0 NT Statute: 14) 32 VSA § 3802(7); 18 § 5
|TOTAL REAL
82,400
82,400
NORWICH VT 05055-0376
|SPEC EXEMPTION
0
TAX MAP:
12-008.000
|
PROP DESC: .94 ACRE & POMPANOOSUC CEMETERY
|
911 ADDR: HEMLOCK RD
|
PARCEL ID: 12-008.000 SPAN: 450-142-13132
|
HOUSESITE:
0
ACRES:
0.94 M
T
|GRAND LIST
0.00
0.00
-----------------------------------------------------------------------------------------------------------------------------------NORWICH TOWN OF
|
MUNICIPAL
HOMESTEAD
NON-RESIDENTIAL
|LAND
185,900 Real Value Source: Assessment
PO BOX 376
|BUILDING
0 NT Statute: 8) 32 VSA § 3802(4);5401(10)
|TOTAL REAL
185,900
185,900
NORWICH VT 05055-0376
|SPEC EXEMPTION
0
TAX MAP:
12-026.000
|
PROP DESC: 2.15 ACRES
|
911 ADDR: KENDALL STATION RD
|
PARCEL ID: 12-026.000 SPAN: 450-142-12621
|
HOUSESITE:
0
ACRES:
2.18 M
T
|GRAND LIST
0.00
0.00
------------------------------------------------------------------------------------------------------------------------------------
06/12/2015
02:23 pm
Town of Norwich Grand List
Non-Taxable Parcel Report (Detail)
By Name For All Parcels In All Districts
Page 7
jbynum
PARCEL INFORMATION
TAXABLE VALUATIONS / EXEMPTIONS / CONTRACTS
-----------------------------------------------------------------------------------------------------------------------------------NORWICH TOWN OF
|
MUNICIPAL
HOMESTEAD
NON-RESIDENTIAL
|LAND
700 Real Value Source: Assessment
PO BOX 376
|BUILDING
0 NT Statute: 8) 32 VSA § 3802(4);5401(10)
|TOTAL REAL
700
700
NORWICH VT 05055-0376
|SPEC EXEMPTION
0
TAX MAP:
12-033.000
|
PROP DESC: .07 ACRE RIVER ACCESS
|
911 ADDR: KENDALL STATION RD
|
PARCEL ID: 12-033.000 SPAN: 450-142-12609
|
HOUSESITE:
0
ACRES:
0.02 M
T
|GRAND LIST
0.00
0.00
-----------------------------------------------------------------------------------------------------------------------------------NORWICH TOWN OF
|
MUNICIPAL
HOMESTEAD
NON-RESIDENTIAL
|LAND
4,500 Real Value Source: Assessment
PO BOX 376
|BUILDING
0 NT Statute: 8) 32 VSA § 3802(4);5401(10)
|TOTAL REAL
4,500
4,500
NORWICH VT 05055-0376
|SPEC EXEMPTION
0
TAX MAP:
15-045.000
|
PROP DESC: .21 ACRES
|
911 ADDR: HOPSON RD
|
PARCEL ID: 15-045.000 SPAN: 450-142-12077
|
HOUSESITE:
0
ACRES:
0.21 M
T
|GRAND LIST
0.00
0.00
-----------------------------------------------------------------------------------------------------------------------------------NORWICH TOWN OF
|
MUNICIPAL
HOMESTEAD
NON-RESIDENTIAL
|LAND
69,800 Real Value Source: Assessment
PO BOX 376
|BUILDING
0 NT Statute: 8) 32 VSA § 3802(4);5401(10)
|TOTAL REAL
69,800
69,800
NORWICH VT 05055-0376
|SPEC EXEMPTION
0
TAX MAP:
16-005.000
|
PROP DESC: 22.5 ACRES (SCHMIDT BOG)
|
911 ADDR: UPPER LOVELAND RD
|
PARCEL ID: 16-005.000 SPAN: 450-142-13093
|
HOUSESITE:
0
ACRES:
22.50 M
T
|GRAND LIST
0.00
0.00
-----------------------------------------------------------------------------------------------------------------------------------NORWICH TOWN OF
|
MUNICIPAL
HOMESTEAD
NON-RESIDENTIAL
|LAND
108,500 Real Value Source: Assessment
PO BOX 376
|BUILDING
0 NT Statute: 8) 32 VSA § 3802(4);5401(10)
|TOTAL REAL
108,500
108,500
NORWICH VT 05055-0376
|SPEC EXEMPTION
0
TAX MAP:
16-059.020
|
PROP DESC: 6.7 ACRES
|
911 ADDR: RIVER RD
|
PARCEL ID: 16-059.020 SPAN: 450-142-12659
|
HOUSESITE:
0
ACRES:
6.70 M
T
|GRAND LIST
0.00
0.00
-----------------------------------------------------------------------------------------------------------------------------------NORWICH TOWN OF
|
MUNICIPAL
HOMESTEAD
NON-RESIDENTIAL
|LAND
8,800 Real Value Source: Assessment
PO BOX 376
|BUILDING
0 NT Statute: 8) 32 VSA § 3802(4);5401(10)
|TOTAL REAL
8,800
8,800
NORWICH VT 05055-0376
|SPEC EXEMPTION
0
TAX MAP:
16-067.000
|
PROP DESC: .66 ACRES (SCOTT LAND)
|
911 ADDR: MCKENNA RD
|
PARCEL ID: 16-067.000 SPAN: 450-142-12179
|
HOUSESITE:
0
ACRES:
0.66 M
T
|GRAND LIST
0.00
0.00
------------------------------------------------------------------------------------------------------------------------------------
06/12/2015
02:23 pm
Town of Norwich Grand List
Non-Taxable Parcel Report (Detail)
By Name For All Parcels In All Districts
Page 8
jbynum
PARCEL INFORMATION
TAXABLE VALUATIONS / EXEMPTIONS / CONTRACTS
-----------------------------------------------------------------------------------------------------------------------------------NORWICH TOWN OF
|
MUNICIPAL
HOMESTEAD
NON-RESIDENTIAL
|LAND
83,000 Real Value Source: Assessment
PO BOX 376
|BUILDING
0 NT Statute: 8) 32 VSA § 3802(4);5401(10)
|TOTAL REAL
83,000
83,000
NORWICH VT 05055-0376
|SPEC EXEMPTION
0
TAX MAP:
16-101.100
|
PROP DESC: .14 ACRES BOAT LANDING
|
911 ADDR: 138 RIVER RD
|
PARCEL ID: 16-101.100 SPAN: 450-142-12642
|
HOUSESITE:
0
ACRES:
0.14 M
T
|GRAND LIST
0.00
0.00
-----------------------------------------------------------------------------------------------------------------------------------NORWICH TOWN OF
|
MUNICIPAL
HOMESTEAD
NON-RESIDENTIAL
|LAND
184,900 Real Value Source: Assessment
PO BOX 376
|BUILDING
0 NT Statute: 14) 32 VSA § 3802(7); 18 § 5
|TOTAL REAL
184,900
184,900
NORWICH VT 05055-0376
|SPEC EXEMPTION
0
TAX MAP:
20-033.000
|
PROP DESC: 10.9 ACRES & HILLSIDE CEMETERY
|
911 ADDR: HILLSIDE RD
|
PARCEL ID: 20-033.000 SPAN: 450-142-12241
|
HOUSESITE:
0
ACRES:
10.90 M
T
|GRAND LIST
0.00
0.00
-----------------------------------------------------------------------------------------------------------------------------------NORWICH TOWN OF
|
MUNICIPAL
HOMESTEAD
NON-RESIDENTIAL
|LAND
185,600 Real Value Source: Assessment
PO BOX 376
|BUILDING
0 NT Statute: 8) 32 VSA § 3802(4);5401(10)
|TOTAL REAL
185,600
185,600
NORWICH VT 05055-0376
|SPEC EXEMPTION
0
TAX MAP:
20-051.000
|
PROP DESC: 1.5 ACRES & BARRETT PLAYGROUND
|
911 ADDR: 7 BRAGG HILL RD
|
PARCEL ID: 20-051.000 SPAN: 450-142-11656
|
HOUSESITE:
0
ACRES:
1.50 M
T
|GRAND LIST
0.00
0.00
-----------------------------------------------------------------------------------------------------------------------------------NORWICH TOWN OF
|
MUNICIPAL
HOMESTEAD
NON-RESIDENTIAL
|LAND
230,300 Real Value Source: Assessment
PO BOX 376
|BUILDING
0 NT Statute: 8) 32 VSA § 3802(4);5401(10)
|TOTAL REAL
230,300
230,300
NORWICH VT 05055
|SPEC EXEMPTION
0
TAX MAP:
20-068.200
|
PROP DESC: 41.79 ACRES
|
911 ADDR: DUTTON HILL
|
PARCEL ID: 20-068.200 SPAN: 450-142-12208
|
HOUSESITE:
0
ACRES:
41.79 M
T
|GRAND LIST
0.00
0.00
-----------------------------------------------------------------------------------------------------------------------------------NORWICH TOWN OF
|
MUNICIPAL
HOMESTEAD
NON-RESIDENTIAL
|LAND
127,300 Real Value Source: Assessment
PO BOX 376
|BUILDING
0 NT Statute: 14) 32 VSA § 3802(7); 18 § 5
|TOTAL REAL
127,300
127,300
NORWICH VT 05055-0376
|SPEC EXEMPTION
0
TAX MAP:
20-117.000
|
PROP DESC: 1.5 ACRES & FAIRVIEW CEMETERY
|
911 ADDR: BEAVER MEADOW RD
|
PARCEL ID: 20-117.000 SPAN: 450-142-12231
|
HOUSESITE:
0
ACRES:
1.50 M
T
|GRAND LIST
0.00
0.00
------------------------------------------------------------------------------------------------------------------------------------
06/12/2015
02:23 pm
Town of Norwich Grand List
Non-Taxable Parcel Report (Detail)
By Name For All Parcels In All Districts
Page 9
jbynum
PARCEL INFORMATION
TAXABLE VALUATIONS / EXEMPTIONS / CONTRACTS
-----------------------------------------------------------------------------------------------------------------------------------NORWICH TOWN OF
|
MUNICIPAL
HOMESTEAD
NON-RESIDENTIAL
|LAND
629,200 Real Value Source: Assessment
PO BOX 376
|BUILDING
87,000 NT Statute: 8) 32 VSA § 3802(4);5401(10)
|TOTAL REAL
716,200
716,200
NORWICH VT 05055-0376
|SPEC EXEMPTION
0
TAX MAP:
20-148.000
|
PROP DESC: 27 ACRES HUNTLEY MEADOW
|
911 ADDR: 111 TURNPIKE RD
|
PARCEL ID: 20-148.000 SPAN: 450-142-12899
|
HOUSESITE:
0
ACRES:
27.00 M
T
|GRAND LIST
0.00
0.00
-----------------------------------------------------------------------------------------------------------------------------------NORWICH TOWN OF
|
MUNICIPAL
HOMESTEAD
NON-RESIDENTIAL
|LAND
102,800 Real Value Source: Assessment
PO BOX 376
|BUILDING
418,500 NT Statute: 8) 32 VSA § 3802(4);5401(10)
|TOTAL REAL
521,300
521,300
NORWICH VT 05055
|SPEC EXEMPTION
0
TAX MAP:
20-209.000
|
PROP DESC: .1 ACRE & FIREHOUSE
|
911 ADDR: 11 FIREHOUSE LN
|
PARCEL ID: 20-209.000 SPAN: 450-142-12415
|
HOUSESITE:
0
ACRES:
0.10 C
T
|GRAND LIST
0.00
0.00
-----------------------------------------------------------------------------------------------------------------------------------NORWICH TOWN OF
|
MUNICIPAL
HOMESTEAD
NON-RESIDENTIAL
|LAND
150,900 Real Value Source: Assessment
PO BOX 376
|BUILDING
193,000 NT Statute: 8) 32 VSA § 3802(4);5401(10)
|TOTAL REAL
343,900
343,900
NORWICH VT 05055-0376
|SPEC EXEMPTION
0
TAX MAP:
20-209.100
|
PROP DESC: 1.2 ACRES & POLICE STATION & 1 ADDL LOT
|
911 ADDR: 10 HAZEN ST
|
PARCEL ID: 20-209.100 SPAN: 450-142-12417
|
HOUSESITE:
0
ACRES:
1.20 C
T
|GRAND LIST
0.00
0.00
-----------------------------------------------------------------------------------------------------------------------------------NORWICH TOWN OF
|
MUNICIPAL
HOMESTEAD
NON-RESIDENTIAL
|LAND
189,600 Real Value Source: Assessment
PO BOX 376
|BUILDING
1227,500 NT Statute: 8) 32 VSA § 3802(4);5401(10)
|TOTAL REAL
1417,100
1417,100
NORWICH VT 05055-0376
|SPEC EXEMPTION
0
TAX MAP:
20-231.000
|
PROP DESC: .31 ACRE & TRACY HALL
|
911 ADDR: 300 MAIN ST
|
PARCEL ID: 20-231.000 SPAN: 450-142-12464
|
HOUSESITE:
0
ACRES:
0.31 C
T
|GRAND LIST
0.00
0.00
-----------------------------------------------------------------------------------------------------------------------------------NORWICH TOWN OF
|
MUNICIPAL
HOMESTEAD
NON-RESIDENTIAL
|LAND
234,500 Real Value Source: Assessment
PO BOX 376
|BUILDING
0 NT Statute: 8) 32 VSA § 3802(4);5401(10)
|TOTAL REAL
234,500
234,500
NORWICH VT 05055-0376
|SPEC EXEMPTION
0
TAX MAP:
20-242.000
|
PROP DESC: 37.09 ACRES & ADDL LOT (NV)
|
911 ADDR: MAIN ST
|
PARCEL ID: 20-242.000 SPAN: 450-142-12476
|
HOUSESITE:
0
ACRES:
37.09 M
T
|GRAND LIST
0.00
0.00
------------------------------------------------------------------------------------------------------------------------------------
06/12/2015
02:23 pm
Town of Norwich Grand List
Non-Taxable Parcel Report (Detail)
By Name For All Parcels In All Districts
Page 10
jbynum
PARCEL INFORMATION
TAXABLE VALUATIONS / EXEMPTIONS / CONTRACTS
-----------------------------------------------------------------------------------------------------------------------------------SIGLER FOUNDATION A. C. AND M. R.
|
MUNICIPAL
HOMESTEAD
NON-RESIDENTIAL
|LAND
143,800 Real Value Source: Assessment
P O BOX 1105
|BUILDING
919,700 NT Statute: 10) 32 VSA § 3802(4); 22 § 1
|TOTAL REAL
1063,500
1063,500
NORWICH VT 05055
|SPEC EXEMPTION
0
TAX MAP:
10-076.100
|
PROP DESC: 5.26 ACRES & DWL & FARM
|
911 ADDR: 701 TURNPIKE RD
|
PARCEL ID: 10-076.100 SPAN: 450-142-12934
|
HOUSESITE:
0
ACRES:
5.26 C
C
|GRAND LIST
0.00
0.00
-----------------------------------------------------------------------------------------------------------------------------------ST FRANCIS OF ASSISI
|
MUNICIPAL
HOMESTEAD
NON-RESIDENTIAL
|LAND
177,000 Real Value Source: Assessment
C/O R.C. DIOCESE OF BURLINGTON
|BUILDING
344,100 NT Statute: 9) 32 VSA § 3802(4);3832(2)
PO BOX 2226
|TOTAL REAL
521,100
521,100
SOUTH BURLINGTON VT 05407
|SPEC EXEMPTION
0
TAX MAP:
20-116.000
|
PROP DESC: 8.07 ACRES & CHURCH
|
911 ADDR: 70 BEAVER MEADOW RD
|
PARCEL ID: 20-116.000 SPAN: 450-142-12199
|
HOUSESITE:
0
ACRES:
8.07 C
S
|GRAND LIST
0.00
0.00
-----------------------------------------------------------------------------------------------------------------------------------ST. BARNABAS CHURCH
|
MUNICIPAL
HOMESTEAD
NON-RESIDENTIAL
|LAND
216,600 Real Value Source: Assessment
PO BOX 306
|BUILDING
452,000 NT Statute: 9) 32 VSA § 3802(4);3832(2)
|TOTAL REAL
668,600
668,600
NORWICH VT 05055-0306
|SPEC EXEMPTION
0
TAX MAP:
20-239.000
|
PROP DESC: 4.69 ACRES CHURCH & PARSONAGE
|
911 ADDR: 262 MAIN ST
|
PARCEL ID: 20-239.000 SPAN: 450-142-12471
|
HOUSESITE:
0
ACRES:
4.69 C
T
|GRAND LIST
0.00
0.00
-----------------------------------------------------------------------------------------------------------------------------------UNITARIAN UNIVERSALIST CHURCH
|
MUNICIPAL
HOMESTEAD
NON-RESIDENTIAL
|LAND
119,100 Real Value Source: Assessment
PO BOX 1110
|BUILDING
148,300 NT Statute: 9) 32 VSA § 3802(4);3832(2)
|TOTAL REAL
267,400
267,400
NORWICH VT 05055-1110
|SPEC EXEMPTION
0
TAX MAP:
15-039.000
|
PROP DESC: 7.07 ACRES & CHURCH
|
911 ADDR: 320 US ROUTE 5 SOUTH
|
PARCEL ID: 15-039.000 SPAN: 450-142-12762
|
HOUSESITE:
0
ACRES:
7.07 C
T
|GRAND LIST
0.00
0.00
-----------------------------------------------------------------------------------------------------------------------------------UNITED STATES OF AMERICA
|
MUNICIPAL
HOMESTEAD
NON-RESIDENTIAL
FEDERAL AVIATION ADMINISTRATIO N
|LAND
115,600 Real Value Source: Assessment
DEPT OF TRANSPORTATION
|BUILDING
5,800 NT Statute: 1) 32 VSA § 3802(1)
|TOTAL REAL
121,400
121,400
WASHINGTON DC 20031
|SPEC EXEMPTION
0
TAX MAP:
10-034.000
|
PROP DESC: 1.69 ACRES
|
911 ADDR: 642 BEAVER MEADOW RD
|
PARCEL ID: 10-034.000 SPAN: 450-142-11589
|
HOUSESITE:
0
ACRES:
1.69 C
NS
|GRAND LIST
0.00
0.00
------------------------------------------------------------------------------------------------------------------------------------
06/12/2015
02:23 pm
Town of Norwich Grand List
Non-Taxable Parcel Report (Detail)
By Name For All Parcels In All Districts
Page 11
jbynum
PARCEL INFORMATION
TAXABLE VALUATIONS / EXEMPTIONS / CONTRACTS
-----------------------------------------------------------------------------------------------------------------------------------UNITED STATES OF AMERICA
|
MUNICIPAL
HOMESTEAD
NON-RESIDENTIAL
DEPT OF INTERIOR NATL PARK SE RVICE
|LAND
1891,900 Real Value Source: Assessment
C STREETS, NW
|BUILDING
0 NT Statute: 1) 32 VSA § 3802(1)
|TOTAL REAL
1891,900
1891,900
WASHINGTON DC 20241
|SPEC EXEMPTION
0
TAX MAP:
20-010.000
|
PROP DESC: APPALACHIAN TRAIL- 697.37 ACRES
|
911 ADDR: TOWNWIDE
|
PARCEL ID: 20-010.000 SPAN: 450-142-12608
|
HOUSESITE:
0
ACRES:
697.37 M
NS
|GRAND LIST
0.00
0.00
------------------------------------------------------------------------------------------------------------------------------------
06/12/2015
02:23 pm
Town of Norwich Grand List
Non-Taxable Parcel Report (Detail)
*** GRAND TOTALS ***
Page 12
jbynum
MUNICIPAL
HOMESTEAD
NON-RESI
-------------------------------------------------------------------------------TOTAL # OF PARCELS
51
# OF HOMESTEADS DECLARED
0
ACRES
2,137.73
LAND
BUILDING
REAL
11,839,300
21,679,800
33,519,100
0
33,519,100
0
0
0
0
Add
(+) NON-APPROVED CONTRACTS
(+) NON-APPROVED FARM CONTRACTS
(+)INVENTORY
0
(+)EQUIPMENT
0
0
Subtract
(-)VETERAN
0
0
0
(-)FARM STAB
0
0
0
(-)CURRENT USE
0
0
0
(-)CONTRACTS
0
0
0
(-)SPECIAL EXEMP.
0
0
-------------------------------------------------------------------------------GRAND LIST
0.00
0.00
0.00
HOMESTEAD
0
HOUSESITE
0
LEASE
0.00
06/12/2015
01:44 pm
Town of Norwich Grand List
State Land Parcel Report (Detail)
By Name For All Parcels In All Districts
Page 1
jbynum
PARCEL INFORMATION
TAXABLE VALUATIONS / EXEMPTIONS / CONTRACTS
-----------------------------------------------------------------------------------------------------------------------------------VERMONT STATE OF
|
MUNICIPAL
HOMESTEAD
NON-RESIDENTIAL
C/O VTRANS
|LAND
531,200 Real Value Source: Assessment
133 STATE ST
|BUILDING
0 NT Statute: 2) 32 VSA § 3802(1)
|TOTAL REAL
531,200
531,200
MONTPELIER VT 05633-5001
|SPEC EXEMPTION
0
TAX MAP:
06-074.000
|
PROP DESC: 52.88 ACRES & RAILROAD
|
911 ADDR: KENDALL STATION RD
|
PARCEL ID: 06-074.000 SPAN: 450-142-12620
|
HOUSESITE:
0
ACRES:
52.88 C
S
|GRAND LIST
0.00
0.00
-----------------------------------------------------------------------------------------------------------------------------------VERMONT STATE OF
|
MUNICIPAL
HOMESTEAD
NON-RESIDENTIAL
AGENCY OF NATURAL RESOURCES
|LAND
332,300 Real Value Source: Assessment
103 MAIN ST
|BUILDING
0 NT Statute: 2) 32 VSA § 3802(1)
|TOTAL REAL
332,300
332,300
WATERBURY VT 05671
|SPEC EXEMPTION
0
TAX MAP:
11-107.000
|
PROP DESC: 4.2 ACRES - ANR VALUE SET
|
911 ADDR: US ROUTE 5 NORTH
|
PARCEL ID: 11-107.000 SPAN: 450-142-12674
|
HOUSESITE:
0
ACRES:
4.20 M
S
|GRAND LIST
0.00
0.00
-----------------------------------------------------------------------------------------------------------------------------------VERMONT STATE OF
|
MUNICIPAL
HOMESTEAD
NON-RESIDENTIAL
FORESTS & PARKS
|LAND
47,500 Real Value Source: Assessment
PAVILION BUILDING
|BUILDING
0 NT Statute: 2) 32 VSA § 3802(1)
|TOTAL REAL
47,500
47,500
MONTPELIER VT 05602
|SPEC EXEMPTION
0
TAX MAP:
12-013.000
|
PROP DESC: .87 ACRE ON OMPOMPANOOSUC RIVER - ANR VA
|
911 ADDR: US ROUTE 5 NORTH
|
PARCEL ID: 12-013.000 SPAN: 450-142-12711
|
HOUSESITE:
0
ACRES:
0.87 M
S
|GRAND LIST
0.00
0.00
-----------------------------------------------------------------------------------------------------------------------------------VERMONT STATE OF
|
MUNICIPAL
HOMESTEAD
NON-RESIDENTIAL
C/O VTRANS
|LAND
44,600 Real Value Source: Assessment
133 STATE ST
|BUILDING
0 NT Statute: 2) 32 VSA § 3802(1)
|TOTAL REAL
44,600
44,600
MONTPELIER VT 05633-5001
|SPEC EXEMPTION
0
TAX MAP:
16-014.000
|
PROP DESC: 1.85 ACRES
|
911 ADDR: CHURCH ST
|
PARCEL ID: 16-014.000 SPAN: 450-142-11839
|
HOUSESITE:
0
ACRES:
1.85 M
S
|GRAND LIST
0.00
0.00
------------------------------------------------------------------------------------------------------------------------------------
06/12/2015
01:44 pm
Town of Norwich Grand List
State Land Parcel Report (Detail)
*** GRAND TOTALS ***
Page 2
jbynum
MUNICIPAL
HOMESTEAD
NON-RESI
-------------------------------------------------------------------------------TOTAL # OF PARCELS
4
# OF HOMESTEADS DECLARED
0
ACRES
59.80
LAND
BUILDING
REAL
955,600
0
955,600
0
955,600
0
0
0
0
Add
(+) NON-APPROVED CONTRACTS
(+) NON-APPROVED FARM CONTRACTS
(+)INVENTORY
0
(+)EQUIPMENT
0
0
Subtract
(-)VETERAN
0
0
0
(-)FARM STAB
0
0
0
(-)CURRENT USE
0
0
0
(-)CONTRACTS
0
0
0
(-)SPECIAL EXEMP.
0
0
-------------------------------------------------------------------------------GRAND LIST
0.00
0.00
0.00
HOMESTEAD
0
HOUSESITE
0
LEASE
0.00
0.00
06/12/2015
01:46 pm
Town of Norwich Grand List
VETERANS EXEMPTIONS
By Name In All Districts
Page 1
jbynum
PARCEL
NAME
ASSESSED VALUE VETERANS EXEMPT AMT
GRAND LIST
-----------------------------------------------------------------------------------------------------------------------------------20-156.000
DALE CYNTHIA R.
316,600
40,000.00 R1
2,766.00
Homestead
40,000.00
2,766.00
Non-resident
0.00
0.00
11-064.000
DIXON VESTAL KENNETH R
472,800
40,000.00 R2
4,328.00
Homestead
40,000.00
4,328.00
Non-resident
0.00
0.00
04-061.100
HARDY WILBERT C III
495,100
40,000.00 R2
4,551.00
Homestead
40,000.00
4,551.00
Non-resident
0.00
0.00
11-102.000
LOVELAND GEORGE R
1,086,600
40,000.00 R2
9,533.00
Homestead
40,000.00
4,685.72
Non-resident
0.00
4,847.28
04-061.200
MCCORMICK WILLIAM J
357,300
40,000.00 R1
3,173.00
Homestead
40,000.00
3,173.00
Non-resident
0.00
0.00
05-149.000
NIELSEN JEFFREY
286,700
40,000.00 R1
2,467.00
Homestead
40,000.00
2,467.00
Non-resident
0.00
0.00
14-007.000
VUYOVICH BRETT
308,800
40,000.00 R2
2,688.00
Homestead
40,000.00
2,688.00
Non-resident
0.00
0.00
***** GRAND TOTALS
------------3,323,900
Homestead
Non-residential
=============
-------------280,000.00
280,000.00
0.00
==============
-------------29,506.00
24,658.72
4,847.28
==============
06/12/2015
01:48 pm
Town of Norwich Grand List
CURRENT USE EXEMPTIONS
By Name In All Districts
Page 1
jbynum
PARCEL
NAME
ASSESED VALUE LANDUSE ACREAGE
LANDUSE EXEMPT
GRAND LIST
-----------------------------------------------------------------------------------------------------------------------------------04-011.000
ADAMS ANTHONY H
506,600
178.00
478,300.00 M
283.00
Homestead
0.00
0.00
Non-resident
478,300.00
283.00
03-040.000
ADAMS GRACE R
96,000
10.40
94,300.00 M
17.00
Homestead
0.00
0.00
Non-resident
94,300.00
17.00
10-008.000
AMES MARGUERITE J
540,200
26.70
70,300.00 R2
4,699.00
Homestead
70,300.00
4,699.00
Non-resident
0.00
0.00
11-041.000
AQUILA MARC
337,400
40.90
58,600.00 R2
2,788.00
Homestead
58,600.00
2,788.00
Non-resident
0.00
0.00
09-048.000
ARESON ROBERT H ESTATE OF
537,000
231.75
507,300.00 M
297.00
Homestead
0.00
0.00
Non-resident
507,300.00
297.00
05-024.000
ARNOLD NANCY S TRUSTEE
740,000
115.00
277,500.00 R2
4,625.00
Homestead
277,500.00
4,625.00
Non-resident
0.00
0.00
09-014.100
ASA CHERYL S
331,700
31.00
70,139.00 R2
2,615.61
Homestead
0.00
0.00
Non-resident
70,139.00
2,615.61
09-025.100
BARTLETT DAVID
973,200
76.40
203,900.00 R2
7,693.00
Homestead
0.00
0.00
Non-resident
203,900.00
7,693.00
15-037.000
BAUMAN ANDREW J
1,102,800
98.00
204,100.00 R2
8,987.00
Homestead
204,100.00
8,987.00
Non-resident
0.00
0.00
04-032.200
BENDER WILLIAM H
514,300
25.12
72,700.00 R2
4,416.00
Homestead
72,700.00
4,416.00
Non-resident
0.00
0.00
03-035.000
BERRY REALTY TRUST CRR
300,700
56.00
120,000.00 R2
1,807.00
Homestead
0.00
0.00
Non-resident
120,000.00
1,807.00
15-001.000
BETTIGOLE RICHARD P
33,300
9.01
32,100.00 M
12.00
Homestead
0.00
0.00
Non-resident
32,100.00
12.00
15-023.100
BOJANOWSKA-CANTOR LUCYNA
756,000
27.04
73,100.00 R2
6,829.00
Homestead
73,100.00
6,829.00
Non-resident
0.00
0.00
10-012.100
CHENEY MARGARET R
802,100
9.10
24,700.00 R2
7,774.00
Homestead
24,700.00
7,774.00
Non-resident
0.00
0.00
04-016.000
CHILDS EDWIN
571,500
77.26
145,500.00 R2
4,260.00
Homestead
145,500.00
4,260.00
Non-resident
0.00
0.00
09-017.000
CICCOTELLI ERNEST J
327,700
56.00
112,700.00 R2
2,150.00
Homestead
112,700.00
2,150.00
Non-resident
0.00
0.00
04-009.000
CLAPP CHRISTOPHER L TRUSTEE
284,100
77.40
274,200.00 M
99.00
Homestead
0.00
0.00
Non-resident
274,200.00
99.00
06/12/2015
01:48 pm
Town of Norwich Grand List
CURRENT USE EXEMPTIONS
By Name In All Districts
Page 2
jbynum
PARCEL
NAME
ASSESED VALUE LANDUSE ACREAGE
LANDUSE EXEMPT
GRAND LIST
-----------------------------------------------------------------------------------------------------------------------------------14-008.000
COCHRAN NANCY
1,343,600
207.60
538,400.00 R2
8,052.00
Homestead
538,400.00
8,052.00
Non-resident
0.00
0.00
09-062.000
CONNIFF JESSE
185,200
68.90
176,400.00 M
88.00
Homestead
0.00
0.00
Non-resident
176,400.00
88.00
10-090.000
COOK HOWARD L
576,700
96.71
207,800.00 R2
3,689.00
Homestead
207,800.00
3,689.00
Non-resident
0.00
0.00
05-034.000
COOK YVONNE
613,800
154.78
332,200.00 MHL
2,816.00
Homestead
0.00
0.00
Non-resident
332,200.00
2,816.00
09-016.000
CRAWFORD CYNTHIA
244,100
25.44
58,300.00 R2
1,858.00
Homestead
58,300.00
1,858.00
Non-resident
0.00
0.00
05-086.000
CREWE ANNE
1,014,500
104.55
276,100.00 R2
7,384.00
Homestead
276,100.00
6,312.00
Non-resident
0.00
1,072.00
05-133.100
DEMARS DANIEL D
160,400
25.36
65,800.00 M
946.00
Homestead
0.00
0.00
Non-resident
65,800.00
946.00
09-069.000
DERRICK PATRICIA A
120,300
39.14
115,300.00 M
50.00
Homestead
0.00
0.00
Non-resident
115,300.00
50.00
04-011.200
DOUBLE C ENTERPRISES
33,300
9.00
32,100.00 M
12.00
Homestead
0.00
0.00
Non-resident
32,100.00
12.00
05-123.000
ELBOW COOPERATIVE
431,100
29.00
61,200.00 R2
3,699.00
Homestead
0.00
0.00
Non-resident
61,200.00
3,699.00
10-043.000
ELDREDGE FAMILY REALTY TRUST
383,900
59.00
158,100.00 R2
2,258.00
Homestead
0.00
0.00
Non-resident
158,100.00
2,258.00
11-126.000
ELWYN GLYN
374,700
93.00
181,800.00 S2
1,929.00
Homestead
0.00
0.00
Non-resident
181,800.00
1,929.00
01-009.000
ESSEX MARIANNA T ET AL
849,000
76.80
367,600.00 F
4,814.00
Homestead
367,600.00
4,814.00
Non-resident
0.00
0.00
14-023.000
FARID HANY S
989,900
15.00
156,100.00 R2
8,338.00
Homestead
156,100.00
8,338.00
Non-resident
0.00
0.00
12-005.100
FARRELL BRIGID ANN
209,500
7.20
22,800.00 M
1,867.00
Homestead
0.00
0.00
Non-resident
22,800.00
1,867.00
11-139.000
FRASER SUSAN M TRUSTEE
249,700
48.80
243,400.00 M
63.00
Homestead
0.00
0.00
Non-resident
243,400.00
63.00
08-004.100
FREEMAN SARAH
151,500
33.00
70,800.00 S2
807.00
Homestead
0.00
0.00
Non-resident
70,800.00
807.00
06/12/2015
01:48 pm
Town of Norwich Grand List
CURRENT USE EXEMPTIONS
By Name In All Districts
Page 3
jbynum
PARCEL
NAME
ASSESED VALUE LANDUSE ACREAGE
LANDUSE EXEMPT
GRAND LIST
-----------------------------------------------------------------------------------------------------------------------------------06-043.500
G PARTNERSHIP II
201,000
68.90
181,800.00 M
192.00
Homestead
0.00
0.00
Non-resident
181,800.00
192.00
14-021.000
GADZINSKI PETER
402,700
26.00
74,800.00 R2
3,279.00
Homestead
74,800.00
2,358.00
Non-resident
0.00
921.00
16-116.100
GELDENS MARGARET MCCALL TRUSTEE
998,200
28.20
74,800.00 R2
9,234.00
Homestead
0.00
0.00
Non-resident
74,800.00
9,234.00
10-083.000
GLADSTONE DAVID J
436,200
43.10
94,500.00 R2
3,417.00
Homestead
94,500.00
3,417.00
Non-resident
0.00
0.00
11-031.100
GOODRICH CRYSTAL C
733,900
124.46
262,400.00 R2
4,715.00
Homestead
262,400.00
4,715.00
Non-resident
0.00
0.00
14-031.100
GORMLEY SARA M
589,800
56.78
153,900.00 R2
4,359.00
Homestead
153,900.00
4,359.00
Non-resident
0.00
0.00
20-064.400
GRIGGS PETER W
607,700
93.34
590,600.00 M
171.00
Homestead
0.00
0.00
Non-resident
590,600.00
171.00
11-099.000
GUEST DAVID H
335,500
1.24
5,200.00 F
3,303.00
Homestead
5,200.00
2,440.09
Non-resident
0.00
862.91
11-100.100
GUEST DAVID H
146,500
13.10
143,400.00 M
31.00
Homestead
0.00
0.00
Non-resident
143,400.00
31.00
09-021.210
HADLOCK DARREN R.
286,500
80.72
276,100.00 M
104.00
Homestead
0.00
0.00
Non-resident
276,100.00
104.00
09-059.000
HAMPTON MARION TRUSTEE
598,600
195.80
449,300.00 R2
1,493.00
Homestead
0.00
0.00
Non-resident
449,300.00
1,493.00
11-042.000
HANLON FRANCIS X
1,452,300
83.20
213,600.00 R2
12,387.00
Homestead
0.00
0.00
Non-resident
213,600.00
12,387.00
05-111.000
HANNAM DEBORAH
2,132,400
232.90
488,700.00 R2
16,437.00
Homestead
0.00
0.00
Non-resident
488,700.00
16,437.00
09-020.000
HEALEY GENEVIEVE
137,100
26.35
60,148.00 R2
769.52
Homestead
0.00
0.00
Non-resident
60,148.00
769.52
03-043.110
HERRMANN CHERYL L
316,300
114.96
301,600.00 M
147.00
Homestead
0.00
0.00
Non-resident
301,600.00
147.00
03-016.000
HOLLERAN ALEXA R
563,800
26.00
66,400.00 R2
4,974.00
Homestead
66,400.00
4,974.00
Non-resident
0.00
0.00
06-065.000
HORAN DAVID E
807,300
180.00
437,400.00 F
3,699.00
Homestead
399,900.00
3,699.00
Non-resident
37,500.00
0.00
06/12/2015
01:48 pm
Town of Norwich Grand List
CURRENT USE EXEMPTIONS
By Name In All Districts
Page 4
jbynum
PARCEL
NAME
ASSESED VALUE LANDUSE ACREAGE
LANDUSE EXEMPT
GRAND LIST
-----------------------------------------------------------------------------------------------------------------------------------04-013.000
HOROWITZ MIRIAM
409,000
47.50
103,300.00 R2
3,057.00
Homestead
103,300.00
3,057.00
Non-resident
0.00
0.00
03-039.000
HUBBARD DAVID W
437,600
15.00
42,100.00 R2
3,955.00
Homestead
42,100.00
3,955.00
Non-resident
0.00
0.00
11-068.000
HULLEBERG THOMAS
2,177,200
78.54
209,000.00 R2
19,682.00
Homestead
0.00
0.00
Non-resident
209,000.00
19,682.00
10-012.500
JACOBSON GERALDINE TRUSTEE
1,248,200
38.84
109,000.00 R2
11,392.00
Homestead
109,000.00
7,086.00
Non-resident
0.00
4,306.00
14-027.000
JANEWAY EDWARD JR
639,800
16.00
48,600.00 R2
5,912.00
Homestead
0.00
0.00
Non-resident
48,600.00
5,912.00
11-128.000
JENNINGS SUSAN B TRUST
908,800
123.10
465,600.00 R2
4,432.00
Homestead
0.00
0.00
Non-resident
465,600.00
4,432.00
05-096.000
JUDD JOHN
193,800
43.07
181,600.00 M
122.00
Homestead
0.00
0.00
Non-resident
181,600.00
122.00
06-003.400
JULIAN KEEGAN D.W. TRUST
249,700
62.46
241,700.00 M
80.00
Homestead
0.00
0.00
Non-resident
241,700.00
80.00
04-055.000
KABLE JASON ERIC
989,000
36.68
174,400.00 R2
8,146.00
Homestead
174,400.00
8,146.00
Non-resident
0.00
0.00
05-098.000
KAHAN ALEX
849,600
36.20
100,700.00 R2
7,489.00
Homestead
100,700.00
7,489.00
Non-resident
0.00
0.00
14-026.000
KITCHEL DAVIS
763,400
107.20
225,800.00 R2
5,376.00
Homestead
225,800.00
5,376.00
Non-resident
0.00
0.00
09-022.200
KITCHEL WILLIAM L III
369,100
46.80
115,200.00 R2
2,539.00
Homestead
0.00
0.00
Non-resident
115,200.00
2,539.00
04-058.000
KRASS PETER
659,400
97.50
282,500.00 R2
3,769.00
Homestead
282,500.00
3,769.00
Non-resident
0.00
0.00
04-011.100
KUNZ BRIAN
259,000
10.00
21,600.00 R2
2,374.00
Homestead
21,600.00
2,374.00
Non-resident
0.00
0.00
04-008.000
LABOMBARD GRACE M H TRUSTEE
234,000
105.00
220,500.00 M
135.00
Homestead
0.00
0.00
Non-resident
220,500.00
135.00
06-034.000
LADENSON JACK H
1,040,100
65.40
259,200.00 R2
7,809.00
Homestead
0.00
0.00
Non-resident
259,200.00
7,809.00
09-001.000
LAKE MITCHELL TROUT CLUB INC
627,600
348.00
583,000.00 M
446.00
Homestead
0.00
0.00
Non-resident
583,000.00
446.00
06/12/2015
01:48 pm
Town of Norwich Grand List
CURRENT USE EXEMPTIONS
By Name In All Districts
Page 5
jbynum
PARCEL
NAME
ASSESED VALUE LANDUSE ACREAGE
LANDUSE EXEMPT
GRAND LIST
-----------------------------------------------------------------------------------------------------------------------------------05-095.300
LAKE NORAH S
293,400
42.44
107,700.00 R2
1,857.00
Homestead
0.00
0.00
Non-resident
107,700.00
1,857.00
05-095.400
LAKE NORAH S
263,700
19.19
112,200.00 F
1,467.00
Homestead
21,400.00
595.80
Non-resident
90,800.00
871.20
10-161.000
LAMPERTI AARON M
703,900
82.00
178,900.00 R2
5,250.00
Homestead
178,900.00
3,468.00
Non-resident
0.00
1,782.00
11-124.000
LANDAU STEVEN
775,600
94.80
249,200.00 R2
5,264.00
Homestead
0.00
0.00
Non-resident
249,200.00
5,264.00
15-012.000
LANG CHRISTOPHER W
717,900
60.68
129,700.00 R2
5,882.00
Homestead
0.00
0.00
Non-resident
129,700.00
5,882.00
11-045.400
LANGLOIS MARK
1,020,800
139.10
385,400.00 R2
6,354.00
Homestead
318,000.00
6,354.00
Non-resident
67,400.00
0.00
08-001.000
LES MITCHEL BROOK LLC
117,600
54.00
110,526.00 M
70.74
Homestead
0.00
0.00
Non-resident
110,526.00
70.74
04-065.000
LOUGHMAN STEPHEN
1,019,700
27.00
75,800.00 R2
9,439.00
Homestead
75,800.00
9,439.00
Non-resident
0.00
0.00
11-102.000
LOVELAND GEORGE R
1,086,600
35.20
93,300.00 R2
9,533.00
Homestead
93,300.00
4,685.72
Non-resident
0.00
4,847.28
04-004.000
MANDELBAUM DAVID
772,900
53.60
141,800.00 R2
6,311.00
Homestead
0.00
0.00
Non-resident
141,800.00
6,311.00
04-066.000
MARSH BRYAN J
790,900
54.80
117,400.00 R2
6,735.00
Homestead
117,400.00
6,735.00
Non-resident
0.00
0.00
04-069.000
MCBRYDE MARY
532,400
26.63
74,800.00 R2
4,576.00
Homestead
74,800.00
4,576.00
Non-resident
0.00
0.00
10-036.200
MCCAMPBELL LIVING TRUST CARMEN T
1,528,500
80.50
169,300.00 R2
13,592.00
Homestead
169,300.00
13,592.00
Non-resident
0.00
0.00
10-047.100
MCINDOE FARM LLC
436,100
116.65
415,000.00 M
211.00
Homestead
0.00
0.00
Non-resident
415,000.00
211.00
09-046.000
MCLAUGHRY SUSAN F
1,020,800
118.50
341,300.00 R2
6,795.00
Homestead
341,300.00
6,795.00
Non-resident
0.00
0.00
05-095.000
METCALF CHARLOTTE S
1,699,300
195.65
391,500.00 F
12,965.00
Homestead
391,500.00
10,015.00
Non-resident
0.00
2,950.00
05-110.000
METCALF LUCY D TRUSTEE ET AL
1,084,500
184.00
519,700.00 R2
5,648.00
Homestead
0.00
0.00
Non-resident
519,700.00
5,648.00
06/12/2015
01:48 pm
Town of Norwich Grand List
CURRENT USE EXEMPTIONS
By Name In All Districts
Page 6
jbynum
PARCEL
NAME
ASSESED VALUE LANDUSE ACREAGE
LANDUSE EXEMPT
GRAND LIST
-----------------------------------------------------------------------------------------------------------------------------------04-054.000
MILLER PENNY F
407,200
144.30
388,200.00 M
190.00
Homestead
0.00
0.00
Non-resident
388,200.00
190.00
04-031.200
MOFFATT DEBORAH
473,100
175.27
446,400.00 M
267.00
Homestead
0.00
0.00
Non-resident
446,400.00
267.00
10-001.000
MONTGOMERY DIANE TRUSTEE
668,700
50.90
137,800.00 R2
5,309.00
Homestead
0.00
0.00
Non-resident
137,800.00
5,309.00
09-022.110
MORLEY BENJAMIN D
839,100
71.00
167,300.00 R2
6,718.00
Homestead
167,300.00
6,718.00
Non-resident
0.00
0.00
05-077.000
MOSKOW KEITH
1,334,100
98.51
257,300.00 R2
10,768.00
Homestead
0.00
0.00
Non-resident
257,300.00
10,768.00
11-152.000
MYSTIC LAND OWNERS ASSOCIATION
111,700
42.27
90,600.00 M
211.00
Homestead
0.00
0.00
Non-resident
90,600.00
211.00
10-092.000
McKINNEY ANDREA J
453,300
153.60
385,900.00 S2
674.00
Homestead
0.00
0.00
Non-resident
385,900.00
674.00
03-001.100
NAUMANN MARINA G T TRUSTEE
568,700
99.59
555,900.00 M
128.00
Homestead
0.00
0.00
Non-resident
555,900.00
128.00
14-034.000
NICHOLLS DIANE M BARENDSE
250,100
72.00
240,900.00 M
92.00
Homestead
0.00
0.00
Non-resident
240,900.00
92.00
01-012.000
NORFORD LAKE CLUB INC
173,100
63.74
154,300.00 M
188.00
Homestead
0.00
0.00
Non-resident
154,300.00
188.00
11-077.000
NORWICH ASSOCIATES INC
800,700
332.04
735,500.00 M
652.00
Homestead
0.00
0.00
Non-resident
735,500.00
652.00
04-056.010
OLSON JANE B TRUSTEE
826,700
58.25
125,000.00 R2
7,017.00
Homestead
0.00
0.00
Non-resident
125,000.00
7,017.00
09-015.000
PARKER ANDREW STEWART
216,400
28.83
73,900.00 R2
1,425.00
Homestead
0.00
0.00
Non-resident
73,900.00
1,425.00
20-308.000
PEPPER JOHN S
1,660,400
26.50
70,000.00 R2
15,904.00
Homestead
70,000.00
15,904.00
Non-resident
0.00
0.00
03-036.000
PETTES MARK B
160,900
31.55
69,600.00 M
913.00
Homestead
0.00
0.00
Non-resident
69,600.00
913.00
04-032.410
PHILIPS NANCY M
602,000
35.40
77,900.00 R2
5,241.00
Homestead
77,900.00
5,241.00
Non-resident
0.00
0.00
11-052.100
PHILLIPS JOSEPH M
769,600
49.00
133,500.00 R2
6,361.00
Homestead
133,500.00
6,361.00
Non-resident
0.00
0.00
06/12/2015
01:48 pm
Town of Norwich Grand List
CURRENT USE EXEMPTIONS
By Name In All Districts
Page 7
jbynum
PARCEL
NAME
ASSESED VALUE LANDUSE ACREAGE
LANDUSE EXEMPT
GRAND LIST
-----------------------------------------------------------------------------------------------------------------------------------06-043.100
PIRO ROBERT A
1,383,000
106.70
339,800.00 R2
10,432.00
Homestead
236,900.00
4,666.00
Non-resident
102,900.00
5,766.00
11-001.000
PORTER ELIZABETH & ROBERT TRS
2,598,400
68.56
182,600.00 R2
24,158.00
Homestead
0.00
0.00
Non-resident
182,600.00
24,158.00
05-014.110
RANDALL THOMAS F
164,300
30.90
160,300.00 M
40.00
Homestead
0.00
0.00
Non-resident
160,300.00
40.00
05-016.000
RANDALL THOMAS F
564,800
60.00
207,800.00 R2
3,570.00
Homestead
207,800.00
3,570.00
Non-resident
0.00
0.00
10-003.000
RIESER LEONARD
688,800
277.50
570,900.00 S2
1,179.00
Homestead
0.00
0.00
Non-resident
570,900.00
1,179.00
06-025.000
RIMER AVERY E
128,100
4.70
127,500.00 M
6.00
Homestead
0.00
0.00
Non-resident
127,500.00
6.00
09-010.100
ROYCE RAYMOND
366,100
40.50
79,900.00 R2
2,862.00
Homestead
79,900.00
2,862.00
Non-resident
0.00
0.00
09-005.000
RUELLA LAND TRUST INC
289,600
15.80
48,600.00 R2
2,410.00
Homestead
0.00
0.00
Non-resident
48,600.00
2,410.00
15-009.000
RUSSELL ELISABETH W TRUSTEE
666,900
120.59
312,200.00 R2
3,547.00
Homestead
0.00
0.00
Non-resident
312,200.00
3,547.00
15-037.100
SAMS FAMILY HICKORY RIDGE LLC
857,400
64.70
140,400.00 R2
7,170.00
Homestead
0.00
0.00
Non-resident
140,400.00
7,170.00
06-041.000
SANDS FRANK E
1,338,800
226.94
481,100.00 R2
8,577.00
Homestead
481,100.00
8,577.00
Non-resident
0.00
0.00
06-031.000
SARGENT DWIGHT ET AL
846,300
58.75
154,400.00 R2
6,919.00
Homestead
0.00
0.00
Non-resident
154,400.00
6,919.00
06-027.000
SARGENT FAMILY REALTY TRUST
1,144,300
133.90
341,500.00 F
8,028.00
Homestead
341,500.00
7,488.00
Non-resident
0.00
540.00
06-033.100
SARGENT FARMS TRUST
407,000
126.30
384,300.00 M
227.00
Homestead
0.00
0.00
Non-resident
384,300.00
227.00
20-011.000
SCHLEICHER PAULA U TRUSTEE
3,194,500
180.59
427,800.00 R2
27,667.00
Homestead
0.00
0.00
Non-resident
427,800.00
27,667.00
01-011.000
SELLMAN PAUL V
1,152,800
180.20
523,200.00 R2
6,296.00
Homestead
0.00
0.00
Non-resident
523,200.00
6,296.00
04-048.000
SHAW FRANZISKA R TRUSTEE
1,452,100
94.00
582,400.00 R2
8,697.00
Homestead
0.00
0.00
Non-resident
582,400.00
8,697.00
06/12/2015
01:48 pm
Town of Norwich Grand List
CURRENT USE EXEMPTIONS
By Name In All Districts
Page 8
jbynum
PARCEL
NAME
ASSESED VALUE LANDUSE ACREAGE
LANDUSE EXEMPT
GRAND LIST
-----------------------------------------------------------------------------------------------------------------------------------12-003.100
SHERWIN ROBERT W
987,700
90.00
224,800.00 F
7,629.00
Homestead
224,800.00
6,297.00
Non-resident
0.00
1,332.00
10-028.000
SIGLER ANDREW C TRUSTEE
1,239,900
77.30
166,800.00 R2
10,731.00
Homestead
166,800.00
8,950.00
Non-resident
0.00
1,781.00
10-076.600
SIGLER ANDREW C TRUSTEE
334,700
100.30
321,600.00 M
131.00
Homestead
0.00
0.00
Non-resident
321,600.00
131.00
10-078.000
SIGLER MARGARET R TRUSTEE
1,282,500
251.51
644,600.00 R2
6,379.00
Homestead
0.00
0.00
Non-resident
644,600.00
6,379.00
03-043.200
STANZEL PETER E
174,100
68.30
165,300.00 M
88.00
Homestead
0.00
0.00
Non-resident
165,300.00
88.00
09-034.000
STEPHENSON JEREMY A
839,600
72.12
527,500.00 R2
3,121.00
Homestead
527,500.00
3,121.00
Non-resident
0.00
0.00
06-003.100
STERN LYNN ET AL
900,500
167.22
351,000.00 R2
5,495.00
Homestead
0.00
0.00
Non-resident
351,000.00
5,495.00
01-010.000
STONEBRIDGE FARM LLC
960,100
66.57
175,800.00 R2
7,843.00
Homestead
0.00
0.00
Non-resident
175,800.00
7,843.00
03-054.100
SULLIVAN MAUREEN TRUSTEE
427,300
36.82
79,400.00 R2
3,479.00
Homestead
0.00
0.00
Non-resident
79,400.00
3,479.00
03-050.500
SVENSON BENJAMIN
334,400
52.10
236,500.00 M
979.00
Homestead
0.00
0.00
Non-resident
236,500.00
979.00
04-002.500
SWETT MATTHEW R
1,291,700
141.90
372,600.00 R2
9,191.00
Homestead
372,600.00
9,191.00
Non-resident
0.00
0.00
10-208.100
SYLVESTER RUTH E
643,300
48.90
132,800.00 R2
5,105.00
Homestead
0.00
0.00
Non-resident
132,800.00
5,105.00
04-042.000
TAYLOR LOUISE NUNAN
3,808,000
1267.31
2384,500.00 R2
14,235.00
Homestead
2,384,500.00
9,016.00
Non-resident
0.00
5,219.00
01-008.000
TAYLOR LOUISE NUNAN ET AL
482,000
185.00
456,000.00 M
260.00
Homestead
0.00
0.00
Non-resident
456,000.00
260.00
04-017.000
TEETER STANLEY
885,900
269.72
548,300.00 R2
3,376.00
Homestead
548,300.00
3,376.00
Non-resident
0.00
0.00
09-050.000
TERINO GUARINO ET AL
436,100
165.00
342,300.00 S2
938.00
Homestead
0.00
0.00
Non-resident
342,300.00
938.00
03-059.000
THOMPSON DARRELL
503,400
112.00
234,600.00 R2
2,688.00
Homestead
234,600.00
2,688.00
Non-resident
0.00
0.00
06/12/2015
01:48 pm
Town of Norwich Grand List
CURRENT USE EXEMPTIONS
By Name In All Districts
Page 9
jbynum
PARCEL
NAME
ASSESED VALUE LANDUSE ACREAGE
LANDUSE EXEMPT
GRAND LIST
-----------------------------------------------------------------------------------------------------------------------------------09-052.000
TIBBITS CLAUDE
1,313,200
165.70
343,900.00 R2
9,693.00
Homestead
0.00
0.00
Non-resident
343,900.00
9,693.00
10-006.000
TIDMAN LYNN W TRUSTEE
1,101,800
53.40
152,000.00 R2
9,498.00
Homestead
152,000.00
9,498.00
Non-resident
0.00
0.00
06-003.200
TUGGLE ELIZABETH W
1,046,200
58.32
155,300.00 R2
8,909.00
Homestead
155,300.00
5,880.00
Non-resident
0.00
3,029.00
20-243.200
UPPER VALLEY LAND TRUST INC
11,300
2.50
11,000.00 M
3.00
Homestead
0.00
0.00
Non-resident
11,000.00
3.00
11-037.100
VALTIN ALISON E
191,400
27.00
186,700.00 M
47.00
Homestead
0.00
0.00
Non-resident
186,700.00
47.00
11-037.000
VALTIN AND COX REVOCABLE TRUST
519,300
25.00
72,600.00 R2
4,467.00
Homestead
0.00
0.00
Non-resident
72,600.00
4,467.00
10-211.000
VAN ARMAN JAY
1,167,500
112.20
286,300.00 F
8,812.00
Homestead
242,400.00
6,286.00
Non-resident
43,900.00
2,526.00
14-025.000
WIGGIN JOHN P JR TRUSTEE
625,800
88.40
235,300.00 R2
3,905.00
Homestead
235,300.00
3,905.00
Non-resident
0.00
0.00
09-026.000
WILLIAMS STANTON N
1,440,400
79.40
210,500.00 R2
12,299.00
Homestead
210,500.00
9,248.00
Non-resident
0.00
3,051.00
09-025.200
WILLIAMS STANTON N TRUSTEE
232,000
44.50
226,300.00 M
57.00
Homestead
0.00
0.00
Non-resident
226,300.00
57.00
***** GRAND TOTALS
------------104,090,600
=============
--------------13,447.31
Homestead
Non-residential
===============
-------------- -------------35,174,613.00
688,598.87
13,792,200.00
351,903.61
21,382,413.00
336,695.26
============== ==============
06/12/2015
01:52 pm
Town of Norwich Grand List
Form 411 - (Town code: 450)
In All Districts
Page 1
jbynum
(Taxable properties only - State and Non-tax status properties are not listed below)
REAL ESTATE
Parcel
Municipal
Homestead Ed
Non-Resi Ed.
Total Education
Category/Code
Count
Listed Value
Listed Value
Listed Value
Listed Value
-----------------------------------------------------------------------------------------------------------------------------------Residential I
R1
801
319,698,400
236,078,199
83,620,201
319,698,400
Residential II R2
489
321,230,800
211,183,425
110,047,375
321,230,800
Mobile Homes-U MHU
2
8,800
8,800
0
8,800
Mobile Homes-L MHL
13
2,162,700
614,500
1,548,200
2,162,700
Seasonal I
S1
5
481,000
0
481,000
481,000
Seasonal II
S2
13
3,444,300
0
3,444,300
3,444,300
Commercial
C
45
31,003,200
0
31,003,200
31,003,200
Commercial Apts CA
7
6,513,000
0
6,513,000
6,513,000
Industrial
I
0
0
0
0
0
Utilities-E
UE
3
7,477,300
0
7,477,300
7,477,300
Utilities-O
UO
0
0
0
0
0
Farm
F
10
8,918,000
7,618,289
1,299,711
8,918,000
Other
O
27
7,129,800
4,826,550
2,303,250
7,129,800
Woodland
W
0
0
0
0
0
Miscellaneous M
141
24,860,300
0
24,860,300
24,860,300
------ --------------------------------------------------------TOTAL LISTED REAL
1,556
732,927,600
460,329,763
272,597,837
732,927,600
P.P. Cable
P.P. Equipment
P.P. Inventory
1
1,264,600
0
0
0
0
------ --------------1
1,264,600
TOTAL LISTED P.P.
TOTAL LISTED VALUE
EXEMPTIONS
Veterans 10K
Veterans >10K
7/7
Total Veterans
P.P. Contracts
Contract Apprv VEPC
Grandfathered
Non-Apprv(voted)
Owner Pays Ed Tax
Total Contracts
FarmStab Apprv VEPC
Farm Grandfathered
Non-Apprv(voted)
Owner Pays Ed Tax
Total FarmStabContr
Current Use
Special Exemptions
1,264,600
1,264,600
---------------
--------------1,264,600
--------------1,264,600
===============
734,192,200
===============
460,329,763
===============
273,862,437
===============
734,192,200
70,000
210,000
--------------280,000
70,000
0
70,000
--------------70,000
--------------0
--------------70,000
0
0
0
124,400
0
124,400
--------------0
--------------124,400
--------------124,400
0
0
0
0
0
0
--------------0
--------------0
--------------0
13,792,200
21,382,413
35,174,613
0
0
0
1
0/0
1/1
8/8
0/0
1,264,600
0
124,400
2,086,600
0
--------------10/9
3,475,600
0/0
0/0
0/0
0/0
0
0
0
0
--------------0/0
0
146/146
0
35,174,613
Partial Statutory
0
--------------21,506,813
===============
21,506,813
===============
0
--------------35,369,013
===============
35,369,013
===============
TOTAL MUNICIPAL GRAND LIST
TOTAL EDUCATION GRAND LIST
4,464,675.63
2,523,556.24
NON-TAX
55 NON-TAX PARCELS ARE NOT INCLUDED ON THE 411
6,988,231.87
Sub-total Exemptions
Total Exemptions
0/0
0
--------------38,930,213
===============
38,930,213
===============
6,952,619.87
0
--------------13,862,200
===============
13,862,200
===============
06/12/2015
01:52 pm
Town of Norwich Grand List
Form 411 - (Town code: 450)
In All Districts
Page 2
jbynum
(Taxable properties only - State and Non-tax status properties are not listed below)
REAL ESTATE
Parcel
Municipal
Homestead Ed
Non-Resi Ed.
Total Education
Category/Code
Count
Listed Value
Listed Value
Listed Value
Listed Value
------------------------------------------------------------------------------------------------------------------------------------------------------------------------------------------------------------------|
Status on Personal Property
|
| 1) Has inventory been exempted by vote of town/city? Yes_XX_ No____
|
|
|
| 2) Has machinery and equipment been exempted by
|
|
vote of your town/city?
Yes_XX_ No____
|
|
|
| 3) If yes for #2, what portion is now exempt?
|
|
(include percentage)
_____100.00_____
|
|
|
| 4) If no for #2, please indicate below how your town/city is
|
|
assessing business personal property (Place "X" by option used)
|
|
a) at fair market value _____
b) at depreciated value _____
|
-------------------------------------------------------------------------------|
Summary of Adjustments to Taxable Values (Local Agreements Etc.)
|
| Approved (VEPC) Contracts/Exemptions
0|
| Grandfathered Contracts/Exemptions
124,400|
| Non-Approved (Voted) Contracts/Exemptions
2,086,600|
| Homestead Non-Approved (Voted) Contracts/Exemptions
35,900|
| Non-Resi Non-Approved (Voted) Contracts/Exemptions
2,050,700|
| Municipal Contracts (Owner Pays Ed Tax)
0|
| Special Exemptions
0|
| Current Use (Use Value Appraisal Program)
35,174,613|
| Veteran Exemptions
70,000|
| Homestead Veteran Exemptions beyond 10K
210,000|
| Non-Resi Veteran Exemptions beyond 10K
0|
| Partial Statutory Exemptions
0|
--------------------------------------------------------------------------------
06/12/2015
01:52 pm
Town of Norwich Grand List
CONTRACTS - (Town code: 450)
Main District: Listed By Type and Date Voted
DATE VOTED
PARCEL ID
Page 3
jbynum
NAME
CAT. BEGINNING ENDING STATUTE CODE VALUE BEFORE CONTRACT ASSMT LESS
CODE
DATE
DATE
TITLE
EXEMPTION
AMOUNT
CONTRACT
-----------------------------------------------------------------------------------------------------------------------------------/ /
03-052.000
BEAVER MEADOW CHAPEL ASSO C
/ /
/ /
MUNI
124,400
124,400
0
450-142-11804
Non-residential
124,400
0
------,--Grandfathered Contracts/Exemptions
124,400
03/06/07
05-095.000
450-142-12510
METCALF CHARLOTTE S
F
04/01/07
/
/
3845
1,699,300
Homestead
Non-residential
11,300
11,300
0
1,688,000
1,393,000
295,000
03/06/07
05-095.400
450-142-13213
LAKE NORAH S
F
04/01/07
/
/
3845
263,700
Homestead
Non-residential
4,800
4,800
0
258,900
80,980
177,920
03/06/07
16-116.410
450-142-13188
BROWNELL TIMOTHY
R1
04/01/07
/
/
3845
333,900
Homestead
Non-residential
19,800
19,800
0
314,100
314,100
0
04/01/09
20-191.000
450-142-12023
NORWICH HOUSING CORPORATI
CA
04/01/09
04/01/19
3843
1,514,800
1,514,800
Non-residential 1,514,800
0
0
03/01/11
09-029.100
450-142-13327
NORWICH FIRE DISTRICT
M
04/01/11
04/01/16
3840
10,000
Non-residential
10,000
10,000
0
0
03/01/11
09-036.100
450-142-13328
NORWICH FIRE DISTRICT
M
04/01/11
04/01/16
3840
30,000
Non-residential
30,000
30,000
0
0
03/01/11
11-058.010
450-142-13043
ROOT DISTRICT GAME CLUB
C
04/01/11
04/01/16
3840
191,800
Non-residential
191,800
191,800
0
0
03/07/11
20-211.000
450-142-12414
UPPER VALLEY COMM GRANGE
C
04/01/11
04/01/16
3840
304,100
304,100
Non-residential
304,100
------,--2086,600
0
0
3618
1,264,600
1,264,600
Non-residential
0
------,--1264,600
0
1,264,600
Non-Approved (Voted) Contracts/Exemptions
/
/
70-008.000
450-142-13166
COMCAST, PROPERTY TAX DEP
Municipal Contracts (Owner Pays Ed Tax)
PC
/
/
/
/
06/12/2015
01:52 pm
Town of Norwich Grand List
NON-TAXABLE PARCELS ABSTRACT
Main District: Listed in Parcel Order
Page 4
jbynum
The real property parcels listed below are exempt from the property tax under Vermont law. These parcels are included in the
grand list book in accord with 32 VSA section 41.52 and subject to parcel payments under 32 VSA section 4041a.
Payment can only be issues if complete and accurate information is provided. Do not include parcels subject to local agreements.
OWNER NAME
PARCEL ID
CATEGORY PROPERTY DESCRIPTION
LOCATION
VALUE ESTIMATE
-----------------------------------------------------------------------------------------------------------------------------------AMERICAN LEGION POST 8
20-081.000
C
1 ACRE & LODGE HOUSE
228 BEAVER MEADOW RD
263,700
BEAVER MEADOW CHAPEL ASSOC
03-031.000
C
0.11 ACRE & CHAPEL
1672 BEAVER MEADOW RD
150,100
CHILD CARE CENTER INC
15-081.000
C
4.4 ACRES & COMM BLDG
75 MONTSHIRE RD
526,400
CONGREGATIONAL CHURCH
20-230.200
C
.75 ACRE & CHURCH
15 CHURCH ST
1,414,500
DRESDEN SCHOOL DISTRICT
15-072.000
C
70.78 AC; SCHOOL FIELDS & 223 US ROUTE 5 SOUTH
1,432,200
FAMILY PLACE THE
15-078.000
C
1 ACRE & 2 BLDGS
319 US ROUTE 5 SOUTH
736,700
METHODIST CHURCH
05-058.000
C
.66 ACRES CHURCH & COMM
91 ACADEMY RD
587,000
MONTSHIRE MUSEUM OF SCIENCE
16-090.000
C
109.5 ACRES & MUSEUM BLDG 35 MONTSHIRE RD
6,706,500
NORWICH FIRE DISTRICT
09-029.000
M
79.37 ACRES (TOWN OWNS DE 0 TUCKER HILL RD
344,300
NORWICH FIRE DISTRICT
09-036.000
M
836.3 ACRES TOWN OWNS DEV 1266 BEAVER MEADOW RD
1,037,600
NORWICH FIRE DISTRICT
10-024.000
C
.91 ACRE & CHLORINATION S 417 BEAVER MEADOW RD
108,900
NORWICH HISTORICAL SOCIETY
20-247.000
C
.92 ACRE & DWL
277 MAIN ST
446,500
NORWICH NURSERY SCHOOL INC
20-229.100
C
EMERSON COURT UNITS 3 & 4 312 MAIN ST
196,400
NORWICH PUBLIC LIBRARY ASSOC
20-192.000
C
.6 ACRE & LIBRARY
368 MAIN ST
1,563,800
NORWICH RECREATIONAL COUNCIL
10-021.000
C
6 ACRES & TOWN SWIMMING P 335 BEAVER MEADOW RD
319,800
NORWICH SCHOOL DISTRICT
20-238.000
C
7.03 ACRES & SCHOOL
22 CHURCH ST
7,036,400
NORWICH TOWN OF
03-030.000
M
0.88 ACRE & BEAVER MEADOW 0 BEAVER MEADOW RD
73,700
NORWICH TOWN OF
04-010.000
M
52 ACRES (STONE LOT)
0 TURNPIKE RD
217,700
NORWICH TOWN OF
04-014.000
M
7.3 ACRES
0 TURNPIKE RD
113,800
NORWICH TOWN OF
04-015.000
M
45 ACRES SIGNAL HILL LOT
1711 TURNPIKE RD
117,500
NORWICH TOWN OF
04-031.010
M
.01 ACRE & TURNPIKE CEMET 0 TURNPIKE RD
7,400
NORWICH TOWN OF
05-019.000
M
.77 ACRE & NEW BOSTON CEM 0 NORFORD LAKE RD
73,700
NORWICH TOWN OF
05-057.000
M
3.28 ACRES & UNION VILLAG 0 ACADEMY RD
100,300
NORWICH TOWN OF
05-065.000
M
.46 ACRES
0 VT ROUTE 132
10,100
NORWICH TOWN OF
06-029.010
M
0.1 ACRE & POMPY CEMETERY 0 WRIGHT CEMETARY RD
17,000
NORWICH TOWN OF
09-000.001
M
.03 ACRES & PARKHURST CEM 0 BURTON WOODS RD
1,100
NORWICH TOWN OF
10-190.100
C
24.48 AC & DPW & TRANS ST 24 NEW BOSTON RD
764,000
NORWICH TOWN OF
11-011.000
M
1.2 ACRES & CEMETERY
0 OLCOTT RD
113,400
NORWICH TOWN OF
12-008.000
M
.94 ACRE & POMPANOOSUC CE 0 HEMLOCK RD
82,400
NORWICH TOWN OF
12-026.000
M
2.15 ACRES
0 KENDALL STATION RD
185,900
NORWICH TOWN OF
12-033.000
M
.07 ACRE RIVER ACCESS
0 KENDALL STATION RD
700
NORWICH TOWN OF
15-045.000
M
.21 ACRES
0 HOPSON RD
4,500
NORWICH TOWN OF
16-005.000
M
22.5 ACRES (SCHMIDT BOG)
0 UPPER LOVELAND RD
69,800
NORWICH TOWN OF
16-059.020
M
6.7 ACRES
0 RIVER RD
108,500
NORWICH TOWN OF
16-067.000
M
.66 ACRES (SCOTT LAND)
0 MCKENNA RD
8,800
NORWICH TOWN OF
16-101.100
M
.14 ACRES BOAT LANDING
138 RIVER RD
83,000
NORWICH TOWN OF
20-033.000
M
10.9 ACRES & HILLSIDE CEM 0 HILLSIDE RD
184,900
NORWICH TOWN OF
20-051.000
M
1.5 ACRES & BARRETT PLAYG 7 BRAGG HILL RD
185,600
NORWICH TOWN OF
20-068.200
M
41.79 ACRES
0 DUTTON HILL
230,300
NORWICH TOWN OF
20-117.000
M
1.5 ACRES & FAIRVIEW CEME 0 BEAVER MEADOW RD
127,300
NORWICH TOWN OF
20-148.000
M
27 ACRES HUNTLEY MEADOW
111 TURNPIKE RD
716,200
NORWICH TOWN OF
20-209.000
C
.1 ACRE & FIREHOUSE
11 FIREHOUSE LN
521,300
NORWICH TOWN OF
20-209.100
C
1.2 ACRES & POLICE STATIO 10 HAZEN ST
343,900
NORWICH TOWN OF
20-231.000
C
.31 ACRE & TRACY HALL
300 MAIN ST
1,417,100
NORWICH TOWN OF
20-242.000
M
37.09 ACRES & ADDL LOT (N 0 MAIN ST
234,500
SIGLER FOUNDATION A. C. AND M. R.
10-076.100
C
5.26 ACRES & DWL & FARM
701 TURNPIKE RD
1,063,500
ST FRANCIS OF ASSISI
20-116.000
C
8.07 ACRES & CHURCH
70 BEAVER MEADOW RD
521,100
06/12/2015
01:52 pm
Town of Norwich Grand List
NON-TAXABLE PARCELS ABSTRACT
Main District: Listed in Parcel Order
Page 5
jbynum
OWNER NAME
PARCEL ID
CATEGORY PROPERTY DESCRIPTION
LOCATION
VALUE ESTIMATE
-----------------------------------------------------------------------------------------------------------------------------------ST. BARNABAS CHURCH
20-239.000
C
4.69 ACRES CHURCH & PARSO 262 MAIN ST
668,600
UNITARIAN UNIVERSALIST CHURCH
15-039.000
C
7.07 ACRES & CHURCH
320 US ROUTE 5 SOUTH
267,400
UNITED STATES OF AMERICA
10-034.000
C
1.69 ACRES
642 BEAVER MEADOW RD
121,400
UNITED STATES OF AMERICA
20-010.000
M
APPALACHIAN TRAIL- 697.37 0 TOWNWIDE
1,891,900
TOTAL NUMBER OF EXEMPT PARCELS:
51
We certify that the foregoing is a true abstract of the grand list of _____________________________ for the year ___________.
Given under our hands at _____________________________ on this ______ day of ______________________ in the year ____________.
___________________________________________________________________________________________ LISTERS
I hereby certify that I have examined the grand list for the year ______ now on file and hereby certify this abstract in
accord with 32 V.S.A. 4183.
Attest ____________________________________________ TOWN CLERK
Date: ____________________________________________
Section 5404(b) of Title 32 of the V.S.A. requires the following.
The clerk of a municipality, or the supervisor of an unorganized town or gore, annually
by August 15 shall transmit to the director, in electronic format prescribed by the
director, education and munici grand list data, including exemption information and grand
list abstracts.
If changes or additions to the grand list are made by the listers or other officials
authorized to do so after the transmission of the electronic grand list and abstract of
the grand list, such clerks shall forthwith certify the same to the director by
transmitting an updated electronic grand list book and electronic abstract of the grand
list.

Similar documents